  0
SECTION
  2
HEADER
  9
$ACADVER
  1
AC1015
  9
$ACADMAINTVER
 70
     6
  9
$DWGCODEPAGE
  3
ANSI_1252
  9
$INSBASE
 10
0.0
 20
0.0
 30
0.0
  9
$EXTMIN
 10
-1365.512007
 20
-580.702989
 30
0.0
  9
$EXTMAX
 10
102.023738
 20
41.702986
 30
0.0
  9
$LIMMIN
 10
0.0
 20
0.0
  9
$LIMMAX
 10
0.0
 20
0.0
  9
$ORTHOMODE
 70
     0
  9
$REGENMODE
 70
     1
  9
$FILLMODE
 70
     1
  9
$QTEXTMODE
 70
     0
  9
$MIRRTEXT
 70
     1
  9
$LTSCALE
 40
1.0
  9
$ATTMODE
 70
     1
  9
$TEXTSIZE
 40
0.2
  9
$TRACEWID
 40
0.05
  9
$TEXTSTYLE
  7
Standard
  9
$CLAYER
  8
0
  9
$CELTYPE
  6
Continuous
  9
$CECOLOR
 62
   256
  9
$CELTSCALE
 40
1.0
  9
$DISPSILH
 70
     0
  9
$DIMSCALE
 40
1.0
  9
$DIMASZ
 40
0.18
  9
$DIMEXO
 40
0.0625
  9
$DIMDLI
 40
0.38
  9
$DIMRND
 40
0.0
  9
$DIMDLE
 40
0.0
  9
$DIMEXE
 40
0.18
  9
$DIMTP
 40
0.0
  9
$DIMTM
 40
0.0
  9
$DIMTXT
 40
0.18
  9
$DIMCEN
 40
0.09
  9
$DIMTSZ
 40
0.0
  9
$DIMTOL
 70
     0
  9
$DIMLIM
 70
     0
  9
$DIMTIH
 70
     1
  9
$DIMTOH
 70
     1
  9
$DIMSE1
 70
     0
  9
$DIMSE2
 70
     0
  9
$DIMTAD
 70
     0
  9
$DIMZIN
 70
     0
  9
$DIMBLK
  1

  9
$DIMASO
 70
     1
  9
$DIMSHO
 70
     1
  9
$DIMPOST
  1

  9
$DIMAPOST
  1

  9
$DIMALT
 70
     0
  9
$DIMALTD
 70
     2
  9
$DIMALTF
 40
25.4
  9
$DIMLFAC
 40
1.0
  9
$DIMTOFL
 70
     0
  9
$DIMTVP
 40
0.0
  9
$DIMTIX
 70
     0
  9
$DIMSOXD
 70
     0
  9
$DIMSAH
 70
     0
  9
$DIMBLK1
  1

  9
$DIMBLK2
  1

  9
$DIMSTYLE
  2
Standard
  9
$DIMCLRD
 70
     0
  9
$DIMCLRE
 70
     0
  9
$DIMCLRT
 70
     0
  9
$DIMTFAC
 40
1.0
  9
$DIMGAP
 40
0.09
  9
$DIMJUST
 70
     0
  9
$DIMSD1
 70
     0
  9
$DIMSD2
 70
     0
  9
$DIMTOLJ
 70
     1
  9
$DIMTZIN
 70
     0
  9
$DIMALTZ
 70
     0
  9
$DIMALTTZ
 70
     0
  9
$DIMUPT
 70
     0
  9
$DIMDEC
 70
     4
  9
$DIMTDEC
 70
     4
  9
$DIMALTU
 70
     2
  9
$DIMALTTD
 70
     2
  9
$DIMTXSTY
  7
Standard
  9
$DIMAUNIT
 70
     0
  9
$DIMADEC
 70
     0
  9
$DIMALTRND
 40
0.0
  9
$DIMAZIN
 70
     0
  9
$DIMDSEP
 70
     0
  9
$DIMATFIT
 70
     3
  9
$DIMFRAC
 70
     0
  9
$DIMLDRBLK
  1

  9
$DIMLUNIT
 70
     2
  9
$DIMLWD
 70
     0
  9
$DIMLWE
 70
     0
  9
$DIMTMOVE
 70
     0
  9
$LUNITS
 70
     2
  9
$LUPREC
 70
     4
  9
$SKETCHINC
 40
0.1
  9
$FILLETRAD
 40
0.0
  9
$AUNITS
 70
     0
  9
$AUPREC
 70
     0
  9
$MENU
  1
acad
  9
$ELEVATION
 40
0.0
  9
$PELEVATION
 40
0.0
  9
$THICKNESS
 40
0.0
  9
$LIMCHECK
 70
     0
  9
$CHAMFERA
 40
0.0
  9
$CHAMFERB
 40
0.0
  9
$CHAMFERC
 40
0.0
  9
$CHAMFERD
 40
0.0
  9
$SKPOLY
 70
     0
  9
$TDCREATE
 40
0.000000000
  9
$TDUCREATE
 40
0.000000000
  9
$TDUPDATE
 40
0.000000000
  9
$TDUUPDATE
 40
0.000000000
  9
$TDINDWG
 40
0.0000000000
  9
$TDUSRTIMER
 40
0.0000000000
  9
$USRTIMER
 70
     1
  9
$ANGBASE
 50
0.0
  9
$ANGDIR
 70
     0
  9
$PDMODE
 70
     0
  9
$PDSIZE
 40
0.0
  9
$PLINEWID
 40
0.0
  9
$SPLFRAME
 70
     0
  9
$SPLINETYPE
 70
     6
  9
$SPLINESEGS
 70
     8
  9
$HANDSEED
  5
757
  9
$SURFTAB1
 70
     6
  9
$SURFTAB2
 70
     6
  9
$SURFTYPE
 70
     6
  9
$SURFU
 70
     6
  9
$SURFV
 70
     6
  9
$UCSBASE
  2

  9
$UCSNAME
  2

  9
$UCSORG
 10
0.0
 20
0.0
 30
0.0
  9
$UCSXDIR
 10
1.0
 20
0.0
 30
0.0
  9
$UCSYDIR
 10
0.0
 20
1.0
 30
0.0
  9
$UCSORTHOREF
  2

  9
$UCSORTHOVIEW
 70
     0
  9
$UCSORGTOP
 10
0.0
 20
0.0
 30
0.0
  9
$UCSORGBOTTOM
 10
0.0
 20
0.0
 30
0.0
  9
$UCSORGLEFT
 10
0.0
 20
0.0
 30
0.0
  9
$UCSORGRIGHT
 10
0.0
 20
0.0
 30
0.0
  9
$UCSORGFRONT
 10
0.0
 20
0.0
 30
0.0
  9
$UCSORGBACK
 10
0.0
 20
0.0
 30
0.0
  9
$PUCSBASE
  2

  9
$PUCSNAME
  2

  9
$PUCSORG
 10
0.0
 20
0.0
 30
0.0
  9
$PUCSXDIR
 10
1.0
 20
0.0
 30
0.0
  9
$PUCSYDIR
 10
0.0
 20
1.0
 30
0.0
  9
$PUCSORTHOREF
  2

  9
$PUCSORTHOVIEW
 70
     0
  9
$PUCSORGTOP
 10
0.0
 20
0.0
 30
0.0
  9
$PUCSORGBOTTOM
 10
0.0
 20
0.0
 30
0.0
  9
$PUCSORGLEFT
 10
0.0
 20
0.0
 30
0.0
  9
$PUCSORGRIGHT
 10
0.0
 20
0.0
 30
0.0
  9
$PUCSORGFRONT
 10
0.0
 20
0.0
 30
0.0
  9
$PUCSORGBACK
 10
0.0
 20
0.0
 30
0.0
  9
$USERI1
 70
     0
  9
$USERI2
 70
     0
  9
$USERI3
 70
     0
  9
$USERI4
 70
     0
  9
$USERI5
 70
     0
  9
$USERR1
 40
0.0
  9
$USERR2
 40
0.0
  9
$USERR3
 40
0.0
  9
$USERR4
 40
0.0
  9
$USERR5
 40
0.0
  9
$WORLDVIEW
 70
     1
  9
$SHADEDGE
 70
     3
  9
$SHADEDIF
 70
    70
  9
$TILEMODE
 70
     1
  9
$MAXACTVP
 70
    16
  9
$PINSBASE
 10
0.0
 20
0.0
 30
0.0
  9
$PLIMCHECK
 70
     0
  9
$PEXTMIN
 10
1.000000E+20
 20
1.000000E+20
 30
1.000000E+20
  9
$PEXTMAX
 10
-1.000000E+20
 20
-1.000000E+20
 30
-1.000000E+20
  9
$PLIMMIN
 10
0.0
 20
0.0
  9
$PLIMMAX
 10
12.0
 20
9.0
  9
$UNITMODE
 70
     0
  9
$VISRETAIN
 70
     0
  9
$PLINEGEN
 70
     0
  9
$PSLTSCALE
 70
     0
  9
$TREEDEPTH
 70
  3020
  9
$CMLSTYLE
  2
Standard
  9
$CMLJUST
 70
     0
  9
$CMLSCALE
 40
1.0
  9
$PROXYGRAPHICS
 70
     0
  9
$MEASUREMENT
 70
     0
  9
$CELWEIGHT
370
     0
  9
$ENDCAPS
280
     0
  9
$JOINSTYLE
280
     0
  9
$LWDISPLAY
290
     0
  9
$INSUNITS
 70
     0
  9
$HYPERLINKBASE
  1

  9
$XEDIT
290
     1
  9
$CEPSNTYPE
380
     0
  9
$PSTYLEMODE
290
     1
  9
$FINGERPRINTGUID
  2

  9
$VERSIONGUID
  2

  9
$EXTNAMES
290
     1
  9
$PSVPSCALE
 40
0.0
  0
ENDSEC
  0
SECTION
  2
CLASSES
  0
CLASS
  1
LWPOLYLINE
  2
AcDbPolyline
  3
AutoCAD 2000
 90
    32768
280
     0
281
     1
  0
CLASS
  1
IMAGE
  2
AcDbRasterImage
  3
ISM
 90
    32895
280
     0
281
     1
  0
CLASS
  1
OLE2FRAME
  2
AcDbOle2Frame
  3
AutoCAD 2000
 90
    32768
280
     0
281
     1
  0
CLASS
  1
HATCH
  2
AcDbHatch
  3
AutoCAD 2000
 90
    32768
280
     0
281
     1
  0
CLASS
  1
DICTIONARYVAR
  2
AcDbDictionaryVar
  3
AutoCAD 2000
 90
    32768
280
     0
281
     0
  0
CLASS
  1
RASTERVARIABLES
  2
AcDbRasterVariables
  3
ISM
 90
    32768
280
     0
281
     0
  0
CLASS
  1
IMAGEDEF
  2
AcDbRasterImageDef
  3
ISM
 90
    32768
280
     0
281
     0
  0
CLASS
  1
IMAGEDEF_REACTOR
  2
AcDbRasterImageDefReactor
  3
ISM
 90
    32769
280
     0
281
     0
  0
CLASS
  1
IDBUFFER
  2
AcDbIdBuffer
  3
AutoCAD 2000
 90
    32768
280
     0
281
     0
  0
CLASS
  1
SPATIAL_FILTER
  2
AcDbSpatialFilter
  3
AutoCAD 2000
 90
    32768
280
     0
281
     0
  0
CLASS
  1
XRECORD
  2
AcDbXrecord
  3
AutoCAD 2000
 90
    32768
280
     0
281
     0
  0
CLASS
  1
SORTENTSTABLE
  2
AcDbSortentsTable
  3
AutoCAD 2000
 90
    32768
280
     0
281
     0
  0
CLASS
  1
LAYER_INDEX
  2
AcDbLayerIndex
  3
AutoCAD 2000
 90
    32768
280
     0
281
     0
  0
CLASS
  1
SPATIAL_INDEX
  2
AcDbSpatialIndex
  3
AutoCAD 2000
 90
    32768
280
     0
281
     0
  0
CLASS
  1
OBJECT_PTR
  2
CAseDLPNTableRecord
  3
"ASE-LPNTableRecord"
 90
    32769
280
     0
281
     0
  0
CLASS
  1
LAYOUT
  2
AcDbLayout
  3
AutoCAD 2000
 90
        0
280
     0
281
     0
  0
CLASS
  1
PLOTSETTINGS
  2
AcDbPlotSettings
  3
AutoCAD 2000
 90
    32768
280
     0
281
     0
  0
CLASS
  1
ACDBDICTIONARYWDFLT
  2
AcDbDictionaryWithDefault
  3
AutoCAD 2000
 90
        0
280
     0
281
     0
  0
CLASS
  1
ACDBPLACEHOLDER
  2
AcDbPlaceHolder
  3
AutoCAD 2000
 90
        0
280
     0
281
     0
  0
CLASS
  1
VBA_PROJECT
  2
AcDbVbaProject
  3
acadvba
 90
    32768
280
     0
281
     0
  0
CLASS
  1
WIPEOUT
  2
AcDbWipeout
  3
WipeOut|AutoCAD Express Tool|expresstools@autodesk.com
 90
    32895
280
     0
281
     1
  0
CLASS
  1
WIPEOUTVARIABLES
  2
AcDbWipeoutVariables
  3
WipeOut|AutoCAD Express Tool|expresstools@autodesk.com
 90
        0
280
     0
281
     0
  0
CLASS
  1
RTEXT
  2
RText
  3
RText|AutoCAD Express Tool|expresstools@autodesk.com
 90
    32768
280
     0
281
     1
  0
CLASS
  1
ARCALIGNEDTEXT
  2
AcDbArcAlignedText
  3
ATEXT|AutoCAD Express Tool|expresstools@autodesk.com
 90
    32768
280
     0
281
     1
  0
ENDSEC
  0
SECTION
  2
TABLES
  0
TABLE
  2
VPORT
  5
7
100
AcDbSymbolTable
 70
     2
  0
VPORT
  5
15
100
AcDbSymbolTableRecord
100
AcDbViewportTableRecord
  2
*ACTIVE
 70
     0
 10
0.0
 20
0.0
 11
1.0
 21
1.0
 12
6.591288
 22
4.579184
 13
0.0
 23
0.0
 14
1.0
 24
1.0
 15
0.0
 25
0.0
 16
0.0
 26
0.0
 36
1.0
 17
0.0
 27
0.0
 37
0.0
 40
9.158369
 41
0.688564
 42
50.0
 43
0.0
 44
0.0
 50
0.0
 51
0.0
 71
     0
 72
   100
 73
     1
 74
     1
 75
     0
 76
     0
 77
     0
 78
     0
281
     0
 65
     0
110
0.0
120
0.0
130
0.0
111
1.0
121
0.0
131
0.0
112
0.0
122
1.0
132
0.0
345
0
346
0
 79
     0
146
0.0
  0
VPORT
  5
33
100
AcDbSymbolTableRecord
100
AcDbViewportTableRecord
  2
DCADVPORT
 70
     0
 10
-1365.512007
 20
-580.702989
 11
102.023738
 21
41.702986
 12
6.21
 22
9.02
 13
0.0
 23
0.0
 14
1.0
 24
1.0
 15
0.0
 25
0.0
 16
0.0
 26
0.0
 36
1.0
 17
0.0
 27
0.0
 37
0.0
 40
18.04
 41
0.688564
 42
50.0
 43
1.0
 44
1.0
 50
0.0
 51
0.0
 71
     0
 72
   100
 73
     1
 74
     1
 75
     0
 76
     0
 77
     0
 78
     0
281
     0
 65
     0
110
0.0
120
0.0
130
0.0
111
1.0
121
0.0
131
0.0
112
0.0
122
1.0
132
0.0
345
0
346
0
 79
     0
146
0.0
  0
ENDTAB
  0
TABLE
  2
LTYPE
  5
4
100
AcDbSymbolTable
 70
    15
  0
LTYPE
  5
11
100
AcDbSymbolTableRecord
100
AcDbLinetypeTableRecord
  2
ByBlock
 70
    64
  3

 72
    65
 73
     0
 40
0.0
  0
LTYPE
  5
12
100
AcDbSymbolTableRecord
100
AcDbLinetypeTableRecord
  2
ByLayer
 70
    64
  3

 72
    65
 73
     0
 40
0.0
  0
LTYPE
  5
13
100
AcDbSymbolTableRecord
100
AcDbLinetypeTableRecord
  2
Continuous
 70
    64
  3
Solid line
 72
    65
 73
     0
 40
0.0
  0
LTYPE
  5
25
100
AcDbSymbolTableRecord
100
AcDbLinetypeTableRecord
  2
CONTINUOUS
 70
     0
  3
Solid line
 72
    65
 73
     0
 40
0.0
  0
LTYPE
  5
26
100
AcDbSymbolTableRecord
100
AcDbLinetypeTableRecord
  2
BORDER
 70
    64
  3
__ __ . __ __ . __ __ . __ __ . __ __ . __ __ .
 72
    65
 73
     6
 40
1.75
 49
0.5
 74
     0
 49
-0.25
 74
     0
 49
0.5
 74
     0
 49
-0.25
 74
     0
 49
0.0
 74
     0
 49
-0.25
 74
     0
  0
LTYPE
  5
27
100
AcDbSymbolTableRecord
100
AcDbLinetypeTableRecord
  2
BORDER2
 70
    64
  3
__.__.__.__.__.__.__.__.__.__.__.__.__.__.__.__
 72
    65
 73
     6
 40
0.875
 49
0.25
 74
     0
 49
-0.125
 74
     0
 49
0.25
 74
     0
 49
-0.125
 74
     0
 49
0.0
 74
     0
 49
-0.125
 74
     0
  0
LTYPE
  5
28
100
AcDbSymbolTableRecord
100
AcDbLinetypeTableRecord
  2
CENTER
 70
    64
  3
____ _ ____ _ ____ _ ____ _ ____ _ ____ _ ____ 
 72
    65
 73
     4
 40
2.0
 49
1.25
 74
     0
 49
-0.25
 74
     0
 49
0.25
 74
     0
 49
-0.25
 74
     0
  0
LTYPE
  5
29
100
AcDbSymbolTableRecord
100
AcDbLinetypeTableRecord
  2
DASHDOT
 70
    64
  3
__ . __ . __ . __ . __ . __ . __ . __ . __ . __
 72
    65
 73
     4
 40
1.0
 49
0.5
 74
     0
 49
-0.25
 74
     0
 49
0.0
 74
     0
 49
-0.25
 74
     0
  0
LTYPE
  5
2A
100
AcDbSymbolTableRecord
100
AcDbLinetypeTableRecord
  2
DASHDOT2
 70
    64
  3
_._._._._._._._._._._._._._._._._._._._._._._._
 72
    65
 73
     4
 40
0.5
 49
0.25
 74
     0
 49
-0.125
 74
     0
 49
0.0
 74
     0
 49
-0.125
 74
     0
  0
LTYPE
  5
2B
100
AcDbSymbolTableRecord
100
AcDbLinetypeTableRecord
  2
DASHED
 70
    64
  3
__ __ __ __ __ __ __ __ __ __ __ __ __ __ __ __
 72
    65
 73
     2
 40
0.75
 49
0.5
 74
     0
 49
-0.25
 74
     0
  0
LTYPE
  5
2C
100
AcDbSymbolTableRecord
100
AcDbLinetypeTableRecord
  2
DIVIDE
 70
    64
  3
____ . . ____ . . ____ . . ____ . . ____ . . __
 72
    65
 73
     6
 40
1.25
 49
0.5
 74
     0
 49
-0.25
 74
     0
 49
0.0
 74
     0
 49
-0.25
 74
     0
 49
0.0
 74
     0
 49
-0.25
 74
     0
  0
LTYPE
  5
2D
100
AcDbSymbolTableRecord
100
AcDbLinetypeTableRecord
  2
DIVIDE2
 70
    64
  3
__..__..__..__..__..__..__..__..__..__..__..__.
 72
    65
 73
     6
 40
0.625
 49
0.25
 74
     0
 49
-0.125
 74
     0
 49
0.0
 74
     0
 49
-0.125
 74
     0
 49
0.0
 74
     0
 49
-0.125
 74
     0
  0
LTYPE
  5
2E
100
AcDbSymbolTableRecord
100
AcDbLinetypeTableRecord
  2
DOT
 70
    64
  3
. . . . . . . . . . . . . . . . . . . . . . . .
 72
    65
 73
     2
 40
0.25
 49
0.0
 74
     0
 49
-0.25
 74
     0
  0
LTYPE
  5
2F
100
AcDbSymbolTableRecord
100
AcDbLinetypeTableRecord
  2
HIDDEN
 70
    64
  3
__ __ __ __ __ __ __ __ __ __ __ __ __ __ __ __
 72
    65
 73
     2
 40
0.375
 49
0.25
 74
     0
 49
-0.125
 74
     0
  0
LTYPE
  5
30
100
AcDbSymbolTableRecord
100
AcDbLinetypeTableRecord
  2
PHANTOM
 70
    64
  3
______  __  __  ______  __  __  ______  __  __ 
 72
    65
 73
     6
 40
2.5
 49
1.25
 74
     0
 49
-0.25
 74
     0
 49
0.25
 74
     0
 49
-0.25
 74
     0
 49
0.25
 74
     0
 49
-0.25
 74
     0
  0
ENDTAB
  0
TABLE
  2
LAYER
  5
2
100
AcDbSymbolTable
 70
     3
  0
LAYER
  5
14
100
AcDbSymbolTableRecord
100
AcDbLayerTableRecord
  2
0
 70
     0
 62
     7
  6
Continuous
290
     1
370
    -3
390
1D
  0
LAYER
  5
31
100
AcDbSymbolTableRecord
100
AcDbLayerTableRecord
  2
0
 70
     0
 62
     7
  6
Continuous
290
     1
370
    -3
390
1F
  0
LAYER
  5
32
100
AcDbSymbolTableRecord
100
AcDbLayerTableRecord
  2
1
 70
     0
 62
     7
  6
Continuous
290
     1
370
    -3
390
1F
  0
ENDTAB
  0
TABLE
  2
STYLE
  5
3
100
AcDbSymbolTable
 70
     2
  0
STYLE
  5
17
100
AcDbSymbolTableRecord
100
AcDbTextStyleTableRecord
  2
Standard
 70
     0
 40
0.0
 41
1.0
 50
0.0
 71
     0
 42
0.0
  3
txt
  4

  0
STYLE
  5
24
100
AcDbSymbolTableRecord
100
AcDbTextStyleTableRecord
  2
BIGFONT
 70
    64
 40
3.0
 41
1.0
 50
0.0
 71
     0
 42
0.2
  3

  4
BIGFONT
  0
ENDTAB
  0
TABLE
  2
VIEW
  5
5
100
AcDbSymbolTable
 70
     0
  0
ENDTAB
  0
TABLE
  2
UCS
  5
6
100
AcDbSymbolTable
 70
     0
  0
ENDTAB
  0
TABLE
  2
APPID
  5
8
100
AcDbSymbolTable
 70
     1
  0
APPID
  5
16
100
AcDbSymbolTableRecord
100
AcDbRegAppTableRecord
  2
ACAD
 70
     0
  0
ENDTAB
  0
TABLE
  2
DIMSTYLE
  5
9
100
AcDbSymbolTable
 70
     1
100
AcDbDimStyleTable
 71
     0
  0
DIMSTYLE
105
18
100
AcDbSymbolTableRecord
100
AcDbDimStyleTableRecord
  2
Standard
 70
     0
  3

  4

 40
1.0
 41
0.18
 42
0.0625
 43
0.38
 44
0.18
 45
0.0
 46
0.0
 47
0.0
 48
0.0
 71
     0
 72
     0
 73
     1
 74
     1
 75
     0
 76
     0
 77
     0
 78
     0
 79
     0
140
0.18
141
0.09
142
0.0
143
25.4
144
1.0
145
0.0
146
1.0
147
0.09
148
0.0
170
     0
171
     2
172
     0
173
     0
174
     0
175
     0
176
     0
177
     0
178
     0
179
     0
271
     4
272
     4
273
     2
274
     2
275
     0
276
     0
277
     2
278
    46
279
     0
280
     0
281
     0
282
     0
283
     1
284
     0
285
     0
286
     0
288
     0
340
17
341
0
342
0
343
0
344
0
371
    -2
372
    -2
  0
ENDTAB
  0
TABLE
  2
BLOCK_RECORD
  5
1
100
AcDbSymbolTable
 70
     0
  0
BLOCK_RECORD
  5
A
100
AcDbSymbolTableRecord
100
AcDbBlockTableRecord
  2
*MODEL_SPACE
340
20
  0
BLOCK_RECORD
  5
B
100
AcDbSymbolTableRecord
100
AcDbBlockTableRecord
  2
*PAPER_SPACE
340
21
  0
ENDTAB
  0
ENDSEC
  0
SECTION
  2
BLOCKS
  0
BLOCK
  5
D
100
AcDbEntity
  8
0
100
AcDbBlockBegin
  2
*MODEL_SPACE
 70
     0
 10
0.0
 20
0.0
 30
0.0
  3
*MODEL_SPACE
  1

  0
ENDBLK
  5
E
100
AcDbEntity
  8
0
100
AcDbBlockEnd
  0
BLOCK
  5
F
100
AcDbEntity
 67
     1
  8
0
100
AcDbBlockBegin
  2
*PAPER_SPACE
 70
     0
 10
0.0
 20
0.0
 30
0.0
  3
*PAPER_SPACE
  1

  0
ENDBLK
  5
10
100
AcDbEntity
 67
     1
  8
0
100
AcDbBlockEnd
  0
ENDSEC
  0
SECTION
  2
ENTITIES
  0
TEXT
  5
34
100
AcDbEntity
  8
0
 62
     6
 48
0.0
100
AcDbText
 10
0.0
 20
22.0
 30
0.0
 40
2.0
  1
    SECTION NUMBER 0 AT    0.000 M
 72
     5
 11
78.333336
 21
22.0
 31
0.0
210
0.0
220
0.0
230
1.0
100
AcDbText
  0
TEXT
  5
35
100
AcDbEntity
  8
0
 62
     6
 48
0.0
100
AcDbText
 10
0.0
 20
19.0
 30
0.0
 40
2.0
  1
      0.4174  1.4715     1
 72
     5
 11
59.666668
 21
19.0
 31
0.0
210
0.0
220
0.0
230
1.0
100
AcDbText
  0
TEXT
  5
36
100
AcDbEntity
  8
0
 62
     6
 48
0.0
100
AcDbText
 10
0.0
 20
16.0
 30
0.0
 40
2.0
  1
      0.4046  1.3723     2
 72
     5
 11
59.666668
 21
16.0
 31
0.0
210
0.0
220
0.0
230
1.0
100
AcDbText
  0
TEXT
  5
37
100
AcDbEntity
  8
0
 62
     6
 48
0.0
100
AcDbText
 10
0.0
 20
13.0
 30
0.0
 40
2.0
  1
      0.3906  1.2733     2
 72
     5
 11
59.666668
 21
13.0
 31
0.0
210
0.0
220
0.0
230
1.0
100
AcDbText
  0
TEXT
  5
38
100
AcDbEntity
  8
0
 62
     6
 48
0.0
100
AcDbText
 10
0.0
 20
10.0
 30
0.0
 40
2.0
  1
      0.3753  1.1745     2
 72
     5
 11
59.666668
 21
10.0
 31
0.0
210
0.0
220
0.0
230
1.0
100
AcDbText
  0
TEXT
  5
39
100
AcDbEntity
  8
0
 62
     6
 48
0.0
100
AcDbText
 10
0.0
 20
7.0
 30
0.0
 40
2.0
  1
      0.3584  1.0759     2
 72
     5
 11
59.666668
 21
7.0
 31
0.0
210
0.0
220
0.0
230
1.0
100
AcDbText
  0
TEXT
  5
3A
100
AcDbEntity
  8
0
 62
     6
 48
0.0
100
AcDbText
 10
0.0
 20
4.0
 30
0.0
 40
2.0
  1
      0.3396  0.9777     2
 72
     5
 11
59.666668
 21
4.0
 31
0.0
210
0.0
220
0.0
230
1.0
100
AcDbText
  0
TEXT
  5
3B
100
AcDbEntity
  8
0
 62
     6
 48
0.0
100
AcDbText
 10
0.0
 20
1.0
 30
0.0
 40
2.0
  1
      0.3188  0.8799     2
 72
     5
 11
59.666668
 21
1.0
 31
0.0
210
0.0
220
0.0
230
1.0
100
AcDbText
  0
TEXT
  5
3C
100
AcDbEntity
  8
0
 62
     6
 48
0.0
100
AcDbText
 10
0.0
 20
-2.0
 30
0.0
 40
2.0
  1
      0.2952  0.7827     2
 72
     5
 11
59.666668
 21
-2.0
 31
0.0
210
0.0
220
0.0
230
1.0
100
AcDbText
  0
TEXT
  5
3D
100
AcDbEntity
  8
0
 62
     6
 48
0.0
100
AcDbText
 10
0.0
 20
-5.0
 30
0.0
 40
2.0
  1
      0.2684  0.6864     2
 72
     5
 11
59.666668
 21
-5.0
 31
0.0
210
0.0
220
0.0
230
1.0
100
AcDbText
  0
TEXT
  5
3E
100
AcDbEntity
  8
0
 62
     6
 48
0.0
100
AcDbText
 10
0.0
 20
-8.0
 30
0.0
 40
2.0
  1
      0.2373  0.5914     2
 72
     5
 11
59.666668
 21
-8.0
 31
0.0
210
0.0
220
0.0
230
1.0
100
AcDbText
  0
TEXT
  5
3F
100
AcDbEntity
  8
0
 62
     6
 48
0.0
100
AcDbText
 10
0.0
 20
-11.0
 30
0.0
 40
2.0
  1
      0.2095  0.5195     2
 72
     5
 11
59.666668
 21
-11.0
 31
0.0
210
0.0
220
0.0
230
1.0
100
AcDbText
  0
TEXT
  5
40
100
AcDbEntity
  8
0
 62
     6
 48
0.0
100
AcDbText
 10
0.0
 20
-14.0
 30
0.0
 40
2.0
  1
      0.1622  0.4316     3
 72
     5
 11
59.666668
 21
-14.0
 31
0.0
210
0.0
220
0.0
230
1.0
100
AcDbText
  0
TEXT
  5
41
100
AcDbEntity
  8
0
 62
     6
 48
0.0
100
AcDbText
 10
0.0
 20
-17.0
 30
0.0
 40
2.0
  1
      0.1021  0.3517     3
 72
     5
 11
59.666668
 21
-17.0
 31
0.0
210
0.0
220
0.0
230
1.0
100
AcDbText
  0
TEXT
  5
42
100
AcDbEntity
  8
0
 62
     6
 48
0.0
100
AcDbText
 10
0.0
 20
-20.0
 30
0.0
 40
2.0
  1
      0.0339  0.2786     3
 72
     5
 11
59.666668
 21
-20.0
 31
0.0
210
0.0
220
0.0
230
1.0
100
AcDbText
  0
TEXT
  5
43
100
AcDbEntity
  8
0
 62
     6
 48
0.0
100
AcDbText
 10
0.0
 20
-23.0
 30
0.0
 40
2.0
  1
      0.0000  0.2464     3
 72
     5
 11
59.666668
 21
-23.0
 31
0.0
210
0.0
220
0.0
230
1.0
100
AcDbText
  0
TEXT
  5
44
100
AcDbEntity
  8
0
 62
     6
 48
0.0
100
AcDbText
 10
0.0
 20
-26.0
 30
0.0
 40
2.0
  1
    SECTION NUMBER 1 AT    0.000 M
 72
     5
 11
78.333336
 21
-26.0
 31
0.0
210
0.0
220
0.0
230
1.0
100
AcDbText
  0
TEXT
  5
45
100
AcDbEntity
  8
0
 62
     6
 48
0.0
100
AcDbText
 10
0.0
 20
-29.0
 30
0.0
 40
2.0
  1
      0.3942  1.3964     1
 72
     5
 11
59.666668
 21
-29.0
 31
0.0
210
0.0
220
0.0
230
1.0
100
AcDbText
  0
TEXT
  5
46
100
AcDbEntity
  8
0
 62
     6
 48
0.0
100
AcDbText
 10
0.0
 20
-32.0
 30
0.0
 40
2.0
  1
      0.3293  1.3207     2
 72
     5
 11
59.666668
 21
-32.0
 31
0.0
210
0.0
220
0.0
230
1.0
100
AcDbText
  0
TEXT
  5
47
100
AcDbEntity
  8
0
 62
     6
 48
0.0
100
AcDbText
 10
0.0
 20
-35.0
 30
0.0
 40
2.0
  1
      0.2805  1.2335     2
 72
     5
 11
59.666668
 21
-35.0
 31
0.0
210
0.0
220
0.0
230
1.0
100
AcDbText
  0
TEXT
  5
48
100
AcDbEntity
  8
0
 62
     6
 48
0.0
100
AcDbText
 10
0.0
 20
-38.0
 30
0.0
 40
2.0
  1
      0.2425  1.1411     2
 72
     5
 11
59.666668
 21
-38.0
 31
0.0
210
0.0
220
0.0
230
1.0
100
AcDbText
  0
TEXT
  5
49
100
AcDbEntity
  8
0
 62
     6
 48
0.0
100
AcDbText
 10
0.0
 20
-41.0
 30
0.0
 40
2.0
  1
      0.2120  1.0458     2
 72
     5
 11
59.666668
 21
-41.0
 31
0.0
210
0.0
220
0.0
230
1.0
100
AcDbText
  0
TEXT
  5
4A
100
AcDbEntity
  8
0
 62
     6
 48
0.0
100
AcDbText
 10
0.0
 20
-44.0
 30
0.0
 40
2.0
  1
      0.1870  0.9490     2
 72
     5
 11
59.666668
 21
-44.0
 31
0.0
210
0.0
220
0.0
230
1.0
100
AcDbText
  0
TEXT
  5
4B
100
AcDbEntity
  8
0
 62
     6
 48
0.0
100
AcDbText
 10
0.0
 20
-47.0
 30
0.0
 40
2.0
  1
      0.1662  0.8512     2
 72
     5
 11
59.666668
 21
-47.0
 31
0.0
210
0.0
220
0.0
230
1.0
100
AcDbText
  0
TEXT
  5
4C
100
AcDbEntity
  8
0
 62
     6
 48
0.0
100
AcDbText
 10
0.0
 20
-50.0
 30
0.0
 40
2.0
  1
      0.1487  0.7528     2
 72
     5
 11
59.666668
 21
-50.0
 31
0.0
210
0.0
220
0.0
230
1.0
100
AcDbText
  0
TEXT
  5
4D
100
AcDbEntity
  8
0
 62
     6
 48
0.0
100
AcDbText
 10
0.0
 20
-53.0
 30
0.0
 40
2.0
  1
      0.1339  0.6539     2
 72
     5
 11
59.666668
 21
-53.0
 31
0.0
210
0.0
220
0.0
230
1.0
100
AcDbText
  0
TEXT
  5
4E
100
AcDbEntity
  8
0
 62
     6
 48
0.0
100
AcDbText
 10
0.0
 20
-56.0
 30
0.0
 40
2.0
  1
      0.1213  0.5547     2
 72
     5
 11
59.666668
 21
-56.0
 31
0.0
210
0.0
220
0.0
230
1.0
100
AcDbText
  0
TEXT
  5
4F
100
AcDbEntity
  8
0
 62
     6
 48
0.0
100
AcDbText
 10
0.0
 20
-59.0
 30
0.0
 40
2.0
  1
      0.1171  0.5175     2
 72
     5
 11
59.666668
 21
-59.0
 31
0.0
210
0.0
220
0.0
230
1.0
100
AcDbText
  0
TEXT
  5
50
100
AcDbEntity
  8
0
 62
     6
 48
0.0
100
AcDbText
 10
0.0
 20
-62.0
 30
0.0
 40
2.0
  1
      0.0400  0.2464     3
 72
     5
 11
59.666668
 21
-62.0
 31
0.0
210
0.0
220
0.0
230
1.0
100
AcDbText
  0
TEXT
  5
51
100
AcDbEntity
  8
0
 62
     6
 48
0.0
100
AcDbText
 10
0.0
 20
-65.0
 30
0.0
 40
2.0
  1
    SECTION NUMBER 2 AT    0.510 M
 72
     5
 11
78.333336
 21
-65.0
 31
0.0
210
0.0
220
0.0
230
1.0
100
AcDbText
  0
TEXT
  5
52
100
AcDbEntity
  8
0
 62
     6
 48
0.0
100
AcDbText
 10
0.0
 20
-68.0
 30
0.0
 40
2.0
  1
      0.6849  1.3302     1
 72
     5
 11
59.666668
 21
-68.0
 31
0.0
210
0.0
220
0.0
230
1.0
100
AcDbText
  0
TEXT
  5
53
100
AcDbEntity
  8
0
 62
     6
 48
0.0
100
AcDbText
 10
0.0
 20
-71.0
 30
0.0
 40
2.0
  1
      0.6072  1.2680     2
 72
     5
 11
59.666668
 21
-71.0
 31
0.0
210
0.0
220
0.0
230
1.0
100
AcDbText
  0
TEXT
  5
54
100
AcDbEntity
  8
0
 62
     6
 48
0.0
100
AcDbText
 10
0.0
 20
-74.0
 30
0.0
 40
2.0
  1
      0.5461  1.1889     2
 72
     5
 11
59.666668
 21
-74.0
 31
0.0
210
0.0
220
0.0
230
1.0
100
AcDbText
  0
TEXT
  5
55
100
AcDbEntity
  8
0
 62
     6
 48
0.0
100
AcDbText
 10
0.0
 20
-77.0
 30
0.0
 40
2.0
  1
      0.4967  1.1020     2
 72
     5
 11
59.666668
 21
-77.0
 31
0.0
210
0.0
220
0.0
230
1.0
100
AcDbText
  0
TEXT
  5
56
100
AcDbEntity
  8
0
 62
     6
 48
0.0
100
AcDbText
 10
0.0
 20
-80.0
 30
0.0
 40
2.0
  1
      0.4552  1.0110     2
 72
     5
 11
59.666668
 21
-80.0
 31
0.0
210
0.0
220
0.0
230
1.0
100
AcDbText
  0
TEXT
  5
57
100
AcDbEntity
  8
0
 62
     6
 48
0.0
100
AcDbText
 10
0.0
 20
-83.0
 30
0.0
 40
2.0
  1
      0.4195  0.9176     2
 72
     5
 11
59.666668
 21
-83.0
 31
0.0
210
0.0
220
0.0
230
1.0
100
AcDbText
  0
TEXT
  5
58
100
AcDbEntity
  8
0
 62
     6
 48
0.0
100
AcDbText
 10
0.0
 20
-86.0
 30
0.0
 40
2.0
  1
      0.3882  0.8227     2
 72
     5
 11
59.666668
 21
-86.0
 31
0.0
210
0.0
220
0.0
230
1.0
100
AcDbText
  0
TEXT
  5
59
100
AcDbEntity
  8
0
 62
     6
 48
0.0
100
AcDbText
 10
0.0
 20
-89.0
 30
0.0
 40
2.0
  1
      0.3603  0.7267     2
 72
     5
 11
59.666668
 21
-89.0
 31
0.0
210
0.0
220
0.0
230
1.0
100
AcDbText
  0
TEXT
  5
5A
100
AcDbEntity
  8
0
 62
     6
 48
0.0
100
AcDbText
 10
0.0
 20
-92.0
 30
0.0
 40
2.0
  1
      0.3351  0.6299     2
 72
     5
 11
59.666668
 21
-92.0
 31
0.0
210
0.0
220
0.0
230
1.0
100
AcDbText
  0
TEXT
  5
5B
100
AcDbEntity
  8
0
 62
     6
 48
0.0
100
AcDbText
 10
0.0
 20
-95.0
 30
0.0
 40
2.0
  1
      0.3122  0.5326     2
 72
     5
 11
59.666668
 21
-95.0
 31
0.0
210
0.0
220
0.0
230
1.0
100
AcDbText
  0
TEXT
  5
5C
100
AcDbEntity
  8
0
 62
     6
 48
0.0
100
AcDbText
 10
0.0
 20
-98.0
 30
0.0
 40
2.0
  1
      0.3073  0.5103     2
 72
     5
 11
59.666668
 21
-98.0
 31
0.0
210
0.0
220
0.0
230
1.0
100
AcDbText
  0
TEXT
  5
5D
100
AcDbEntity
  8
0
 62
     6
 48
0.0
100
AcDbText
 10
0.0
 20
-101.0
 30
0.0
 40
2.0
  1
      0.0400  0.2214     3
 72
     5
 11
59.666668
 21
-101.0
 31
0.0
210
0.0
220
0.0
230
1.0
100
AcDbText
  0
TEXT
  5
5E
100
AcDbEntity
  8
0
 62
     6
 48
0.0
100
AcDbText
 10
0.0
 20
-104.0
 30
0.0
 40
2.0
  1
    SECTION NUMBER 3 AT    1.020 M
 72
     5
 11
78.333336
 21
-104.0
 31
0.0
210
0.0
220
0.0
230
1.0
100
AcDbText
  0
TEXT
  5
5F
100
AcDbEntity
  8
0
 62
     6
 48
0.0
100
AcDbText
 10
0.0
 20
-107.0
 30
0.0
 40
2.0
  1
      0.8669  1.2694     1
 72
     5
 11
59.666668
 21
-107.0
 31
0.0
210
0.0
220
0.0
230
1.0
100
AcDbText
  0
TEXT
  5
60
100
AcDbEntity
  8
0
 62
     6
 48
0.0
100
AcDbText
 10
0.0
 20
-110.0
 30
0.0
 40
2.0
  1
      0.8013  1.1945     2
 72
     5
 11
59.666668
 21
-110.0
 31
0.0
210
0.0
220
0.0
230
1.0
100
AcDbText
  0
TEXT
  5
61
100
AcDbEntity
  8
0
 62
     6
 48
0.0
100
AcDbText
 10
0.0
 20
-113.0
 30
0.0
 40
2.0
  1
      0.7487  1.1095     2
 72
     5
 11
59.666668
 21
-113.0
 31
0.0
210
0.0
220
0.0
230
1.0
100
AcDbText
  0
TEXT
  5
62
100
AcDbEntity
  8
0
 62
     6
 48
0.0
100
AcDbText
 10
0.0
 20
-116.0
 30
0.0
 40
2.0
  1
      0.7014  1.0214     2
 72
     5
 11
59.666668
 21
-116.0
 31
0.0
210
0.0
220
0.0
230
1.0
100
AcDbText
  0
TEXT
  5
63
100
AcDbEntity
  8
0
 62
     6
 48
0.0
100
AcDbText
 10
0.0
 20
-119.0
 30
0.0
 40
2.0
  1
      0.6571  0.9317     2
 72
     5
 11
59.666668
 21
-119.0
 31
0.0
210
0.0
220
0.0
230
1.0
100
AcDbText
  0
TEXT
  5
64
100
AcDbEntity
  8
0
 62
     6
 48
0.0
100
AcDbText
 10
0.0
 20
-122.0
 30
0.0
 40
2.0
  1
      0.6149  0.8411     2
 72
     5
 11
59.666668
 21
-122.0
 31
0.0
210
0.0
220
0.0
230
1.0
100
AcDbText
  0
TEXT
  5
65
100
AcDbEntity
  8
0
 62
     6
 48
0.0
100
AcDbText
 10
0.0
 20
-125.0
 30
0.0
 40
2.0
  1
      0.5741  0.7497     2
 72
     5
 11
59.666668
 21
-125.0
 31
0.0
210
0.0
220
0.0
230
1.0
100
AcDbText
  0
TEXT
  5
66
100
AcDbEntity
  8
0
 62
     6
 48
0.0
100
AcDbText
 10
0.0
 20
-128.0
 30
0.0
 40
2.0
  1
      0.5345  0.6579     2
 72
     5
 11
59.666668
 21
-128.0
 31
0.0
210
0.0
220
0.0
230
1.0
100
AcDbText
  0
TEXT
  5
67
100
AcDbEntity
  8
0
 62
     6
 48
0.0
100
AcDbText
 10
0.0
 20
-131.0
 30
0.0
 40
2.0
  1
      0.4959  0.5657     2
 72
     5
 11
59.666668
 21
-131.0
 31
0.0
210
0.0
220
0.0
230
1.0
100
AcDbText
  0
TEXT
  5
68
100
AcDbEntity
  8
0
 62
     6
 48
0.0
100
AcDbText
 10
0.0
 20
-134.0
 30
0.0
 40
2.0
  1
      0.4724  0.5086     2
 72
     5
 11
59.666668
 21
-134.0
 31
0.0
210
0.0
220
0.0
230
1.0
100
AcDbText
  0
TEXT
  5
69
100
AcDbEntity
  8
0
 62
     6
 48
0.0
100
AcDbText
 10
0.0
 20
-137.0
 30
0.0
 40
2.0
  1
      0.0400  0.2064     3
 72
     5
 11
59.666668
 21
-137.0
 31
0.0
210
0.0
220
0.0
230
1.0
100
AcDbText
  0
TEXT
  5
6A
100
AcDbEntity
  8
0
 62
     6
 48
0.0
100
AcDbText
 10
0.0
 20
-140.0
 30
0.0
 40
2.0
  1
    SECTION NUMBER 4 AT    1.530 M
 72
     5
 11
78.333336
 21
-140.0
 31
0.0
210
0.0
220
0.0
230
1.0
100
AcDbText
  0
TEXT
  5
6B
100
AcDbEntity
  8
0
 62
     6
 48
0.0
100
AcDbText
 10
0.0
 20
-143.0
 30
0.0
 40
2.0
  1
      0.9877  1.2133     1
 72
     5
 11
59.666668
 21
-143.0
 31
0.0
210
0.0
220
0.0
230
1.0
100
AcDbText
  0
TEXT
  5
6C
100
AcDbEntity
  8
0
 62
     6
 48
0.0
100
AcDbText
 10
0.0
 20
-146.0
 30
0.0
 40
2.0
  1
      0.9336  1.1294     2
 72
     5
 11
59.666668
 21
-146.0
 31
0.0
210
0.0
220
0.0
230
1.0
100
AcDbText
  0
TEXT
  5
6D
100
AcDbEntity
  8
0
 62
     6
 48
0.0
100
AcDbText
 10
0.0
 20
-149.0
 30
0.0
 40
2.0
  1
      0.8871  1.0409     2
 72
     5
 11
59.666668
 21
-149.0
 31
0.0
210
0.0
220
0.0
230
1.0
100
AcDbText
  0
TEXT
  5
6E
100
AcDbEntity
  8
0
 62
     6
 48
0.0
100
AcDbText
 10
0.0
 20
-152.0
 30
0.0
 40
2.0
  1
      0.8428  0.9513     2
 72
     5
 11
59.666668
 21
-152.0
 31
0.0
210
0.0
220
0.0
230
1.0
100
AcDbText
  0
TEXT
  5
6F
100
AcDbEntity
  8
0
 62
     6
 48
0.0
100
AcDbText
 10
0.0
 20
-155.0
 30
0.0
 40
2.0
  1
      0.7996  0.8611     2
 72
     5
 11
59.666668
 21
-155.0
 31
0.0
210
0.0
220
0.0
230
1.0
100
AcDbText
  0
TEXT
  5
70
100
AcDbEntity
  8
0
 62
     6
 48
0.0
100
AcDbText
 10
0.0
 20
-158.0
 30
0.0
 40
2.0
  1
      0.7571  0.7705     2
 72
     5
 11
59.666668
 21
-158.0
 31
0.0
210
0.0
220
0.0
230
1.0
100
AcDbText
  0
TEXT
  5
71
100
AcDbEntity
  8
0
 62
     6
 48
0.0
100
AcDbText
 10
0.0
 20
-161.0
 30
0.0
 40
2.0
  1
      0.7152  0.6797     2
 72
     5
 11
59.666668
 21
-161.0
 31
0.0
210
0.0
220
0.0
230
1.0
100
AcDbText
  0
TEXT
  5
72
100
AcDbEntity
  8
0
 62
     6
 48
0.0
100
AcDbText
 10
0.0
 20
-164.0
 30
0.0
 40
2.0
  1
      0.6737  0.5888     2
 72
     5
 11
59.666668
 21
-164.0
 31
0.0
210
0.0
220
0.0
230
1.0
100
AcDbText
  0
TEXT
  5
73
100
AcDbEntity
  8
0
 62
     6
 48
0.0
100
AcDbText
 10
0.0
 20
-167.0
 30
0.0
 40
2.0
  1
      0.6359  0.5050     2
 72
     5
 11
59.666668
 21
-167.0
 31
0.0
210
0.0
220
0.0
230
1.0
100
AcDbText
  0
TEXT
  5
74
100
AcDbEntity
  8
0
 62
     6
 48
0.0
100
AcDbText
 10
0.0
 20
-170.0
 30
0.0
 40
2.0
  1
      0.0400  0.2064     3
 72
     5
 11
59.666668
 21
-170.0
 31
0.0
210
0.0
220
0.0
230
1.0
100
AcDbText
  0
TEXT
  5
75
100
AcDbEntity
  8
0
 62
     6
 48
0.0
100
AcDbText
 10
0.0
 20
-173.0
 30
0.0
 40
2.0
  1
    SECTION NUMBER 5 AT    2.040 M
 72
     5
 11
78.333336
 21
-173.0
 31
0.0
210
0.0
220
0.0
230
1.0
100
AcDbText
  0
TEXT
  5
76
100
AcDbEntity
  8
0
 62
     6
 48
0.0
100
AcDbText
 10
0.0
 20
-176.0
 30
0.0
 40
2.0
  1
      1.0602  1.1694     1
 72
     5
 11
59.666668
 21
-176.0
 31
0.0
210
0.0
220
0.0
230
1.0
100
AcDbText
  0
TEXT
  5
77
100
AcDbEntity
  8
0
 62
     6
 48
0.0
100
AcDbText
 10
0.0
 20
-179.0
 30
0.0
 40
2.0
  1
      1.0164  1.0796     2
 72
     5
 11
59.666668
 21
-179.0
 31
0.0
210
0.0
220
0.0
230
1.0
100
AcDbText
  0
TEXT
  5
78
100
AcDbEntity
  8
0
 62
     6
 48
0.0
100
AcDbText
 10
0.0
 20
-182.0
 30
0.0
 40
2.0
  1
      0.9769  0.9878     2
 72
     5
 11
59.666668
 21
-182.0
 31
0.0
210
0.0
220
0.0
230
1.0
100
AcDbText
  0
TEXT
  5
79
100
AcDbEntity
  8
0
 62
     6
 48
0.0
100
AcDbText
 10
0.0
 20
-185.0
 30
0.0
 40
2.0
  1
      0.9382  0.8955     2
 72
     5
 11
59.666668
 21
-185.0
 31
0.0
210
0.0
220
0.0
230
1.0
100
AcDbText
  0
TEXT
  5
7A
100
AcDbEntity
  8
0
 62
     6
 48
0.0
100
AcDbText
 10
0.0
 20
-188.0
 30
0.0
 40
2.0
  1
      0.9001  0.8031     2
 72
     5
 11
59.666668
 21
-188.0
 31
0.0
210
0.0
220
0.0
230
1.0
100
AcDbText
  0
TEXT
  5
7B
100
AcDbEntity
  8
0
 62
     6
 48
0.0
100
AcDbText
 10
0.0
 20
-191.0
 30
0.0
 40
2.0
  1
      0.8623  0.7105     2
 72
     5
 11
59.666668
 21
-191.0
 31
0.0
210
0.0
220
0.0
230
1.0
100
AcDbText
  0
TEXT
  5
7C
100
AcDbEntity
  8
0
 62
     6
 48
0.0
100
AcDbText
 10
0.0
 20
-194.0
 30
0.0
 40
2.0
  1
      0.8248  0.6178     2
 72
     5
 11
59.666668
 21
-194.0
 31
0.0
210
0.0
220
0.0
230
1.0
100
AcDbText
  0
TEXT
  5
7D
100
AcDbEntity
  8
0
 62
     6
 48
0.0
100
AcDbText
 10
0.0
 20
-197.0
 30
0.0
 40
2.0
  1
      0.7874  0.5251     2
 72
     5
 11
59.666668
 21
-197.0
 31
0.0
210
0.0
220
0.0
230
1.0
100
AcDbText
  0
TEXT
  5
7E
100
AcDbEntity
  8
0
 62
     6
 48
0.0
100
AcDbText
 10
0.0
 20
-200.0
 30
0.0
 40
2.0
  1
      0.7793  0.5050     2
 72
     5
 11
59.666668
 21
-200.0
 31
0.0
210
0.0
220
0.0
230
1.0
100
AcDbText
  0
TEXT
  5
7F
100
AcDbEntity
  8
0
 62
     6
 48
0.0
100
AcDbText
 10
0.0
 20
-203.0
 30
0.0
 40
2.0
  1
      0.0400  0.2064     3
 72
     5
 11
59.666668
 21
-203.0
 31
0.0
210
0.0
220
0.0
230
1.0
100
AcDbText
  0
TEXT
  5
80
100
AcDbEntity
  8
0
 62
     6
 48
0.0
100
AcDbText
 10
0.0
 20
-206.0
 30
0.0
 40
2.0
  1
    SECTION NUMBER 6 AT    2.550 M
 72
     5
 11
78.333336
 21
-206.0
 31
0.0
210
0.0
220
0.0
230
1.0
100
AcDbText
  0
TEXT
  5
81
100
AcDbEntity
  8
0
 62
     6
 48
0.0
100
AcDbText
 10
0.0
 20
-209.0
 30
0.0
 40
2.0
  1
      1.0956  1.1332     1
 72
     5
 11
59.666668
 21
-209.0
 31
0.0
210
0.0
220
0.0
230
1.0
100
AcDbText
  0
TEXT
  5
82
100
AcDbEntity
  8
0
 62
     6
 48
0.0
100
AcDbText
 10
0.0
 20
-212.0
 30
0.0
 40
2.0
  1
      1.0555  1.0420     2
 72
     5
 11
59.666668
 21
-212.0
 31
0.0
210
0.0
220
0.0
230
1.0
100
AcDbText
  0
TEXT
  5
83
100
AcDbEntity
  8
0
 62
     6
 48
0.0
100
AcDbText
 10
0.0
 20
-215.0
 30
0.0
 40
2.0
  1
      1.0231  0.9474     2
 72
     5
 11
59.666668
 21
-215.0
 31
0.0
210
0.0
220
0.0
230
1.0
100
AcDbText
  0
TEXT
  5
84
100
AcDbEntity
  8
0
 62
     6
 48
0.0
100
AcDbText
 10
0.0
 20
-218.0
 30
0.0
 40
2.0
  1
      0.9923  0.8522     2
 72
     5
 11
59.666668
 21
-218.0
 31
0.0
210
0.0
220
0.0
230
1.0
100
AcDbText
  0
TEXT
  5
85
100
AcDbEntity
  8
0
 62
     6
 48
0.0
100
AcDbText
 10
0.0
 20
-221.0
 30
0.0
 40
2.0
  1
      0.9625  0.7568     2
 72
     5
 11
59.666668
 21
-221.0
 31
0.0
210
0.0
220
0.0
230
1.0
100
AcDbText
  0
TEXT
  5
86
100
AcDbEntity
  8
0
 62
     6
 48
0.0
100
AcDbText
 10
0.0
 20
-224.0
 30
0.0
 40
2.0
  1
      0.9332  0.6612     2
 72
     5
 11
59.666668
 21
-224.0
 31
0.0
210
0.0
220
0.0
230
1.0
100
AcDbText
  0
TEXT
  5
87
100
AcDbEntity
  8
0
 62
     6
 48
0.0
100
AcDbText
 10
0.0
 20
-227.0
 30
0.0
 40
2.0
  1
      0.9043  0.5655     2
 72
     5
 11
59.666668
 21
-227.0
 31
0.0
210
0.0
220
0.0
230
1.0
100
AcDbText
  0
TEXT
  5
88
100
AcDbEntity
  8
0
 62
     6
 48
0.0
100
AcDbText
 10
0.0
 20
-230.0
 30
0.0
 40
2.0
  1
      0.8862  0.5050     2
 72
     5
 11
59.666668
 21
-230.0
 31
0.0
210
0.0
220
0.0
230
1.0
100
AcDbText
  0
TEXT
  5
89
100
AcDbEntity
  8
0
 62
     6
 48
0.0
100
AcDbText
 10
0.0
 20
-233.0
 30
0.0
 40
2.0
  1
      0.0400  0.2064     3
 72
     5
 11
59.666668
 21
-233.0
 31
0.0
210
0.0
220
0.0
230
1.0
100
AcDbText
  0
TEXT
  5
8A
100
AcDbEntity
  8
0
 62
     6
 48
0.0
100
AcDbText
 10
0.0
 20
-236.0
 30
0.0
 40
2.0
  1
    SECTION NUMBER 7 AT    3.060 M
 72
     5
 11
78.333336
 21
-236.0
 31
0.0
210
0.0
220
0.0
230
1.0
100
AcDbText
  0
TEXT
  5
8B
100
AcDbEntity
  8
0
 62
     6
 48
0.0
100
AcDbText
 10
0.0
 20
-239.0
 30
0.0
 40
2.0
  1
      1.1044  1.0998     1
 72
     5
 11
59.666668
 21
-239.0
 31
0.0
210
0.0
220
0.0
230
1.0
100
AcDbText
  0
TEXT
  5
8C
100
AcDbEntity
  8
0
 62
     6
 48
0.0
100
AcDbText
 10
0.0
 20
-242.0
 30
0.0
 40
2.0
  1
      1.0709  1.0063     2
 72
     5
 11
59.666668
 21
-242.0
 31
0.0
210
0.0
220
0.0
230
1.0
100
AcDbText
  0
TEXT
  5
8D
100
AcDbEntity
  8
0
 62
     6
 48
0.0
100
AcDbText
 10
0.0
 20
-245.0
 30
0.0
 40
2.0
  1
      1.0478  0.9090     2
 72
     5
 11
59.666668
 21
-245.0
 31
0.0
210
0.0
220
0.0
230
1.0
100
AcDbText
  0
TEXT
  5
8E
100
AcDbEntity
  8
0
 62
     6
 48
0.0
100
AcDbText
 10
0.0
 20
-248.0
 30
0.0
 40
2.0
  1
      1.0268  0.8113     2
 72
     5
 11
59.666668
 21
-248.0
 31
0.0
210
0.0
220
0.0
230
1.0
100
AcDbText
  0
TEXT
  5
8F
100
AcDbEntity
  8
0
 62
     6
 48
0.0
100
AcDbText
 10
0.0
 20
-251.0
 30
0.0
 40
2.0
  1
      1.0069  0.7133     2
 72
     5
 11
59.666668
 21
-251.0
 31
0.0
210
0.0
220
0.0
230
1.0
100
AcDbText
  0
TEXT
  5
90
100
AcDbEntity
  8
0
 62
     6
 48
0.0
100
AcDbText
 10
0.0
 20
-254.0
 30
0.0
 40
2.0
  1
      0.9877  0.6151     2
 72
     5
 11
59.666668
 21
-254.0
 31
0.0
210
0.0
220
0.0
230
1.0
100
AcDbText
  0
TEXT
  5
91
100
AcDbEntity
  8
0
 62
     6
 48
0.0
100
AcDbText
 10
0.0
 20
-257.0
 30
0.0
 40
2.0
  1
      0.9691  0.5169     2
 72
     5
 11
59.666668
 21
-257.0
 31
0.0
210
0.0
220
0.0
230
1.0
100
AcDbText
  0
TEXT
  5
92
100
AcDbEntity
  8
0
 62
     6
 48
0.0
100
AcDbText
 10
0.0
 20
-260.0
 30
0.0
 40
2.0
  1
      0.9664  0.5027     2
 72
     5
 11
59.666668
 21
-260.0
 31
0.0
210
0.0
220
0.0
230
1.0
100
AcDbText
  0
TEXT
  5
93
100
AcDbEntity
  8
0
 62
     6
 48
0.0
100
AcDbText
 10
0.0
 20
-263.0
 30
0.0
 40
2.0
  1
      0.0400  0.2064     3
 72
     5
 11
59.666668
 21
-263.0
 31
0.0
210
0.0
220
0.0
230
1.0
100
AcDbText
  0
TEXT
  5
94
100
AcDbEntity
  8
0
 62
     6
 48
0.0
100
AcDbText
 10
0.0
 20
-266.0
 30
0.0
 40
2.0
  1
    SECTION NUMBER 8 AT    3.570 M
 72
     5
 11
78.333336
 21
-266.0
 31
0.0
210
0.0
220
0.0
230
1.0
100
AcDbText
  0
TEXT
  5
95
100
AcDbEntity
  8
0
 62
     6
 48
0.0
100
AcDbText
 10
0.0
 20
-269.0
 30
0.0
 40
2.0
  1
      1.0956  1.0864     1
 72
     5
 11
59.666668
 21
-269.0
 31
0.0
210
0.0
220
0.0
230
1.0
100
AcDbText
  0
TEXT
  5
96
100
AcDbEntity
  8
0
 62
     6
 48
0.0
100
AcDbText
 10
0.0
 20
-272.0
 30
0.0
 40
2.0
  1
      1.0692  0.9909     2
 72
     5
 11
59.666668
 21
-272.0
 31
0.0
210
0.0
220
0.0
230
1.0
100
AcDbText
  0
TEXT
  5
97
100
AcDbEntity
  8
0
 62
     6
 48
0.0
100
AcDbText
 10
0.0
 20
-275.0
 30
0.0
 40
2.0
  1
      1.0546  0.8919     2
 72
     5
 11
59.666668
 21
-275.0
 31
0.0
210
0.0
220
0.0
230
1.0
100
AcDbText
  0
TEXT
  5
98
100
AcDbEntity
  8
0
 62
     6
 48
0.0
100
AcDbText
 10
0.0
 20
-278.0
 30
0.0
 40
2.0
  1
      1.0425  0.7927     2
 72
     5
 11
59.666668
 21
-278.0
 31
0.0
210
0.0
220
0.0
230
1.0
100
AcDbText
  0
TEXT
  5
99
100
AcDbEntity
  8
0
 62
     6
 48
0.0
100
AcDbText
 10
0.0
 20
-281.0
 30
0.0
 40
2.0
  1
      1.0315  0.6933     2
 72
     5
 11
59.666668
 21
-281.0
 31
0.0
210
0.0
220
0.0
230
1.0
100
AcDbText
  0
TEXT
  5
9A
100
AcDbEntity
  8
0
 62
     6
 48
0.0
100
AcDbText
 10
0.0
 20
-284.0
 30
0.0
 40
2.0
  1
      1.0214  0.5938     2
 72
     5
 11
59.666668
 21
-284.0
 31
0.0
210
0.0
220
0.0
230
1.0
100
AcDbText
  0
TEXT
  5
9B
100
AcDbEntity
  8
0
 62
     6
 48
0.0
100
AcDbText
 10
0.0
 20
-287.0
 30
0.0
 40
2.0
  1
      1.0124  0.5000     2
 72
     5
 11
59.666668
 21
-287.0
 31
0.0
210
0.0
220
0.0
230
1.0
100
AcDbText
  0
TEXT
  5
9C
100
AcDbEntity
  8
0
 62
     6
 48
0.0
100
AcDbText
 10
0.0
 20
-290.0
 30
0.0
 40
2.0
  1
      0.0400  0.2064     3
 72
     5
 11
59.666668
 21
-290.0
 31
0.0
210
0.0
220
0.0
230
1.0
100
AcDbText
  0
TEXT
  5
9D
100
AcDbEntity
  8
0
 62
     6
 48
0.0
100
AcDbText
 10
0.0
 20
-293.0
 30
0.0
 40
2.0
  1
    SECTION NUMBER 9 AT    4.080 M
 72
     5
 11
78.333336
 21
-293.0
 31
0.0
210
0.0
220
0.0
230
1.0
100
AcDbText
  0
TEXT
  5
9E
100
AcDbEntity
  8
0
 62
     6
 48
0.0
100
AcDbText
 10
0.0
 20
-296.0
 30
0.0
 40
2.0
  1
      1.0765  1.0580     1
 72
     5
 11
59.666668
 21
-296.0
 31
0.0
210
0.0
220
0.0
230
1.0
100
AcDbText
  0
TEXT
  5
9F
100
AcDbEntity
  8
0
 62
     6
 48
0.0
100
AcDbText
 10
0.0
 20
-299.0
 30
0.0
 40
2.0
  1
      1.0525  0.9621     2
 72
     5
 11
59.666668
 21
-299.0
 31
0.0
210
0.0
220
0.0
230
1.0
100
AcDbText
  0
TEXT
  5
A0
100
AcDbEntity
  8
0
 62
     6
 48
0.0
100
AcDbText
 10
0.0
 20
-302.0
 30
0.0
 40
2.0
  1
      1.0416  0.8627     2
 72
     5
 11
59.666668
 21
-302.0
 31
0.0
210
0.0
220
0.0
230
1.0
100
AcDbText
  0
TEXT
  5
A1
100
AcDbEntity
  8
0
 62
     6
 48
0.0
100
AcDbText
 10
0.0
 20
-305.0
 30
0.0
 40
2.0
  1
      1.0332  0.7631     2
 72
     5
 11
59.666668
 21
-305.0
 31
0.0
210
0.0
220
0.0
230
1.0
100
AcDbText
  0
TEXT
  5
A2
100
AcDbEntity
  8
0
 62
     6
 48
0.0
100
AcDbText
 10
0.0
 20
-308.0
 30
0.0
 40
2.0
  1
      1.0261  0.6634     2
 72
     5
 11
59.666668
 21
-308.0
 31
0.0
210
0.0
220
0.0
230
1.0
100
AcDbText
  0
TEXT
  5
A3
100
AcDbEntity
  8
0
 62
     6
 48
0.0
100
AcDbText
 10
0.0
 20
-311.0
 30
0.0
 40
2.0
  1
      1.0198  0.5636     2
 72
     5
 11
59.666668
 21
-311.0
 31
0.0
210
0.0
220
0.0
230
1.0
100
AcDbText
  0
TEXT
  5
A4
100
AcDbEntity
  8
0
 62
     6
 48
0.0
100
AcDbText
 10
0.0
 20
-314.0
 30
0.0
 40
2.0
  1
      1.0161  0.4990     2
 72
     5
 11
59.666668
 21
-314.0
 31
0.0
210
0.0
220
0.0
230
1.0
100
AcDbText
  0
TEXT
  5
A5
100
AcDbEntity
  8
0
 62
     6
 48
0.0
100
AcDbText
 10
0.0
 20
-317.0
 30
0.0
 40
2.0
  1
      0.0400  0.2272     3
 72
     5
 11
59.666668
 21
-317.0
 31
0.0
210
0.0
220
0.0
230
1.0
100
AcDbText
  0
TEXT
  5
A6
100
AcDbEntity
  8
0
 62
     6
 48
0.0
100
AcDbText
 10
0.0
 20
-320.0
 30
0.0
 40
2.0
  1
      0.0400  0.2064     4
 72
     5
 11
59.666668
 21
-320.0
 31
0.0
210
0.0
220
0.0
230
1.0
100
AcDbText
  0
TEXT
  5
A7
100
AcDbEntity
  8
0
 62
     6
 48
0.0
100
AcDbText
 10
0.0
 20
-323.0
 30
0.0
 40
2.0
  1
    SECTION NUMBER 10 AT    4.590 M
 72
     5
 11
80.666672
 21
-323.0
 31
0.0
210
0.0
220
0.0
230
1.0
100
AcDbText
  0
TEXT
  5
A8
100
AcDbEntity
  8
0
 62
     6
 48
0.0
100
AcDbText
 10
0.0
 20
-326.0
 30
0.0
 40
2.0
  1
      1.0477  1.0387     1
 72
     5
 11
59.666668
 21
-326.0
 31
0.0
210
0.0
220
0.0
230
1.0
100
AcDbText
  0
TEXT
  5
A9
100
AcDbEntity
  8
0
 62
     6
 48
0.0
100
AcDbText
 10
0.0
 20
-329.0
 30
0.0
 40
2.0
  1
      1.0251  0.9424     2
 72
     5
 11
59.666668
 21
-329.0
 31
0.0
210
0.0
220
0.0
230
1.0
100
AcDbText
  0
TEXT
  5
AA
100
AcDbEntity
  8
0
 62
     6
 48
0.0
100
AcDbText
 10
0.0
 20
-332.0
 30
0.0
 40
2.0
  1
      1.0156  0.8429     2
 72
     5
 11
59.666668
 21
-332.0
 31
0.0
210
0.0
220
0.0
230
1.0
100
AcDbText
  0
TEXT
  5
AB
100
AcDbEntity
  8
0
 62
     6
 48
0.0
100
AcDbText
 10
0.0
 20
-335.0
 30
0.0
 40
2.0
  1
      1.0088  0.7431     2
 72
     5
 11
59.666668
 21
-335.0
 31
0.0
210
0.0
220
0.0
230
1.0
100
AcDbText
  0
TEXT
  5
AC
100
AcDbEntity
  8
0
 62
     6
 48
0.0
100
AcDbText
 10
0.0
 20
-338.0
 30
0.0
 40
2.0
  1
      1.0034  0.6432     2
 72
     5
 11
59.666668
 21
-338.0
 31
0.0
210
0.0
220
0.0
230
1.0
100
AcDbText
  0
TEXT
  5
AD
100
AcDbEntity
  8
0
 62
     6
 48
0.0
100
AcDbText
 10
0.0
 20
-341.0
 30
0.0
 40
2.0
  1
      0.9988  0.5433     2
 72
     5
 11
59.666668
 21
-341.0
 31
0.0
210
0.0
220
0.0
230
1.0
100
AcDbText
  0
TEXT
  5
AE
100
AcDbEntity
  8
0
 62
     6
 48
0.0
100
AcDbText
 10
0.0
 20
-344.0
 30
0.0
 40
2.0
  1
      0.9969  0.4976     2
 72
     5
 11
59.666668
 21
-344.0
 31
0.0
210
0.0
220
0.0
230
1.0
100
AcDbText
  0
TEXT
  5
AF
100
AcDbEntity
  8
0
 62
     6
 48
0.0
100
AcDbText
 10
0.0
 20
-347.0
 30
0.0
 40
2.0
  1
      0.0400  0.2568     3
 72
     5
 11
59.666668
 21
-347.0
 31
0.0
210
0.0
220
0.0
230
1.0
100
AcDbText
  0
TEXT
  5
B0
100
AcDbEntity
  8
0
 62
     6
 48
0.0
100
AcDbText
 10
0.0
 20
-350.0
 30
0.0
 40
2.0
  1
      0.0400  0.2064     4
 72
     5
 11
59.666668
 21
-350.0
 31
0.0
210
0.0
220
0.0
230
1.0
100
AcDbText
  0
TEXT
  5
B1
100
AcDbEntity
  8
0
 62
     6
 48
0.0
100
AcDbText
 10
0.0
 20
-353.0
 30
0.0
 40
2.0
  1
    SECTION NUMBER 11 AT    5.100 M
 72
     5
 11
80.666672
 21
-353.0
 31
0.0
210
0.0
220
0.0
230
1.0
100
AcDbText
  0
TEXT
  5
B2
100
AcDbEntity
  8
0
 62
     6
 48
0.0
100
AcDbText
 10
0.0
 20
-356.0
 30
0.0
 40
2.0
  1
      1.0088  1.0362     1
 72
     5
 11
59.666668
 21
-356.0
 31
0.0
210
0.0
220
0.0
230
1.0
100
AcDbText
  0
TEXT
  5
B3
100
AcDbEntity
  8
0
 62
     6
 48
0.0
100
AcDbText
 10
0.0
 20
-359.0
 30
0.0
 40
2.0
  1
      0.9884  0.9392     2
 72
     5
 11
59.666668
 21
-359.0
 31
0.0
210
0.0
220
0.0
230
1.0
100
AcDbText
  0
TEXT
  5
B4
100
AcDbEntity
  8
0
 62
     6
 48
0.0
100
AcDbText
 10
0.0
 20
-362.0
 30
0.0
 40
2.0
  1
      0.9817  0.8394     2
 72
     5
 11
59.666668
 21
-362.0
 31
0.0
210
0.0
220
0.0
230
1.0
100
AcDbText
  0
TEXT
  5
B5
100
AcDbEntity
  8
0
 62
     6
 48
0.0
100
AcDbText
 10
0.0
 20
-365.0
 30
0.0
 40
2.0
  1
      0.9781  0.7395     2
 72
     5
 11
59.666668
 21
-365.0
 31
0.0
210
0.0
220
0.0
230
1.0
100
AcDbText
  0
TEXT
  5
B6
100
AcDbEntity
  8
0
 62
     6
 48
0.0
100
AcDbText
 10
0.0
 20
-368.0
 30
0.0
 40
2.0
  1
      0.9761  0.6395     2
 72
     5
 11
59.666668
 21
-368.0
 31
0.0
210
0.0
220
0.0
230
1.0
100
AcDbText
  0
TEXT
  5
B7
100
AcDbEntity
  8
0
 62
     6
 48
0.0
100
AcDbText
 10
0.0
 20
-371.0
 30
0.0
 40
2.0
  1
      0.9751  0.5395     2
 72
     5
 11
59.666668
 21
-371.0
 31
0.0
210
0.0
220
0.0
230
1.0
100
AcDbText
  0
TEXT
  5
B8
100
AcDbEntity
  8
0
 62
     6
 48
0.0
100
AcDbText
 10
0.0
 20
-374.0
 30
0.0
 40
2.0
  1
      0.9749  0.4936     2
 72
     5
 11
59.666668
 21
-374.0
 31
0.0
210
0.0
220
0.0
230
1.0
100
AcDbText
  0
TEXT
  5
B9
100
AcDbEntity
  8
0
 62
     6
 48
0.0
100
AcDbText
 10
0.0
 20
-377.0
 30
0.0
 40
2.0
  1
      0.0400  0.2879     3
 72
     5
 11
59.666668
 21
-377.0
 31
0.0
210
0.0
220
0.0
230
1.0
100
AcDbText
  0
TEXT
  5
BA
100
AcDbEntity
  8
0
 62
     6
 48
0.0
100
AcDbText
 10
0.0
 20
-380.0
 30
0.0
 40
2.0
  1
      0.0400  0.2064     4
 72
     5
 11
59.666668
 21
-380.0
 31
0.0
210
0.0
220
0.0
230
1.0
100
AcDbText
  0
TEXT
  5
BB
100
AcDbEntity
  8
0
 62
     6
 48
0.0
100
AcDbText
 10
0.0
 20
-383.0
 30
0.0
 40
2.0
  1
    SECTION NUMBER 12 AT    5.610 M
 72
     5
 11
80.666672
 21
-383.0
 31
0.0
210
0.0
220
0.0
230
1.0
100
AcDbText
  0
TEXT
  5
BC
100
AcDbEntity
  8
0
 62
     6
 48
0.0
100
AcDbText
 10
0.0
 20
-386.0
 30
0.0
 40
2.0
  1
      0.9602  1.0342     1
 72
     5
 11
59.666668
 21
-386.0
 31
0.0
210
0.0
220
0.0
230
1.0
100
AcDbText
  0
TEXT
  5
BD
100
AcDbEntity
  8
0
 62
     6
 48
0.0
100
AcDbText
 10
0.0
 20
-389.0
 30
0.0
 40
2.0
  1
      0.9399  0.9371     2
 72
     5
 11
59.666668
 21
-389.0
 31
0.0
210
0.0
220
0.0
230
1.0
100
AcDbText
  0
TEXT
  5
BE
100
AcDbEntity
  8
0
 62
     6
 48
0.0
100
AcDbText
 10
0.0
 20
-392.0
 30
0.0
 40
2.0
  1
      0.9361  0.8372     2
 72
     5
 11
59.666668
 21
-392.0
 31
0.0
210
0.0
220
0.0
230
1.0
100
AcDbText
  0
TEXT
  5
BF
100
AcDbEntity
  8
0
 62
     6
 48
0.0
100
AcDbText
 10
0.0
 20
-395.0
 30
0.0
 40
2.0
  1
      0.9366  0.7372     2
 72
     5
 11
59.666668
 21
-395.0
 31
0.0
210
0.0
220
0.0
230
1.0
100
AcDbText
  0
TEXT
  5
C0
100
AcDbEntity
  8
0
 62
     6
 48
0.0
100
AcDbText
 10
0.0
 20
-398.0
 30
0.0
 40
2.0
  1
      0.9394  0.6373     2
 72
     5
 11
59.666668
 21
-398.0
 31
0.0
210
0.0
220
0.0
230
1.0
100
AcDbText
  0
TEXT
  5
C1
100
AcDbEntity
  8
0
 62
     6
 48
0.0
100
AcDbText
 10
0.0
 20
-401.0
 30
0.0
 40
2.0
  1
      0.9437  0.5374     2
 72
     5
 11
59.666668
 21
-401.0
 31
0.0
210
0.0
220
0.0
230
1.0
100
AcDbText
  0
TEXT
  5
C2
100
AcDbEntity
  8
0
 62
     6
 48
0.0
100
AcDbText
 10
0.0
 20
-404.0
 30
0.0
 40
2.0
  1
      0.9461  0.4890     2
 72
     5
 11
59.666668
 21
-404.0
 31
0.0
210
0.0
220
0.0
230
1.0
100
AcDbText
  0
TEXT
  5
C3
100
AcDbEntity
  8
0
 62
     6
 48
0.0
100
AcDbText
 10
0.0
 20
-407.0
 30
0.0
 40
2.0
  1
      0.0400  0.3197     3
 72
     5
 11
59.666668
 21
-407.0
 31
0.0
210
0.0
220
0.0
230
1.0
100
AcDbText
  0
TEXT
  5
C4
100
AcDbEntity
  8
0
 62
     6
 48
0.0
100
AcDbText
 10
0.0
 20
-410.0
 30
0.0
 40
2.0
  1
      0.0400  0.2064     4
 72
     5
 11
59.666668
 21
-410.0
 31
0.0
210
0.0
220
0.0
230
1.0
100
AcDbText
  0
TEXT
  5
C5
100
AcDbEntity
  8
0
 62
     6
 48
0.0
100
AcDbText
 10
0.0
 20
-413.0
 30
0.0
 40
2.0
  1
    SECTION NUMBER 13 AT    6.120 M
 72
     5
 11
80.666672
 21
-413.0
 31
0.0
210
0.0
220
0.0
230
1.0
100
AcDbText
  0
TEXT
  5
C6
100
AcDbEntity
  8
0
 62
     6
 48
0.0
100
AcDbText
 10
0.0
 20
-416.0
 30
0.0
 40
2.0
  1
      0.9027  1.0431     1
 72
     5
 11
59.666668
 21
-416.0
 31
0.0
210
0.0
220
0.0
230
1.0
100
AcDbText
  0
TEXT
  5
C7
100
AcDbEntity
  8
0
 62
     6
 48
0.0
100
AcDbText
 10
0.0
 20
-419.0
 30
0.0
 40
2.0
  1
      0.8852  0.9452     2
 72
     5
 11
59.666668
 21
-419.0
 31
0.0
210
0.0
220
0.0
230
1.0
100
AcDbText
  0
TEXT
  5
C8
100
AcDbEntity
  8
0
 62
     6
 48
0.0
100
AcDbText
 10
0.0
 20
-422.0
 30
0.0
 40
2.0
  1
      0.8835  0.8452     2
 72
     5
 11
59.666668
 21
-422.0
 31
0.0
210
0.0
220
0.0
230
1.0
100
AcDbText
  0
TEXT
  5
C9
100
AcDbEntity
  8
0
 62
     6
 48
0.0
100
AcDbText
 10
0.0
 20
-425.0
 30
0.0
 40
2.0
  1
      0.8866  0.7453     2
 72
     5
 11
59.666668
 21
-425.0
 31
0.0
210
0.0
220
0.0
230
1.0
100
AcDbText
  0
TEXT
  5
CA
100
AcDbEntity
  8
0
 62
     6
 48
0.0
100
AcDbText
 10
0.0
 20
-428.0
 30
0.0
 40
2.0
  1
      0.8924  0.6455     2
 72
     5
 11
59.666668
 21
-428.0
 31
0.0
210
0.0
220
0.0
230
1.0
100
AcDbText
  0
TEXT
  5
CB
100
AcDbEntity
  8
0
 62
     6
 48
0.0
100
AcDbText
 10
0.0
 20
-431.0
 30
0.0
 40
2.0
  1
      0.9000  0.5457     2
 72
     5
 11
59.666668
 21
-431.0
 31
0.0
210
0.0
220
0.0
230
1.0
100
AcDbText
  0
TEXT
  5
CC
100
AcDbEntity
  8
0
 62
     6
 48
0.0
100
AcDbText
 10
0.0
 20
-434.0
 30
0.0
 40
2.0
  1
      0.9051  0.4856     2
 72
     5
 11
59.666668
 21
-434.0
 31
0.0
210
0.0
220
0.0
230
1.0
100
AcDbText
  0
TEXT
  5
CD
100
AcDbEntity
  8
0
 62
     6
 48
0.0
100
AcDbText
 10
0.0
 20
-437.0
 30
0.0
 40
2.0
  1
      0.0400  0.3530     3
 72
     5
 11
59.666668
 21
-437.0
 31
0.0
210
0.0
220
0.0
230
1.0
100
AcDbText
  0
TEXT
  5
CE
100
AcDbEntity
  8
0
 62
     6
 48
0.0
100
AcDbText
 10
0.0
 20
-440.0
 30
0.0
 40
2.0
  1
      0.0400  0.2064     4
 72
     5
 11
59.666668
 21
-440.0
 31
0.0
210
0.0
220
0.0
230
1.0
100
AcDbText
  0
TEXT
  5
CF
100
AcDbEntity
  8
0
 62
     6
 48
0.0
100
AcDbText
 10
0.0
 20
-443.0
 30
0.0
 40
2.0
  1
    SECTION NUMBER 14 AT    6.630 M
 72
     5
 11
80.666672
 21
-443.0
 31
0.0
210
0.0
220
0.0
230
1.0
100
AcDbText
  0
TEXT
  5
D0
100
AcDbEntity
  8
0
 62
     6
 48
0.0
100
AcDbText
 10
0.0
 20
-446.0
 30
0.0
 40
2.0
  1
      0.8363  1.0559     1
 72
     5
 11
59.666668
 21
-446.0
 31
0.0
210
0.0
220
0.0
230
1.0
100
AcDbText
  0
TEXT
  5
D1
100
AcDbEntity
  8
0
 62
     6
 48
0.0
100
AcDbText
 10
0.0
 20
-449.0
 30
0.0
 40
2.0
  1
      0.8257  0.9567     2
 72
     5
 11
59.666668
 21
-449.0
 31
0.0
210
0.0
220
0.0
230
1.0
100
AcDbText
  0
TEXT
  5
D2
100
AcDbEntity
  8
0
 62
     6
 48
0.0
100
AcDbText
 10
0.0
 20
-452.0
 30
0.0
 40
2.0
  1
      0.8268  0.8567     2
 72
     5
 11
59.666668
 21
-452.0
 31
0.0
210
0.0
220
0.0
230
1.0
100
AcDbText
  0
TEXT
  5
D3
100
AcDbEntity
  8
0
 62
     6
 48
0.0
100
AcDbText
 10
0.0
 20
-455.0
 30
0.0
 40
2.0
  1
      0.8324  0.7569     2
 72
     5
 11
59.666668
 21
-455.0
 31
0.0
210
0.0
220
0.0
230
1.0
100
AcDbText
  0
TEXT
  5
D4
100
AcDbEntity
  8
0
 62
     6
 48
0.0
100
AcDbText
 10
0.0
 20
-458.0
 30
0.0
 40
2.0
  1
      0.8404  0.6572     2
 72
     5
 11
59.666668
 21
-458.0
 31
0.0
210
0.0
220
0.0
230
1.0
100
AcDbText
  0
TEXT
  5
D5
100
AcDbEntity
  8
0
 62
     6
 48
0.0
100
AcDbText
 10
0.0
 20
-461.0
 30
0.0
 40
2.0
  1
      0.8500  0.5576     2
 72
     5
 11
59.666668
 21
-461.0
 31
0.0
210
0.0
220
0.0
230
1.0
100
AcDbText
  0
TEXT
  5
D6
100
AcDbEntity
  8
0
 62
     6
 48
0.0
100
AcDbText
 10
0.0
 20
-464.0
 30
0.0
 40
2.0
  1
      0.8584  0.4794     2
 72
     5
 11
59.666668
 21
-464.0
 31
0.0
210
0.0
220
0.0
230
1.0
100
AcDbText
  0
TEXT
  5
D7
100
AcDbEntity
  8
0
 62
     6
 48
0.0
100
AcDbText
 10
0.0
 20
-467.0
 30
0.0
 40
2.0
  1
      0.0400  0.3933     3
 72
     5
 11
59.666668
 21
-467.0
 31
0.0
210
0.0
220
0.0
230
1.0
100
AcDbText
  0
TEXT
  5
D8
100
AcDbEntity
  8
0
 62
     6
 48
0.0
100
AcDbText
 10
0.0
 20
-470.0
 30
0.0
 40
2.0
  1
      0.0400  0.2064     4
 72
     5
 11
59.666668
 21
-470.0
 31
0.0
210
0.0
220
0.0
230
1.0
100
AcDbText
  0
TEXT
  5
D9
100
AcDbEntity
  8
0
 62
     6
 48
0.0
100
AcDbText
 10
0.0
 20
-473.0
 30
0.0
 40
2.0
  1
    SECTION NUMBER 15 AT    7.140 M
 72
     5
 11
80.666672
 21
-473.0
 31
0.0
210
0.0
220
0.0
230
1.0
100
AcDbText
  0
TEXT
  5
DA
100
AcDbEntity
  8
0
 62
     6
 48
0.0
100
AcDbText
 10
0.0
 20
-476.0
 30
0.0
 40
2.0
  1
      0.7612  1.0695     1
 72
     5
 11
59.666668
 21
-476.0
 31
0.0
210
0.0
220
0.0
230
1.0
100
AcDbText
  0
TEXT
  5
DB
100
AcDbEntity
  8
0
 62
     6
 48
0.0
100
AcDbText
 10
0.0
 20
-479.0
 30
0.0
 40
2.0
  1
      0.7611  0.9695     2
 72
     5
 11
59.666668
 21
-479.0
 31
0.0
210
0.0
220
0.0
230
1.0
100
AcDbText
  0
TEXT
  5
DC
100
AcDbEntity
  8
0
 62
     6
 48
0.0
100
AcDbText
 10
0.0
 20
-482.0
 30
0.0
 40
2.0
  1
      0.7675  0.8698     2
 72
     5
 11
59.666668
 21
-482.0
 31
0.0
210
0.0
220
0.0
230
1.0
100
AcDbText
  0
TEXT
  5
DD
100
AcDbEntity
  8
0
 62
     6
 48
0.0
100
AcDbText
 10
0.0
 20
-485.0
 30
0.0
 40
2.0
  1
      0.7767  0.7702     2
 72
     5
 11
59.666668
 21
-485.0
 31
0.0
210
0.0
220
0.0
230
1.0
100
AcDbText
  0
TEXT
  5
DE
100
AcDbEntity
  8
0
 62
     6
 48
0.0
100
AcDbText
 10
0.0
 20
-488.0
 30
0.0
 40
2.0
  1
      0.7878  0.6708     2
 72
     5
 11
59.666668
 21
-488.0
 31
0.0
210
0.0
220
0.0
230
1.0
100
AcDbText
  0
TEXT
  5
DF
100
AcDbEntity
  8
0
 62
     6
 48
0.0
100
AcDbText
 10
0.0
 20
-491.0
 30
0.0
 40
2.0
  1
      0.7999  0.5715     2
 72
     5
 11
59.666668
 21
-491.0
 31
0.0
210
0.0
220
0.0
230
1.0
100
AcDbText
  0
TEXT
  5
E0
100
AcDbEntity
  8
0
 62
     6
 48
0.0
100
AcDbText
 10
0.0
 20
-494.0
 30
0.0
 40
2.0
  1
      0.8125  0.4761     2
 72
     5
 11
59.666668
 21
-494.0
 31
0.0
210
0.0
220
0.0
230
1.0
100
AcDbText
  0
TEXT
  5
E1
100
AcDbEntity
  8
0
 62
     6
 48
0.0
100
AcDbText
 10
0.0
 20
-497.0
 30
0.0
 40
2.0
  1
      0.0400  0.4270     3
 72
     5
 11
59.666668
 21
-497.0
 31
0.0
210
0.0
220
0.0
230
1.0
100
AcDbText
  0
TEXT
  5
E2
100
AcDbEntity
  8
0
 62
     6
 48
0.0
100
AcDbText
 10
0.0
 20
-500.0
 30
0.0
 40
2.0
  1
      0.0400  0.2064     4
 72
     5
 11
59.666668
 21
-500.0
 31
0.0
210
0.0
220
0.0
230
1.0
100
AcDbText
  0
TEXT
  5
E3
100
AcDbEntity
  8
0
 62
     6
 48
0.0
100
AcDbText
 10
0.0
 20
-503.0
 30
0.0
 40
2.0
  1
    SECTION NUMBER 16 AT    7.650 M
 72
     5
 11
80.666672
 21
-503.0
 31
0.0
210
0.0
220
0.0
230
1.0
100
AcDbText
  0
TEXT
  5
E4
100
AcDbEntity
  8
0
 62
     6
 48
0.0
100
AcDbText
 10
0.0
 20
-506.0
 30
0.0
 40
2.0
  1
      0.6757  1.1043     1
 72
     5
 11
59.666668
 21
-506.0
 31
0.0
210
0.0
220
0.0
230
1.0
100
AcDbText
  0
TEXT
  5
E5
100
AcDbEntity
  8
0
 62
     6
 48
0.0
100
AcDbText
 10
0.0
 20
-509.0
 30
0.0
 40
2.0
  1
      0.6873  1.0050     2
 72
     5
 11
59.666668
 21
-509.0
 31
0.0
210
0.0
220
0.0
230
1.0
100
AcDbText
  0
TEXT
  5
E6
100
AcDbEntity
  8
0
 62
     6
 48
0.0
100
AcDbText
 10
0.0
 20
-512.0
 30
0.0
 40
2.0
  1
      0.6999  0.9058     2
 72
     5
 11
59.666668
 21
-512.0
 31
0.0
210
0.0
220
0.0
230
1.0
100
AcDbText
  0
TEXT
  5
E7
100
AcDbEntity
  8
0
 62
     6
 48
0.0
100
AcDbText
 10
0.0
 20
-515.0
 30
0.0
 40
2.0
  1
      0.7132  0.8067     2
 72
     5
 11
59.666668
 21
-515.0
 31
0.0
210
0.0
220
0.0
230
1.0
100
AcDbText
  0
TEXT
  5
E8
100
AcDbEntity
  8
0
 62
     6
 48
0.0
100
AcDbText
 10
0.0
 20
-518.0
 30
0.0
 40
2.0
  1
      0.7269  0.7076     2
 72
     5
 11
59.666668
 21
-518.0
 31
0.0
210
0.0
220
0.0
230
1.0
100
AcDbText
  0
TEXT
  5
E9
100
AcDbEntity
  8
0
 62
     6
 48
0.0
100
AcDbText
 10
0.0
 20
-521.0
 30
0.0
 40
2.0
  1
      0.7409  0.6086     2
 72
     5
 11
59.666668
 21
-521.0
 31
0.0
210
0.0
220
0.0
230
1.0
100
AcDbText
  0
TEXT
  5
EA
100
AcDbEntity
  8
0
 62
     6
 48
0.0
100
AcDbText
 10
0.0
 20
-524.0
 30
0.0
 40
2.0
  1
      0.7551  0.5096     2
 72
     5
 11
59.666668
 21
-524.0
 31
0.0
210
0.0
220
0.0
230
1.0
100
AcDbText
  0
TEXT
  5
EB
100
AcDbEntity
  8
0
 62
     6
 48
0.0
100
AcDbText
 10
0.0
 20
-527.0
 30
0.0
 40
2.0
  1
      0.7607  0.4714     2
 72
     5
 11
59.666668
 21
-527.0
 31
0.0
210
0.0
220
0.0
230
1.0
100
AcDbText
  0
TEXT
  5
EC
100
AcDbEntity
  8
0
 62
     6
 48
0.0
100
AcDbText
 10
0.0
 20
-530.0
 30
0.0
 40
2.0
  1
      0.0400  0.4575     3
 72
     5
 11
59.666668
 21
-530.0
 31
0.0
210
0.0
220
0.0
230
1.0
100
AcDbText
  0
TEXT
  5
ED
100
AcDbEntity
  8
0
 62
     6
 48
0.0
100
AcDbText
 10
0.0
 20
-533.0
 30
0.0
 40
2.0
  1
    SECTION NUMBER 17 AT    7.814 M
 72
     5
 11
80.666672
 21
-533.0
 31
0.0
210
0.0
220
0.0
230
1.0
100
AcDbText
  0
TEXT
  5
EE
100
AcDbEntity
  8
0
 62
     6
 48
0.0
100
AcDbText
 10
0.0
 20
-536.0
 30
0.0
 40
2.0
  1
      0.6462  1.1232     1
 72
     5
 11
59.666668
 21
-536.0
 31
0.0
210
0.0
220
0.0
230
1.0
100
AcDbText
  0
TEXT
  5
EF
100
AcDbEntity
  8
0
 62
     6
 48
0.0
100
AcDbText
 10
0.0
 20
-539.0
 30
0.0
 40
2.0
  1
      0.6601  1.0242     2
 72
     5
 11
59.666668
 21
-539.0
 31
0.0
210
0.0
220
0.0
230
1.0
100
AcDbText
  0
TEXT
  5
F0
100
AcDbEntity
  8
0
 62
     6
 48
0.0
100
AcDbText
 10
0.0
 20
-542.0
 30
0.0
 40
2.0
  1
      0.6738  0.9251     2
 72
     5
 11
59.666668
 21
-542.0
 31
0.0
210
0.0
220
0.0
230
1.0
100
AcDbText
  0
TEXT
  5
F1
100
AcDbEntity
  8
0
 62
     6
 48
0.0
100
AcDbText
 10
0.0
 20
-545.0
 30
0.0
 40
2.0
  1
      0.6874  0.8260     2
 72
     5
 11
59.666668
 21
-545.0
 31
0.0
210
0.0
220
0.0
230
1.0
100
AcDbText
  0
TEXT
  5
F2
100
AcDbEntity
  8
0
 62
     6
 48
0.0
100
AcDbText
 10
0.0
 20
-548.0
 30
0.0
 40
2.0
  1
      0.7009  0.7270     2
 72
     5
 11
59.666668
 21
-548.0
 31
0.0
210
0.0
220
0.0
230
1.0
100
AcDbText
  0
TEXT
  5
F3
100
AcDbEntity
  8
0
 62
     6
 48
0.0
100
AcDbText
 10
0.0
 20
-551.0
 30
0.0
 40
2.0
  1
      0.7144  0.6279     2
 72
     5
 11
59.666668
 21
-551.0
 31
0.0
210
0.0
220
0.0
230
1.0
100
AcDbText
  0
TEXT
  5
F4
100
AcDbEntity
  8
0
 62
     6
 48
0.0
100
AcDbText
 10
0.0
 20
-554.0
 30
0.0
 40
2.0
  1
      0.7277  0.5288     2
 72
     5
 11
59.666668
 21
-554.0
 31
0.0
210
0.0
220
0.0
230
1.0
100
AcDbText
  0
TEXT
  5
F5
100
AcDbEntity
  8
0
 62
     6
 48
0.0
100
AcDbText
 10
0.0
 20
-557.0
 30
0.0
 40
2.0
  1
      0.7352  0.4734     2
 72
     5
 11
59.666668
 21
-557.0
 31
0.0
210
0.0
220
0.0
230
1.0
100
AcDbText
  0
TEXT
  5
F6
100
AcDbEntity
  8
0
 62
     6
 48
0.0
100
AcDbText
 10
0.0
 20
-560.0
 30
0.0
 40
2.0
  1
      0.0400  0.4656     3
 72
     5
 11
59.666668
 21
-560.0
 31
0.0
210
0.0
220
0.0
230
1.0
100
AcDbText
  0
TEXT
  5
F7
100
AcDbEntity
  8
0
 62
     6
 48
0.0
100
AcDbText
 10
0.0
 20
-563.0
 30
0.0
 40
2.0
  1
    
 72
     5
 11
8.333334
 21
-563.0
 31
0.0
210
0.0
220
0.0
230
1.0
100
AcDbText
  0
POLYLINE
  5
F8
100
AcDbEntity
  8
1
  6
Continuous
 62
     6
 48
0.75
100
AcDb2dPolyline
 66
     1
 10
0.0
 20
0.0
 30
0.0
 70
   128
  0
VERTEX
  5
F9
100
AcDbEntity
  8
1
  6
Continuous
 62
     6
 48
0.75
100
AcDbVertex
100
AcDb2dVertex
 10
-149.273906
 20
-485.497839
 30
0.0
 40
0.0
 41
0.0
  0
VERTEX
  5
FA
100
AcDbEntity
  8
1
  6
Continuous
 62
     6
 48
0.75
100
AcDbVertex
100
AcDb2dVertex
 10
-149.273906
 20
-446.077839
 30
0.0
 40
0.0
 41
0.0
  0
SEQEND
  5
FB
100
AcDbEntity
  8
0
  0
POLYLINE
  5
FC
100
AcDbEntity
  8
1
  6
Continuous
 62
     6
 48
0.75
100
AcDb2dPolyline
 66
     1
 10
0.0
 20
0.0
 30
0.0
 70
   128
  0
VERTEX
  5
FD
100
AcDbEntity
  8
1
  6
Continuous
 62
     6
 48
0.75
100
AcDbVertex
100
AcDb2dVertex
 10
-200.263906
 20
-485.497839
 30
0.0
 40
0.0
 41
0.0
  0
VERTEX
  5
FE
100
AcDbEntity
  8
1
  6
Continuous
 62
     6
 48
0.75
100
AcDbVertex
100
AcDb2dVertex
 10
-200.263906
 20
-417.007839
 30
0.0
 40
0.0
 41
0.0
  0
SEQEND
  5
FF
100
AcDbEntity
  8
0
  0
POLYLINE
  5
100
100
AcDbEntity
  8
1
  6
Continuous
 62
     6
 48
0.75
100
AcDb2dPolyline
 66
     1
 10
0.0
 20
0.0
 30
0.0
 70
   128
  0
VERTEX
  5
101
100
AcDbEntity
  8
1
  6
Continuous
 62
     6
 48
0.75
100
AcDbVertex
100
AcDb2dVertex
 10
-251.263906
 20
-485.497839
 30
0.0
 40
0.0
 41
0.0
  0
VERTEX
  5
102
100
AcDbEntity
  8
1
  6
Continuous
 62
     6
 48
0.75
100
AcDbVertex
100
AcDb2dVertex
 10
-251.263906
 20
-398.807839
 30
0.0
 40
0.0
 41
0.0
  0
SEQEND
  5
103
100
AcDbEntity
  8
0
  0
POLYLINE
  5
104
100
AcDbEntity
  8
1
  6
Continuous
 62
     6
 48
0.75
100
AcDb2dPolyline
 66
     1
 10
0.0
 20
0.0
 30
0.0
 70
   128
  0
VERTEX
  5
105
100
AcDbEntity
  8
1
  6
Continuous
 62
     6
 48
0.75
100
AcDbVertex
100
AcDb2dVertex
 10
-302.263906
 20
-485.497839
 30
0.0
 40
0.0
 41
0.0
  0
VERTEX
  5
106
100
AcDbEntity
  8
1
  6
Continuous
 62
     6
 48
0.75
100
AcDbVertex
100
AcDb2dVertex
 10
-302.263906
 20
-386.727839
 30
0.0
 40
0.0
 41
0.0
  0
SEQEND
  5
107
100
AcDbEntity
  8
0
  0
POLYLINE
  5
108
100
AcDbEntity
  8
1
  6
Continuous
 62
     6
 48
0.75
100
AcDb2dPolyline
 66
     1
 10
0.0
 20
0.0
 30
0.0
 70
   128
  0
VERTEX
  5
109
100
AcDbEntity
  8
1
  6
Continuous
 62
     6
 48
0.75
100
AcDbVertex
100
AcDb2dVertex
 10
-353.263906
 20
-485.497839
 30
0.0
 40
0.0
 41
0.0
  0
VERTEX
  5
10A
100
AcDbEntity
  8
1
  6
Continuous
 62
     6
 48
0.75
100
AcDbVertex
100
AcDb2dVertex
 10
-353.263906
 20
-379.477839
 30
0.0
 40
0.0
 41
0.0
  0
SEQEND
  5
10B
100
AcDbEntity
  8
0
  0
POLYLINE
  5
10C
100
AcDbEntity
  8
1
  6
Continuous
 62
     6
 48
0.75
100
AcDb2dPolyline
 66
     1
 10
0.0
 20
0.0
 30
0.0
 70
   128
  0
VERTEX
  5
10D
100
AcDbEntity
  8
1
  6
Continuous
 62
     6
 48
0.75
100
AcDbVertex
100
AcDb2dVertex
 10
-404.263906
 20
-485.497839
 30
0.0
 40
0.0
 41
0.0
  0
VERTEX
  5
10E
100
AcDbEntity
  8
1
  6
Continuous
 62
     6
 48
0.75
100
AcDbVertex
100
AcDb2dVertex
 10
-404.263906
 20
-375.937839
 30
0.0
 40
0.0
 41
0.0
  0
SEQEND
  5
10F
100
AcDbEntity
  8
0
  0
POLYLINE
  5
110
100
AcDbEntity
  8
1
  6
Continuous
 62
     6
 48
0.75
100
AcDb2dPolyline
 66
     1
 10
0.0
 20
0.0
 30
0.0
 70
   128
  0
VERTEX
  5
111
100
AcDbEntity
  8
1
  6
Continuous
 62
     6
 48
0.75
100
AcDbVertex
100
AcDb2dVertex
 10
-455.263906
 20
-485.497839
 30
0.0
 40
0.0
 41
0.0
  0
VERTEX
  5
112
100
AcDbEntity
  8
1
  6
Continuous
 62
     6
 48
0.75
100
AcDbVertex
100
AcDb2dVertex
 10
-455.263906
 20
-375.057839
 30
0.0
 40
0.0
 41
0.0
  0
SEQEND
  5
113
100
AcDbEntity
  8
0
  0
POLYLINE
  5
114
100
AcDbEntity
  8
1
  6
Continuous
 62
     6
 48
0.75
100
AcDb2dPolyline
 66
     1
 10
0.0
 20
0.0
 30
0.0
 70
   128
  0
VERTEX
  5
115
100
AcDbEntity
  8
1
  6
Continuous
 62
     6
 48
0.75
100
AcDbVertex
100
AcDb2dVertex
 10
-506.263906
 20
-485.497839
 30
0.0
 40
0.0
 41
0.0
  0
VERTEX
  5
116
100
AcDbEntity
  8
1
  6
Continuous
 62
     6
 48
0.75
100
AcDbVertex
100
AcDb2dVertex
 10
-506.263906
 20
-375.937839
 30
0.0
 40
0.0
 41
0.0
  0
SEQEND
  5
117
100
AcDbEntity
  8
0
  0
POLYLINE
  5
118
100
AcDbEntity
  8
1
  6
Continuous
 62
     6
 48
0.75
100
AcDb2dPolyline
 66
     1
 10
0.0
 20
0.0
 30
0.0
 70
   128
  0
VERTEX
  5
119
100
AcDbEntity
  8
1
  6
Continuous
 62
     6
 48
0.75
100
AcDbVertex
100
AcDb2dVertex
 10
-557.263906
 20
-485.497839
 30
0.0
 40
0.0
 41
0.0
  0
VERTEX
  5
11A
100
AcDbEntity
  8
1
  6
Continuous
 62
     6
 48
0.75
100
AcDbVertex
100
AcDb2dVertex
 10
-557.263906
 20
-377.847839
 30
0.0
 40
0.0
 41
0.0
  0
SEQEND
  5
11B
100
AcDbEntity
  8
0
  0
POLYLINE
  5
11C
100
AcDbEntity
  8
1
  6
Continuous
 62
     6
 48
0.75
100
AcDb2dPolyline
 66
     1
 10
0.0
 20
0.0
 30
0.0
 70
   128
  0
VERTEX
  5
11D
100
AcDbEntity
  8
1
  6
Continuous
 62
     6
 48
0.75
100
AcDbVertex
100
AcDb2dVertex
 10
-608.263906
 20
-485.497839
 30
0.0
 40
0.0
 41
0.0
  0
VERTEX
  5
11E
100
AcDbEntity
  8
1
  6
Continuous
 62
     6
 48
0.75
100
AcDbVertex
100
AcDb2dVertex
 10
-608.263906
 20
-380.727839
 30
0.0
 40
0.0
 41
0.0
  0
SEQEND
  5
11F
100
AcDbEntity
  8
0
  0
POLYLINE
  5
120
100
AcDbEntity
  8
1
  6
Continuous
 62
     6
 48
0.75
100
AcDb2dPolyline
 66
     1
 10
0.0
 20
0.0
 30
0.0
 70
   128
  0
VERTEX
  5
121
100
AcDbEntity
  8
1
  6
Continuous
 62
     6
 48
0.75
100
AcDbVertex
100
AcDb2dVertex
 10
-659.263906
 20
-485.497839
 30
0.0
 40
0.0
 41
0.0
  0
VERTEX
  5
122
100
AcDbEntity
  8
1
  6
Continuous
 62
     6
 48
0.75
100
AcDbVertex
100
AcDb2dVertex
 10
-659.263906
 20
-384.617839
 30
0.0
 40
0.0
 41
0.0
  0
SEQEND
  5
123
100
AcDbEntity
  8
0
  0
POLYLINE
  5
124
100
AcDbEntity
  8
1
  6
Continuous
 62
     6
 48
0.75
100
AcDb2dPolyline
 66
     1
 10
0.0
 20
0.0
 30
0.0
 70
   128
  0
VERTEX
  5
125
100
AcDbEntity
  8
1
  6
Continuous
 62
     6
 48
0.75
100
AcDbVertex
100
AcDb2dVertex
 10
-710.263906
 20
-485.497839
 30
0.0
 40
0.0
 41
0.0
  0
VERTEX
  5
126
100
AcDbEntity
  8
1
  6
Continuous
 62
     6
 48
0.75
100
AcDbVertex
100
AcDb2dVertex
 10
-710.263906
 20
-389.477839
 30
0.0
 40
0.0
 41
0.0
  0
SEQEND
  5
127
100
AcDbEntity
  8
0
  0
POLYLINE
  5
128
100
AcDbEntity
  8
1
  6
Continuous
 62
     6
 48
0.75
100
AcDb2dPolyline
 66
     1
 10
0.0
 20
0.0
 30
0.0
 70
   128
  0
VERTEX
  5
129
100
AcDbEntity
  8
1
  6
Continuous
 62
     6
 48
0.75
100
AcDbVertex
100
AcDb2dVertex
 10
-761.263906
 20
-485.497839
 30
0.0
 40
0.0
 41
0.0
  0
VERTEX
  5
12A
100
AcDbEntity
  8
1
  6
Continuous
 62
     6
 48
0.75
100
AcDbVertex
100
AcDb2dVertex
 10
-761.263906
 20
-394.987839
 30
0.0
 40
0.0
 41
0.0
  0
SEQEND
  5
12B
100
AcDbEntity
  8
0
  0
POLYLINE
  5
12C
100
AcDbEntity
  8
1
  6
Continuous
 62
     6
 48
0.75
100
AcDb2dPolyline
 66
     1
 10
0.0
 20
0.0
 30
0.0
 70
   128
  0
VERTEX
  5
12D
100
AcDbEntity
  8
1
  6
Continuous
 62
     6
 48
0.75
100
AcDbVertex
100
AcDb2dVertex
 10
-812.263906
 20
-485.497839
 30
0.0
 40
0.0
 41
0.0
  0
VERTEX
  5
12E
100
AcDbEntity
  8
1
  6
Continuous
 62
     6
 48
0.75
100
AcDbVertex
100
AcDb2dVertex
 10
-812.263906
 20
-399.657839
 30
0.0
 40
0.0
 41
0.0
  0
SEQEND
  5
12F
100
AcDbEntity
  8
0
  0
POLYLINE
  5
130
100
AcDbEntity
  8
1
  6
Continuous
 62
     6
 48
0.75
100
AcDb2dPolyline
 66
     1
 10
0.0
 20
0.0
 30
0.0
 70
   128
  0
VERTEX
  5
131
100
AcDbEntity
  8
1
  6
Continuous
 62
     6
 48
0.75
100
AcDbVertex
100
AcDb2dVertex
 10
-863.263906
 20
-485.497839
 30
0.0
 40
0.0
 41
0.0
  0
VERTEX
  5
132
100
AcDbEntity
  8
1
  6
Continuous
 62
     6
 48
0.75
100
AcDbVertex
100
AcDb2dVertex
 10
-863.263906
 20
-404.247839
 30
0.0
 40
0.0
 41
0.0
  0
SEQEND
  5
133
100
AcDbEntity
  8
0
  0
POLYLINE
  5
134
100
AcDbEntity
  8
1
  6
Continuous
 62
     6
 48
0.75
100
AcDb2dPolyline
 66
     1
 10
0.0
 20
0.0
 30
0.0
 70
   128
  0
VERTEX
  5
135
100
AcDbEntity
  8
1
  6
Continuous
 62
     6
 48
0.75
100
AcDbVertex
100
AcDb2dVertex
 10
-914.263906
 20
-485.497839
 30
0.0
 40
0.0
 41
0.0
  0
VERTEX
  5
136
100
AcDbEntity
  8
1
  6
Continuous
 62
     6
 48
0.75
100
AcDbVertex
100
AcDb2dVertex
 10
-914.263906
 20
-409.427839
 30
0.0
 40
0.0
 41
0.0
  0
SEQEND
  5
137
100
AcDbEntity
  8
0
  0
POLYLINE
  5
138
100
AcDbEntity
  8
1
  6
Continuous
 62
     6
 48
0.75
100
AcDb2dPolyline
 66
     1
 10
0.0
 20
0.0
 30
0.0
 70
   128
  0
VERTEX
  5
139
100
AcDbEntity
  8
1
  6
Continuous
 62
     6
 48
0.75
100
AcDbVertex
100
AcDb2dVertex
 10
-930.663906
 20
-485.497839
 30
0.0
 40
0.0
 41
0.0
  0
VERTEX
  5
13A
100
AcDbEntity
  8
1
  6
Continuous
 62
     6
 48
0.75
100
AcDbVertex
100
AcDb2dVertex
 10
-930.663906
 20
-411.977839
 30
0.0
 40
0.0
 41
0.0
  0
SEQEND
  5
13B
100
AcDbEntity
  8
0
  0
POLYLINE
  5
13C
100
AcDbEntity
  8
1
  6
Continuous
 62
     6
 48
0.75
100
AcDb2dPolyline
 66
     1
 10
0.0
 20
0.0
 30
0.0
 70
   128
  0
VERTEX
  5
13D
100
AcDbEntity
  8
1
  6
Continuous
 62
     6
 48
0.75
100
AcDbVertex
100
AcDb2dVertex
 10
-107.523906
 20
-481.497839
 30
0.0
 40
0.0
 41
0.0
  0
VERTEX
  5
13E
100
AcDbEntity
  8
1
  6
Continuous
 62
     6
 48
0.75
100
AcDbVertex
100
AcDb2dVertex
 10
-149.273906
 20
-446.077839
 30
0.0
 40
0.0
 41
0.0
  0
VERTEX
  5
13F
100
AcDbEntity
  8
1
  6
Continuous
 62
     6
 48
0.75
100
AcDbVertex
100
AcDb2dVertex
 10
-200.263906
 20
-417.007839
 30
0.0
 40
0.0
 41
0.0
  0
VERTEX
  5
140
100
AcDbEntity
  8
1
  6
Continuous
 62
     6
 48
0.75
100
AcDbVertex
100
AcDb2dVertex
 10
-251.263906
 20
-398.807839
 30
0.0
 40
0.0
 41
0.0
  0
VERTEX
  5
141
100
AcDbEntity
  8
1
  6
Continuous
 62
     6
 48
0.75
100
AcDbVertex
100
AcDb2dVertex
 10
-302.263906
 20
-386.727839
 30
0.0
 40
0.0
 41
0.0
  0
VERTEX
  5
142
100
AcDbEntity
  8
1
  6
Continuous
 62
     6
 48
0.75
100
AcDbVertex
100
AcDb2dVertex
 10
-353.263906
 20
-379.477839
 30
0.0
 40
0.0
 41
0.0
  0
VERTEX
  5
143
100
AcDbEntity
  8
1
  6
Continuous
 62
     6
 48
0.75
100
AcDbVertex
100
AcDb2dVertex
 10
-404.263906
 20
-375.937839
 30
0.0
 40
0.0
 41
0.0
  0
VERTEX
  5
144
100
AcDbEntity
  8
1
  6
Continuous
 62
     6
 48
0.75
100
AcDbVertex
100
AcDb2dVertex
 10
-455.263906
 20
-375.057839
 30
0.0
 40
0.0
 41
0.0
  0
VERTEX
  5
145
100
AcDbEntity
  8
1
  6
Continuous
 62
     6
 48
0.75
100
AcDbVertex
100
AcDb2dVertex
 10
-506.263906
 20
-375.937839
 30
0.0
 40
0.0
 41
0.0
  0
VERTEX
  5
146
100
AcDbEntity
  8
1
  6
Continuous
 62
     6
 48
0.75
100
AcDbVertex
100
AcDb2dVertex
 10
-557.263906
 20
-377.847839
 30
0.0
 40
0.0
 41
0.0
  0
VERTEX
  5
147
100
AcDbEntity
  8
1
  6
Continuous
 62
     6
 48
0.75
100
AcDbVertex
100
AcDb2dVertex
 10
-608.263906
 20
-380.727839
 30
0.0
 40
0.0
 41
0.0
  0
VERTEX
  5
148
100
AcDbEntity
  8
1
  6
Continuous
 62
     6
 48
0.75
100
AcDbVertex
100
AcDb2dVertex
 10
-659.263906
 20
-384.617839
 30
0.0
 40
0.0
 41
0.0
  0
VERTEX
  5
149
100
AcDbEntity
  8
1
  6
Continuous
 62
     6
 48
0.75
100
AcDbVertex
100
AcDb2dVertex
 10
-710.263906
 20
-389.477839
 30
0.0
 40
0.0
 41
0.0
  0
VERTEX
  5
14A
100
AcDbEntity
  8
1
  6
Continuous
 62
     6
 48
0.75
100
AcDbVertex
100
AcDb2dVertex
 10
-761.263906
 20
-395.227839
 30
0.0
 40
0.0
 41
0.0
  0
VERTEX
  5
14B
100
AcDbEntity
  8
1
  6
Continuous
 62
     6
 48
0.75
100
AcDbVertex
100
AcDb2dVertex
 10
-812.263906
 20
-401.867839
 30
0.0
 40
0.0
 41
0.0
  0
VERTEX
  5
14C
100
AcDbEntity
  8
1
  6
Continuous
 62
     6
 48
0.75
100
AcDbVertex
100
AcDb2dVertex
 10
-863.263906
 20
-409.377839
 30
0.0
 40
0.0
 41
0.0
  0
VERTEX
  5
14D
100
AcDbEntity
  8
1
  6
Continuous
 62
     6
 48
0.75
100
AcDbVertex
100
AcDb2dVertex
 10
-914.263906
 20
-417.927839
 30
0.0
 40
0.0
 41
0.0
  0
VERTEX
  5
14E
100
AcDbEntity
  8
1
  6
Continuous
 62
     6
 48
0.75
100
AcDbVertex
100
AcDb2dVertex
 10
-930.663906
 20
-420.877839
 30
0.0
 40
0.0
 41
0.0
  0
SEQEND
  5
14F
100
AcDbEntity
  8
0
  0
POLYLINE
  5
150
100
AcDbEntity
  8
1
  6
Continuous
 62
     6
 48
0.75
100
AcDb2dPolyline
 66
     1
 10
0.0
 20
0.0
 30
0.0
 70
   128
  0
VERTEX
  5
151
100
AcDbEntity
  8
1
  6
Continuous
 62
     6
 48
0.75
100
AcDbVertex
100
AcDb2dVertex
 10
-107.523906
 20
-481.497839
 30
0.0
 40
0.0
 41
0.0
  0
VERTEX
  5
152
100
AcDbEntity
  8
1
  6
Continuous
 62
     6
 48
0.75
100
AcDbVertex
100
AcDb2dVertex
 10
-149.273906
 20
-446.077839
 30
0.0
 40
0.0
 41
0.0
  0
VERTEX
  5
153
100
AcDbEntity
  8
1
  6
Continuous
 62
     6
 48
0.75
100
AcDbVertex
100
AcDb2dVertex
 10
-200.263906
 20
-417.007839
 30
0.0
 40
0.0
 41
0.0
  0
VERTEX
  5
154
100
AcDbEntity
  8
1
  6
Continuous
 62
     6
 48
0.75
100
AcDbVertex
100
AcDb2dVertex
 10
-251.263906
 20
-398.807839
 30
0.0
 40
0.0
 41
0.0
  0
VERTEX
  5
155
100
AcDbEntity
  8
1
  6
Continuous
 62
     6
 48
0.75
100
AcDbVertex
100
AcDb2dVertex
 10
-302.263906
 20
-386.727839
 30
0.0
 40
0.0
 41
0.0
  0
VERTEX
  5
156
100
AcDbEntity
  8
1
  6
Continuous
 62
     6
 48
0.75
100
AcDbVertex
100
AcDb2dVertex
 10
-353.263906
 20
-379.477839
 30
0.0
 40
0.0
 41
0.0
  0
VERTEX
  5
157
100
AcDbEntity
  8
1
  6
Continuous
 62
     6
 48
0.75
100
AcDbVertex
100
AcDb2dVertex
 10
-404.263906
 20
-375.937839
 30
0.0
 40
0.0
 41
0.0
  0
VERTEX
  5
158
100
AcDbEntity
  8
1
  6
Continuous
 62
     6
 48
0.75
100
AcDbVertex
100
AcDb2dVertex
 10
-455.263906
 20
-375.057839
 30
0.0
 40
0.0
 41
0.0
  0
VERTEX
  5
159
100
AcDbEntity
  8
1
  6
Continuous
 62
     6
 48
0.75
100
AcDbVertex
100
AcDb2dVertex
 10
-506.263906
 20
-375.937839
 30
0.0
 40
0.0
 41
0.0
  0
VERTEX
  5
15A
100
AcDbEntity
  8
1
  6
Continuous
 62
     6
 48
0.75
100
AcDbVertex
100
AcDb2dVertex
 10
-557.263906
 20
-377.847839
 30
0.0
 40
0.0
 41
0.0
  0
VERTEX
  5
15B
100
AcDbEntity
  8
1
  6
Continuous
 62
     6
 48
0.75
100
AcDbVertex
100
AcDb2dVertex
 10
-608.263906
 20
-380.727839
 30
0.0
 40
0.0
 41
0.0
  0
VERTEX
  5
15C
100
AcDbEntity
  8
1
  6
Continuous
 62
     6
 48
0.75
100
AcDbVertex
100
AcDb2dVertex
 10
-659.263906
 20
-384.617839
 30
0.0
 40
0.0
 41
0.0
  0
VERTEX
  5
15D
100
AcDbEntity
  8
1
  6
Continuous
 62
     6
 48
0.75
100
AcDbVertex
100
AcDb2dVertex
 10
-710.263906
 20
-389.477839
 30
0.0
 40
0.0
 41
0.0
  0
VERTEX
  5
15E
100
AcDbEntity
  8
1
  6
Continuous
 62
     6
 48
0.75
100
AcDbVertex
100
AcDb2dVertex
 10
-761.263906
 20
-395.227839
 30
0.0
 40
0.0
 41
0.0
  0
VERTEX
  5
15F
100
AcDbEntity
  8
1
  6
Continuous
 62
     6
 48
0.75
100
AcDbVertex
100
AcDb2dVertex
 10
-812.263906
 20
-401.867839
 30
0.0
 40
0.0
 41
0.0
  0
VERTEX
  5
160
100
AcDbEntity
  8
1
  6
Continuous
 62
     6
 48
0.75
100
AcDbVertex
100
AcDb2dVertex
 10
-863.263906
 20
-409.377839
 30
0.0
 40
0.0
 41
0.0
  0
VERTEX
  5
161
100
AcDbEntity
  8
1
  6
Continuous
 62
     6
 48
0.75
100
AcDbVertex
100
AcDb2dVertex
 10
-914.263906
 20
-417.927839
 30
0.0
 40
0.0
 41
0.0
  0
VERTEX
  5
162
100
AcDbEntity
  8
1
  6
Continuous
 62
     6
 48
0.75
100
AcDbVertex
100
AcDb2dVertex
 10
-930.663906
 20
-420.877839
 30
0.0
 40
0.0
 41
0.0
  0
SEQEND
  5
163
100
AcDbEntity
  8
0
  0
POLYLINE
  5
164
100
AcDbEntity
  8
1
  6
Continuous
 62
     6
 48
0.75
100
AcDb2dPolyline
 66
     1
 10
0.0
 20
0.0
 30
0.0
 70
   128
  0
VERTEX
  5
165
100
AcDbEntity
  8
1
  6
Continuous
 62
     6
 48
0.75
100
AcDbVertex
100
AcDb2dVertex
 10
-128.313906
 20
-481.497839
 30
0.0
 40
0.0
 41
0.0
  0
VERTEX
  5
166
100
AcDbEntity
  8
1
  6
Continuous
 62
     6
 48
0.75
100
AcDbVertex
100
AcDb2dVertex
 10
-149.273906
 20
-473.787839
 30
0.0
 40
0.0
 41
0.0
  0
VERTEX
  5
167
100
AcDbEntity
  8
1
  6
Continuous
 62
     6
 48
0.75
100
AcDbVertex
100
AcDb2dVertex
 10
-200.263906
 20
-454.767839
 30
0.0
 40
0.0
 41
0.0
  0
VERTEX
  5
168
100
AcDbEntity
  8
1
  6
Continuous
 62
     6
 48
0.75
100
AcDbVertex
100
AcDb2dVertex
 10
-251.263906
 20
-438.257839
 30
0.0
 40
0.0
 41
0.0
  0
VERTEX
  5
169
100
AcDbEntity
  8
1
  6
Continuous
 62
     6
 48
0.75
100
AcDbVertex
100
AcDb2dVertex
 10
-302.263906
 20
-421.907839
 30
0.0
 40
0.0
 41
0.0
  0
VERTEX
  5
16A
100
AcDbEntity
  8
1
  6
Continuous
 62
     6
 48
0.75
100
AcDbVertex
100
AcDb2dVertex
 10
-353.263906
 20
-407.567839
 30
0.0
 40
0.0
 41
0.0
  0
VERTEX
  5
16B
100
AcDbEntity
  8
1
  6
Continuous
 62
     6
 48
0.75
100
AcDbVertex
100
AcDb2dVertex
 10
-404.263906
 20
-396.877839
 30
0.0
 40
0.0
 41
0.0
  0
VERTEX
  5
16C
100
AcDbEntity
  8
1
  6
Continuous
 62
     6
 48
0.75
100
AcDbVertex
100
AcDb2dVertex
 10
-455.263906
 20
-388.857839
 30
0.0
 40
0.0
 41
0.0
  0
VERTEX
  5
16D
100
AcDbEntity
  8
1
  6
Continuous
 62
     6
 48
0.75
100
AcDbVertex
100
AcDb2dVertex
 10
-506.263906
 20
-384.257839
 30
0.0
 40
0.0
 41
0.0
  0
VERTEX
  5
16E
100
AcDbEntity
  8
1
  6
Continuous
 62
     6
 48
0.75
100
AcDbVertex
100
AcDb2dVertex
 10
-557.263906
 20
-383.887839
 30
0.0
 40
0.0
 41
0.0
  0
VERTEX
  5
16F
100
AcDbEntity
  8
1
  6
Continuous
 62
     6
 48
0.75
100
AcDbVertex
100
AcDb2dVertex
 10
-608.263906
 20
-385.807839
 30
0.0
 40
0.0
 41
0.0
  0
VERTEX
  5
170
100
AcDbEntity
  8
1
  6
Continuous
 62
     6
 48
0.75
100
AcDbVertex
100
AcDb2dVertex
 10
-659.263906
 20
-388.007839
 30
0.0
 40
0.0
 41
0.0
  0
VERTEX
  5
171
100
AcDbEntity
  8
1
  6
Continuous
 62
     6
 48
0.75
100
AcDbVertex
100
AcDb2dVertex
 10
-710.263906
 20
-390.887839
 30
0.0
 40
0.0
 41
0.0
  0
VERTEX
  5
172
100
AcDbEntity
  8
1
  6
Continuous
 62
     6
 48
0.75
100
AcDbVertex
100
AcDb2dVertex
 10
-761.263906
 20
-394.987839
 30
0.0
 40
0.0
 41
0.0
  0
VERTEX
  5
173
100
AcDbEntity
  8
1
  6
Continuous
 62
     6
 48
0.75
100
AcDbVertex
100
AcDb2dVertex
 10
-812.263906
 20
-399.657839
 30
0.0
 40
0.0
 41
0.0
  0
VERTEX
  5
174
100
AcDbEntity
  8
1
  6
Continuous
 62
     6
 48
0.75
100
AcDbVertex
100
AcDb2dVertex
 10
-863.263906
 20
-404.247839
 30
0.0
 40
0.0
 41
0.0
  0
VERTEX
  5
175
100
AcDbEntity
  8
1
  6
Continuous
 62
     6
 48
0.75
100
AcDbVertex
100
AcDb2dVertex
 10
-914.263906
 20
-409.427839
 30
0.0
 40
0.0
 41
0.0
  0
VERTEX
  5
176
100
AcDbEntity
  8
1
  6
Continuous
 62
     6
 48
0.75
100
AcDbVertex
100
AcDb2dVertex
 10
-930.663906
 20
-411.977839
 30
0.0
 40
0.0
 41
0.0
  0
SEQEND
  5
177
100
AcDbEntity
  8
0
  0
POLYLINE
  5
178
100
AcDbEntity
  8
1
  6
Continuous
 62
     6
 48
0.75
100
AcDb2dPolyline
 66
     1
 10
0.0
 20
0.0
 30
0.0
 70
   128
  0
VERTEX
  5
179
100
AcDbEntity
  8
1
  6
Continuous
 62
     6
 48
0.75
100
AcDbVertex
100
AcDb2dVertex
 10
-149.263906
 20
-481.497839
 30
0.0
 40
0.0
 41
0.0
  0
VERTEX
  5
17A
100
AcDbEntity
  8
1
  6
Continuous
 62
     6
 48
0.75
100
AcDbVertex
100
AcDb2dVertex
 10
-149.273906
 20
-481.497839
 30
0.0
 40
0.0
 41
0.0
  0
VERTEX
  5
17B
100
AcDbEntity
  8
1
  6
Continuous
 62
     6
 48
0.75
100
AcDbVertex
100
AcDb2dVertex
 10
-200.263906
 20
-481.497839
 30
0.0
 40
0.0
 41
0.0
  0
VERTEX
  5
17C
100
AcDbEntity
  8
1
  6
Continuous
 62
     6
 48
0.75
100
AcDbVertex
100
AcDb2dVertex
 10
-251.263906
 20
-481.497839
 30
0.0
 40
0.0
 41
0.0
  0
VERTEX
  5
17D
100
AcDbEntity
  8
1
  6
Continuous
 62
     6
 48
0.75
100
AcDbVertex
100
AcDb2dVertex
 10
-302.263906
 20
-481.497839
 30
0.0
 40
0.0
 41
0.0
  0
VERTEX
  5
17E
100
AcDbEntity
  8
1
  6
Continuous
 62
     6
 48
0.75
100
AcDbVertex
100
AcDb2dVertex
 10
-353.263906
 20
-481.497839
 30
0.0
 40
0.0
 41
0.0
  0
VERTEX
  5
17F
100
AcDbEntity
  8
1
  6
Continuous
 62
     6
 48
0.75
100
AcDbVertex
100
AcDb2dVertex
 10
-404.263906
 20
-481.497839
 30
0.0
 40
0.0
 41
0.0
  0
VERTEX
  5
180
100
AcDbEntity
  8
1
  6
Continuous
 62
     6
 48
0.75
100
AcDbVertex
100
AcDb2dVertex
 10
-455.263906
 20
-481.497839
 30
0.0
 40
0.0
 41
0.0
  0
VERTEX
  5
181
100
AcDbEntity
  8
1
  6
Continuous
 62
     6
 48
0.75
100
AcDbVertex
100
AcDb2dVertex
 10
-506.263906
 20
-481.497839
 30
0.0
 40
0.0
 41
0.0
  0
VERTEX
  5
182
100
AcDbEntity
  8
1
  6
Continuous
 62
     6
 48
0.75
100
AcDbVertex
100
AcDb2dVertex
 10
-557.263906
 20
-481.497839
 30
0.0
 40
0.0
 41
0.0
  0
VERTEX
  5
183
100
AcDbEntity
  8
1
  6
Continuous
 62
     6
 48
0.75
100
AcDbVertex
100
AcDb2dVertex
 10
-608.263906
 20
-481.497839
 30
0.0
 40
0.0
 41
0.0
  0
VERTEX
  5
184
100
AcDbEntity
  8
1
  6
Continuous
 62
     6
 48
0.75
100
AcDbVertex
100
AcDb2dVertex
 10
-659.263906
 20
-481.497839
 30
0.0
 40
0.0
 41
0.0
  0
VERTEX
  5
185
100
AcDbEntity
  8
1
  6
Continuous
 62
     6
 48
0.75
100
AcDbVertex
100
AcDb2dVertex
 10
-710.263906
 20
-481.497839
 30
0.0
 40
0.0
 41
0.0
  0
VERTEX
  5
186
100
AcDbEntity
  8
1
  6
Continuous
 62
     6
 48
0.75
100
AcDbVertex
100
AcDb2dVertex
 10
-761.263906
 20
-481.497839
 30
0.0
 40
0.0
 41
0.0
  0
VERTEX
  5
187
100
AcDbEntity
  8
1
  6
Continuous
 62
     6
 48
0.75
100
AcDbVertex
100
AcDb2dVertex
 10
-812.263906
 20
-481.497839
 30
0.0
 40
0.0
 41
0.0
  0
VERTEX
  5
188
100
AcDbEntity
  8
1
  6
Continuous
 62
     6
 48
0.75
100
AcDbVertex
100
AcDb2dVertex
 10
-863.263906
 20
-481.497839
 30
0.0
 40
0.0
 41
0.0
  0
VERTEX
  5
189
100
AcDbEntity
  8
1
  6
Continuous
 62
     6
 48
0.75
100
AcDbVertex
100
AcDb2dVertex
 10
-914.263906
 20
-481.497839
 30
0.0
 40
0.0
 41
0.0
  0
VERTEX
  5
18A
100
AcDbEntity
  8
1
  6
Continuous
 62
     6
 48
0.75
100
AcDbVertex
100
AcDb2dVertex
 10
-930.663906
 20
-481.497839
 30
0.0
 40
0.0
 41
0.0
  0
SEQEND
  5
18B
100
AcDbEntity
  8
0
  0
POLYLINE
  5
18C
100
AcDbEntity
  8
1
  6
Continuous
 62
     6
 48
0.75
100
AcDb2dPolyline
 66
     1
 10
0.0
 20
0.0
 30
0.0
 70
   128
  0
VERTEX
  5
18D
100
AcDbEntity
  8
1
  6
Continuous
 62
     6
 48
0.75
100
AcDbVertex
100
AcDb2dVertex
 10
-149.263906
 20
-481.497839
 30
0.0
 40
0.0
 41
0.0
  0
VERTEX
  5
18E
100
AcDbEntity
  8
1
  6
Continuous
 62
     6
 48
0.75
100
AcDbVertex
100
AcDb2dVertex
 10
-149.273906
 20
-481.497839
 30
0.0
 40
0.0
 41
0.0
  0
VERTEX
  5
18F
100
AcDbEntity
  8
1
  6
Continuous
 62
     6
 48
0.75
100
AcDbVertex
100
AcDb2dVertex
 10
-200.263906
 20
-481.497839
 30
0.0
 40
0.0
 41
0.0
  0
VERTEX
  5
190
100
AcDbEntity
  8
1
  6
Continuous
 62
     6
 48
0.75
100
AcDbVertex
100
AcDb2dVertex
 10
-251.263906
 20
-481.497839
 30
0.0
 40
0.0
 41
0.0
  0
VERTEX
  5
191
100
AcDbEntity
  8
1
  6
Continuous
 62
     6
 48
0.75
100
AcDbVertex
100
AcDb2dVertex
 10
-302.263906
 20
-481.497839
 30
0.0
 40
0.0
 41
0.0
  0
VERTEX
  5
192
100
AcDbEntity
  8
1
  6
Continuous
 62
     6
 48
0.75
100
AcDbVertex
100
AcDb2dVertex
 10
-353.263906
 20
-481.497839
 30
0.0
 40
0.0
 41
0.0
  0
VERTEX
  5
193
100
AcDbEntity
  8
1
  6
Continuous
 62
     6
 48
0.75
100
AcDbVertex
100
AcDb2dVertex
 10
-404.263906
 20
-481.497839
 30
0.0
 40
0.0
 41
0.0
  0
VERTEX
  5
194
100
AcDbEntity
  8
1
  6
Continuous
 62
     6
 48
0.75
100
AcDbVertex
100
AcDb2dVertex
 10
-455.263906
 20
-481.497839
 30
0.0
 40
0.0
 41
0.0
  0
VERTEX
  5
195
100
AcDbEntity
  8
1
  6
Continuous
 62
     6
 48
0.75
100
AcDbVertex
100
AcDb2dVertex
 10
-506.263906
 20
-481.497839
 30
0.0
 40
0.0
 41
0.0
  0
VERTEX
  5
196
100
AcDbEntity
  8
1
  6
Continuous
 62
     6
 48
0.75
100
AcDbVertex
100
AcDb2dVertex
 10
-557.263906
 20
-481.497839
 30
0.0
 40
0.0
 41
0.0
  0
VERTEX
  5
197
100
AcDbEntity
  8
1
  6
Continuous
 62
     6
 48
0.75
100
AcDbVertex
100
AcDb2dVertex
 10
-608.263906
 20
-481.497839
 30
0.0
 40
0.0
 41
0.0
  0
VERTEX
  5
198
100
AcDbEntity
  8
1
  6
Continuous
 62
     6
 48
0.75
100
AcDbVertex
100
AcDb2dVertex
 10
-659.263906
 20
-481.497839
 30
0.0
 40
0.0
 41
0.0
  0
VERTEX
  5
199
100
AcDbEntity
  8
1
  6
Continuous
 62
     6
 48
0.75
100
AcDbVertex
100
AcDb2dVertex
 10
-710.263906
 20
-481.497839
 30
0.0
 40
0.0
 41
0.0
  0
VERTEX
  5
19A
100
AcDbEntity
  8
1
  6
Continuous
 62
     6
 48
0.75
100
AcDbVertex
100
AcDb2dVertex
 10
-761.263906
 20
-481.497839
 30
0.0
 40
0.0
 41
0.0
  0
VERTEX
  5
19B
100
AcDbEntity
  8
1
  6
Continuous
 62
     6
 48
0.75
100
AcDbVertex
100
AcDb2dVertex
 10
-812.263906
 20
-481.497839
 30
0.0
 40
0.0
 41
0.0
  0
VERTEX
  5
19C
100
AcDbEntity
  8
1
  6
Continuous
 62
     6
 48
0.75
100
AcDbVertex
100
AcDb2dVertex
 10
-863.263906
 20
-481.497839
 30
0.0
 40
0.0
 41
0.0
  0
SEQEND
  5
19D
100
AcDbEntity
  8
0
  0
POLYLINE
  5
19E
100
AcDbEntity
  8
1
  6
Continuous
 62
     6
 48
0.75
100
AcDb2dPolyline
 66
     1
 10
0.0
 20
0.0
 30
0.0
 70
   128
  0
VERTEX
  5
19F
100
AcDbEntity
  8
1
  6
Continuous
 62
     6
 48
0.75
100
AcDbVertex
100
AcDb2dVertex
 10
-107.523906
 20
-485.497839
 30
0.0
 40
0.0
 41
0.0
  0
VERTEX
  5
1A0
100
AcDbEntity
  8
1
  6
Continuous
 62
     6
 48
0.75
100
AcDbVertex
100
AcDb2dVertex
 10
-930.663906
 20
-485.497839
 30
0.0
 40
0.0
 41
0.0
  0
SEQEND
  5
1A1
100
AcDbEntity
  8
0
  0
POLYLINE
  5
1A2
100
AcDbEntity
  8
1
  6
Continuous
 62
     6
 48
0.75
100
AcDb2dPolyline
 66
     1
 10
0.0
 20
0.0
 30
0.0
 70
   128
  0
VERTEX
  5
1A3
100
AcDbEntity
  8
1
  6
Continuous
 62
     6
 48
0.75
100
AcDbVertex
100
AcDb2dVertex
 10
-107.523906
 20
-481.497839
 30
0.0
 40
0.0
 41
0.0
  0
VERTEX
  5
1A4
100
AcDbEntity
  8
1
  6
Continuous
 62
     6
 48
0.75
100
AcDbVertex
100
AcDb2dVertex
 10
-149.263906
 20
-481.497839
 30
0.0
 40
0.0
 41
0.0
  0
SEQEND
  5
1A5
100
AcDbEntity
  8
0
  0
POLYLINE
  5
1A6
100
AcDbEntity
  8
1
  6
Continuous
 62
     6
 48
0.75
100
AcDb2dPolyline
 66
     1
 10
0.0
 20
0.0
 30
0.0
 70
   128
  0
VERTEX
  5
1A7
100
AcDbEntity
  8
1
  6
Continuous
 62
     6
 48
0.75
100
AcDbVertex
100
AcDb2dVertex
 10
-107.523906
 20
-489.497839
 30
0.0
 40
0.0
 41
0.0
  0
VERTEX
  5
1A8
100
AcDbEntity
  8
1
  6
Continuous
 62
     6
 48
0.75
100
AcDbVertex
100
AcDb2dVertex
 10
-149.263906
 20
-489.497839
 30
0.0
 40
0.0
 41
0.0
  0
SEQEND
  5
1A9
100
AcDbEntity
  8
0
  0
POLYLINE
  5
1AA
100
AcDbEntity
  8
1
  6
Continuous
 62
     6
 48
0.75
100
AcDb2dPolyline
 66
     1
 10
0.0
 20
0.0
 30
0.0
 70
   128
  0
VERTEX
  5
1AB
100
AcDbEntity
  8
1
  6
Continuous
 62
     6
 48
0.75
100
AcDbVertex
100
AcDb2dVertex
 10
-149.273906
 20
-42.857839
 30
0.0
 40
0.0
 41
0.0
  0
VERTEX
  5
1AC
100
AcDbEntity
  8
1
  6
Continuous
 62
     6
 48
0.75
100
AcDbVertex
100
AcDb2dVertex
 10
-149.273906
 20
-160.857839
 30
0.0
 40
0.0
 41
0.0
  0
SEQEND
  5
1AD
100
AcDbEntity
  8
0
  0
POLYLINE
  5
1AE
100
AcDbEntity
  8
1
  6
Continuous
 62
     6
 48
0.75
100
AcDb2dPolyline
 66
     1
 10
0.0
 20
0.0
 30
0.0
 70
   128
  0
VERTEX
  5
1AF
100
AcDbEntity
  8
1
  6
Continuous
 62
     6
 48
0.75
100
AcDbVertex
100
AcDb2dVertex
 10
-200.263906
 20
-49.477839
 30
0.0
 40
0.0
 41
0.0
  0
VERTEX
  5
1B0
100
AcDbEntity
  8
1
  6
Continuous
 62
     6
 48
0.75
100
AcDbVertex
100
AcDb2dVertex
 10
-200.263906
 20
-163.357839
 30
0.0
 40
0.0
 41
0.0
  0
SEQEND
  5
1B1
100
AcDbEntity
  8
0
  0
POLYLINE
  5
1B2
100
AcDbEntity
  8
1
  6
Continuous
 62
     6
 48
0.75
100
AcDb2dPolyline
 66
     1
 10
0.0
 20
0.0
 30
0.0
 70
   128
  0
VERTEX
  5
1B3
100
AcDbEntity
  8
1
  6
Continuous
 62
     6
 48
0.75
100
AcDbVertex
100
AcDb2dVertex
 10
-251.263906
 20
-55.427839
 30
0.0
 40
0.0
 41
0.0
  0
VERTEX
  5
1B4
100
AcDbEntity
  8
1
  6
Continuous
 62
     6
 48
0.75
100
AcDbVertex
100
AcDb2dVertex
 10
-251.263906
 20
-164.857839
 30
0.0
 40
0.0
 41
0.0
  0
SEQEND
  5
1B5
100
AcDbEntity
  8
0
  0
POLYLINE
  5
1B6
100
AcDbEntity
  8
1
  6
Continuous
 62
     6
 48
0.75
100
AcDb2dPolyline
 66
     1
 10
0.0
 20
0.0
 30
0.0
 70
   128
  0
VERTEX
  5
1B7
100
AcDbEntity
  8
1
  6
Continuous
 62
     6
 48
0.75
100
AcDbVertex
100
AcDb2dVertex
 10
-302.263906
 20
-61.167839
 30
0.0
 40
0.0
 41
0.0
  0
VERTEX
  5
1B8
100
AcDbEntity
  8
1
  6
Continuous
 62
     6
 48
0.75
100
AcDbVertex
100
AcDb2dVertex
 10
-302.263906
 20
-164.857839
 30
0.0
 40
0.0
 41
0.0
  0
SEQEND
  5
1B9
100
AcDbEntity
  8
0
  0
POLYLINE
  5
1BA
100
AcDbEntity
  8
1
  6
Continuous
 62
     6
 48
0.75
100
AcDb2dPolyline
 66
     1
 10
0.0
 20
0.0
 30
0.0
 70
   128
  0
VERTEX
  5
1BB
100
AcDbEntity
  8
1
  6
Continuous
 62
     6
 48
0.75
100
AcDbVertex
100
AcDb2dVertex
 10
-353.263906
 20
-65.557839
 30
0.0
 40
0.0
 41
0.0
  0
VERTEX
  5
1BC
100
AcDbEntity
  8
1
  6
Continuous
 62
     6
 48
0.75
100
AcDbVertex
100
AcDb2dVertex
 10
-353.263906
 20
-164.857839
 30
0.0
 40
0.0
 41
0.0
  0
SEQEND
  5
1BD
100
AcDbEntity
  8
0
  0
POLYLINE
  5
1BE
100
AcDbEntity
  8
1
  6
Continuous
 62
     6
 48
0.75
100
AcDb2dPolyline
 66
     1
 10
0.0
 20
0.0
 30
0.0
 70
   128
  0
VERTEX
  5
1BF
100
AcDbEntity
  8
1
  6
Continuous
 62
     6
 48
0.75
100
AcDbVertex
100
AcDb2dVertex
 10
-404.263906
 20
-69.177839
 30
0.0
 40
0.0
 41
0.0
  0
VERTEX
  5
1C0
100
AcDbEntity
  8
1
  6
Continuous
 62
     6
 48
0.75
100
AcDbVertex
100
AcDb2dVertex
 10
-404.263906
 20
-164.857839
 30
0.0
 40
0.0
 41
0.0
  0
SEQEND
  5
1C1
100
AcDbEntity
  8
0
  0
POLYLINE
  5
1C2
100
AcDbEntity
  8
1
  6
Continuous
 62
     6
 48
0.75
100
AcDb2dPolyline
 66
     1
 10
0.0
 20
0.0
 30
0.0
 70
   128
  0
VERTEX
  5
1C3
100
AcDbEntity
  8
1
  6
Continuous
 62
     6
 48
0.75
100
AcDbVertex
100
AcDb2dVertex
 10
-455.263906
 20
-72.517839
 30
0.0
 40
0.0
 41
0.0
  0
VERTEX
  5
1C4
100
AcDbEntity
  8
1
  6
Continuous
 62
     6
 48
0.75
100
AcDbVertex
100
AcDb2dVertex
 10
-455.263906
 20
-164.857839
 30
0.0
 40
0.0
 41
0.0
  0
SEQEND
  5
1C5
100
AcDbEntity
  8
0
  0
POLYLINE
  5
1C6
100
AcDbEntity
  8
1
  6
Continuous
 62
     6
 48
0.75
100
AcDb2dPolyline
 66
     1
 10
0.0
 20
0.0
 30
0.0
 70
   128
  0
VERTEX
  5
1C7
100
AcDbEntity
  8
1
  6
Continuous
 62
     6
 48
0.75
100
AcDbVertex
100
AcDb2dVertex
 10
-506.263906
 20
-73.857839
 30
0.0
 40
0.0
 41
0.0
  0
VERTEX
  5
1C8
100
AcDbEntity
  8
1
  6
Continuous
 62
     6
 48
0.75
100
AcDbVertex
100
AcDb2dVertex
 10
-506.263906
 20
-164.857839
 30
0.0
 40
0.0
 41
0.0
  0
SEQEND
  5
1C9
100
AcDbEntity
  8
0
  0
POLYLINE
  5
1CA
100
AcDbEntity
  8
1
  6
Continuous
 62
     6
 48
0.75
100
AcDb2dPolyline
 66
     1
 10
0.0
 20
0.0
 30
0.0
 70
   128
  0
VERTEX
  5
1CB
100
AcDbEntity
  8
1
  6
Continuous
 62
     6
 48
0.75
100
AcDbVertex
100
AcDb2dVertex
 10
-557.263906
 20
-76.697839
 30
0.0
 40
0.0
 41
0.0
  0
VERTEX
  5
1CC
100
AcDbEntity
  8
1
  6
Continuous
 62
     6
 48
0.75
100
AcDbVertex
100
AcDb2dVertex
 10
-557.263906
 20
-164.857839
 30
0.0
 40
0.0
 41
0.0
  0
SEQEND
  5
1CD
100
AcDbEntity
  8
0
  0
POLYLINE
  5
1CE
100
AcDbEntity
  8
1
  6
Continuous
 62
     6
 48
0.75
100
AcDb2dPolyline
 66
     1
 10
0.0
 20
0.0
 30
0.0
 70
   128
  0
VERTEX
  5
1CF
100
AcDbEntity
  8
1
  6
Continuous
 62
     6
 48
0.75
100
AcDbVertex
100
AcDb2dVertex
 10
-608.263906
 20
-78.627839
 30
0.0
 40
0.0
 41
0.0
  0
VERTEX
  5
1D0
100
AcDbEntity
  8
1
  6
Continuous
 62
     6
 48
0.75
100
AcDbVertex
100
AcDb2dVertex
 10
-608.263906
 20
-164.857839
 30
0.0
 40
0.0
 41
0.0
  0
SEQEND
  5
1D1
100
AcDbEntity
  8
0
  0
POLYLINE
  5
1D2
100
AcDbEntity
  8
1
  6
Continuous
 62
     6
 48
0.75
100
AcDb2dPolyline
 66
     1
 10
0.0
 20
0.0
 30
0.0
 70
   128
  0
VERTEX
  5
1D3
100
AcDbEntity
  8
1
  6
Continuous
 62
     6
 48
0.75
100
AcDbVertex
100
AcDb2dVertex
 10
-659.263906
 20
-78.877839
 30
0.0
 40
0.0
 41
0.0
  0
VERTEX
  5
1D4
100
AcDbEntity
  8
1
  6
Continuous
 62
     6
 48
0.75
100
AcDbVertex
100
AcDb2dVertex
 10
-659.263906
 20
-164.857839
 30
0.0
 40
0.0
 41
0.0
  0
SEQEND
  5
1D5
100
AcDbEntity
  8
0
  0
POLYLINE
  5
1D6
100
AcDbEntity
  8
1
  6
Continuous
 62
     6
 48
0.75
100
AcDb2dPolyline
 66
     1
 10
0.0
 20
0.0
 30
0.0
 70
   128
  0
VERTEX
  5
1D7
100
AcDbEntity
  8
1
  6
Continuous
 62
     6
 48
0.75
100
AcDbVertex
100
AcDb2dVertex
 10
-710.263906
 20
-79.077839
 30
0.0
 40
0.0
 41
0.0
  0
VERTEX
  5
1D8
100
AcDbEntity
  8
1
  6
Continuous
 62
     6
 48
0.75
100
AcDbVertex
100
AcDb2dVertex
 10
-710.263906
 20
-164.857839
 30
0.0
 40
0.0
 41
0.0
  0
SEQEND
  5
1D9
100
AcDbEntity
  8
0
  0
POLYLINE
  5
1DA
100
AcDbEntity
  8
1
  6
Continuous
 62
     6
 48
0.75
100
AcDb2dPolyline
 66
     1
 10
0.0
 20
0.0
 30
0.0
 70
   128
  0
VERTEX
  5
1DB
100
AcDbEntity
  8
1
  6
Continuous
 62
     6
 48
0.75
100
AcDbVertex
100
AcDb2dVertex
 10
-761.263906
 20
-78.187839
 30
0.0
 40
0.0
 41
0.0
  0
VERTEX
  5
1DC
100
AcDbEntity
  8
1
  6
Continuous
 62
     6
 48
0.75
100
AcDbVertex
100
AcDb2dVertex
 10
-761.263906
 20
-164.857839
 30
0.0
 40
0.0
 41
0.0
  0
SEQEND
  5
1DD
100
AcDbEntity
  8
0
  0
POLYLINE
  5
1DE
100
AcDbEntity
  8
1
  6
Continuous
 62
     6
 48
0.75
100
AcDb2dPolyline
 66
     1
 10
0.0
 20
0.0
 30
0.0
 70
   128
  0
VERTEX
  5
1DF
100
AcDbEntity
  8
1
  6
Continuous
 62
     6
 48
0.75
100
AcDbVertex
100
AcDb2dVertex
 10
-812.263906
 20
-76.907839
 30
0.0
 40
0.0
 41
0.0
  0
VERTEX
  5
1E0
100
AcDbEntity
  8
1
  6
Continuous
 62
     6
 48
0.75
100
AcDbVertex
100
AcDb2dVertex
 10
-812.263906
 20
-164.857839
 30
0.0
 40
0.0
 41
0.0
  0
SEQEND
  5
1E1
100
AcDbEntity
  8
0
  0
POLYLINE
  5
1E2
100
AcDbEntity
  8
1
  6
Continuous
 62
     6
 48
0.75
100
AcDb2dPolyline
 66
     1
 10
0.0
 20
0.0
 30
0.0
 70
   128
  0
VERTEX
  5
1E3
100
AcDbEntity
  8
1
  6
Continuous
 62
     6
 48
0.75
100
AcDbVertex
100
AcDb2dVertex
 10
-863.263906
 20
-75.547839
 30
0.0
 40
0.0
 41
0.0
  0
VERTEX
  5
1E4
100
AcDbEntity
  8
1
  6
Continuous
 62
     6
 48
0.75
100
AcDbVertex
100
AcDb2dVertex
 10
-863.263906
 20
-164.857839
 30
0.0
 40
0.0
 41
0.0
  0
SEQEND
  5
1E5
100
AcDbEntity
  8
0
  0
POLYLINE
  5
1E6
100
AcDbEntity
  8
1
  6
Continuous
 62
     6
 48
0.75
100
AcDb2dPolyline
 66
     1
 10
0.0
 20
0.0
 30
0.0
 70
   128
  0
VERTEX
  5
1E7
100
AcDbEntity
  8
1
  6
Continuous
 62
     6
 48
0.75
100
AcDbVertex
100
AcDb2dVertex
 10
-914.263906
 20
-72.067839
 30
0.0
 40
0.0
 41
0.0
  0
VERTEX
  5
1E8
100
AcDbEntity
  8
1
  6
Continuous
 62
     6
 48
0.75
100
AcDbVertex
100
AcDb2dVertex
 10
-914.263906
 20
-139.747839
 30
0.0
 40
0.0
 41
0.0
  0
SEQEND
  5
1E9
100
AcDbEntity
  8
0
  0
POLYLINE
  5
1EA
100
AcDbEntity
  8
1
  6
Continuous
 62
     6
 48
0.75
100
AcDb2dPolyline
 66
     1
 10
0.0
 20
0.0
 30
0.0
 70
   128
  0
VERTEX
  5
1EB
100
AcDbEntity
  8
1
  6
Continuous
 62
     6
 48
0.75
100
AcDbVertex
100
AcDb2dVertex
 10
-930.663906
 20
-70.177839
 30
0.0
 40
0.0
 41
0.0
  0
VERTEX
  5
1EC
100
AcDbEntity
  8
1
  6
Continuous
 62
     6
 48
0.75
100
AcDbVertex
100
AcDb2dVertex
 10
-930.663906
 20
-138.937839
 30
0.0
 40
0.0
 41
0.0
  0
SEQEND
  5
1ED
100
AcDbEntity
  8
0
  0
POLYLINE
  5
1EE
100
AcDbEntity
  8
1
  6
Continuous
 62
     6
 48
0.75
100
AcDb2dPolyline
 66
     1
 10
0.0
 20
0.0
 30
0.0
 70
   128
  0
VERTEX
  5
1EF
100
AcDbEntity
  8
1
  6
Continuous
 62
     6
 48
0.75
100
AcDbVertex
100
AcDb2dVertex
 10
-107.523906
 20
-35.347839
 30
0.0
 40
0.0
 41
0.0
  0
VERTEX
  5
1F0
100
AcDbEntity
  8
1
  6
Continuous
 62
     6
 48
0.75
100
AcDbVertex
100
AcDb2dVertex
 10
-149.273906
 20
-42.857839
 30
0.0
 40
0.0
 41
0.0
  0
VERTEX
  5
1F1
100
AcDbEntity
  8
1
  6
Continuous
 62
     6
 48
0.75
100
AcDbVertex
100
AcDb2dVertex
 10
-200.263906
 20
-49.477839
 30
0.0
 40
0.0
 41
0.0
  0
VERTEX
  5
1F2
100
AcDbEntity
  8
1
  6
Continuous
 62
     6
 48
0.75
100
AcDbVertex
100
AcDb2dVertex
 10
-251.263906
 20
-55.427839
 30
0.0
 40
0.0
 41
0.0
  0
VERTEX
  5
1F3
100
AcDbEntity
  8
1
  6
Continuous
 62
     6
 48
0.75
100
AcDbVertex
100
AcDb2dVertex
 10
-302.263906
 20
-61.167839
 30
0.0
 40
0.0
 41
0.0
  0
VERTEX
  5
1F4
100
AcDbEntity
  8
1
  6
Continuous
 62
     6
 48
0.75
100
AcDbVertex
100
AcDb2dVertex
 10
-353.263906
 20
-65.557839
 30
0.0
 40
0.0
 41
0.0
  0
VERTEX
  5
1F5
100
AcDbEntity
  8
1
  6
Continuous
 62
     6
 48
0.75
100
AcDbVertex
100
AcDb2dVertex
 10
-404.263906
 20
-69.177839
 30
0.0
 40
0.0
 41
0.0
  0
VERTEX
  5
1F6
100
AcDbEntity
  8
1
  6
Continuous
 62
     6
 48
0.75
100
AcDbVertex
100
AcDb2dVertex
 10
-455.263906
 20
-72.517839
 30
0.0
 40
0.0
 41
0.0
  0
VERTEX
  5
1F7
100
AcDbEntity
  8
1
  6
Continuous
 62
     6
 48
0.75
100
AcDbVertex
100
AcDb2dVertex
 10
-506.263906
 20
-73.857839
 30
0.0
 40
0.0
 41
0.0
  0
VERTEX
  5
1F8
100
AcDbEntity
  8
1
  6
Continuous
 62
     6
 48
0.75
100
AcDbVertex
100
AcDb2dVertex
 10
-557.263906
 20
-76.697839
 30
0.0
 40
0.0
 41
0.0
  0
VERTEX
  5
1F9
100
AcDbEntity
  8
1
  6
Continuous
 62
     6
 48
0.75
100
AcDbVertex
100
AcDb2dVertex
 10
-608.263906
 20
-78.627839
 30
0.0
 40
0.0
 41
0.0
  0
VERTEX
  5
1FA
100
AcDbEntity
  8
1
  6
Continuous
 62
     6
 48
0.75
100
AcDbVertex
100
AcDb2dVertex
 10
-659.263906
 20
-78.877839
 30
0.0
 40
0.0
 41
0.0
  0
VERTEX
  5
1FB
100
AcDbEntity
  8
1
  6
Continuous
 62
     6
 48
0.75
100
AcDbVertex
100
AcDb2dVertex
 10
-710.263906
 20
-79.077839
 30
0.0
 40
0.0
 41
0.0
  0
VERTEX
  5
1FC
100
AcDbEntity
  8
1
  6
Continuous
 62
     6
 48
0.75
100
AcDbVertex
100
AcDb2dVertex
 10
-761.263906
 20
-78.187839
 30
0.0
 40
0.0
 41
0.0
  0
VERTEX
  5
1FD
100
AcDbEntity
  8
1
  6
Continuous
 62
     6
 48
0.75
100
AcDbVertex
100
AcDb2dVertex
 10
-812.263906
 20
-76.907839
 30
0.0
 40
0.0
 41
0.0
  0
VERTEX
  5
1FE
100
AcDbEntity
  8
1
  6
Continuous
 62
     6
 48
0.75
100
AcDbVertex
100
AcDb2dVertex
 10
-863.263906
 20
-75.547839
 30
0.0
 40
0.0
 41
0.0
  0
VERTEX
  5
1FF
100
AcDbEntity
  8
1
  6
Continuous
 62
     6
 48
0.75
100
AcDbVertex
100
AcDb2dVertex
 10
-914.263906
 20
-72.067839
 30
0.0
 40
0.0
 41
0.0
  0
VERTEX
  5
200
100
AcDbEntity
  8
1
  6
Continuous
 62
     6
 48
0.75
100
AcDbVertex
100
AcDb2dVertex
 10
-930.663906
 20
-70.177839
 30
0.0
 40
0.0
 41
0.0
  0
SEQEND
  5
201
100
AcDbEntity
  8
0
  0
POLYLINE
  5
202
100
AcDbEntity
  8
1
  6
Continuous
 62
     6
 48
0.75
100
AcDb2dPolyline
 66
     1
 10
0.0
 20
0.0
 30
0.0
 70
   128
  0
VERTEX
  5
203
100
AcDbEntity
  8
1
  6
Continuous
 62
     6
 48
0.75
100
AcDbVertex
100
AcDb2dVertex
 10
-107.523906
 20
-38.347839
 30
0.0
 40
0.0
 41
0.0
  0
VERTEX
  5
204
100
AcDbEntity
  8
1
  6
Continuous
 62
     6
 48
0.75
100
AcDbVertex
100
AcDb2dVertex
 10
-149.273906
 20
-45.857839
 30
0.0
 40
0.0
 41
0.0
  0
VERTEX
  5
205
100
AcDbEntity
  8
1
  6
Continuous
 62
     6
 48
0.75
100
AcDbVertex
100
AcDb2dVertex
 10
-200.263906
 20
-52.477839
 30
0.0
 40
0.0
 41
0.0
  0
VERTEX
  5
206
100
AcDbEntity
  8
1
  6
Continuous
 62
     6
 48
0.75
100
AcDbVertex
100
AcDb2dVertex
 10
-251.263906
 20
-58.557839
 30
0.0
 40
0.0
 41
0.0
  0
VERTEX
  5
207
100
AcDbEntity
  8
1
  6
Continuous
 62
     6
 48
0.75
100
AcDbVertex
100
AcDb2dVertex
 10
-302.263906
 20
-64.167839
 30
0.0
 40
0.0
 41
0.0
  0
VERTEX
  5
208
100
AcDbEntity
  8
1
  6
Continuous
 62
     6
 48
0.75
100
AcDbVertex
100
AcDb2dVertex
 10
-353.263906
 20
-68.557839
 30
0.0
 40
0.0
 41
0.0
  0
VERTEX
  5
209
100
AcDbEntity
  8
1
  6
Continuous
 62
     6
 48
0.75
100
AcDbVertex
100
AcDb2dVertex
 10
-404.263906
 20
-72.177839
 30
0.0
 40
0.0
 41
0.0
  0
VERTEX
  5
20A
100
AcDbEntity
  8
1
  6
Continuous
 62
     6
 48
0.75
100
AcDbVertex
100
AcDb2dVertex
 10
-455.263906
 20
-75.517839
 30
0.0
 40
0.0
 41
0.0
  0
VERTEX
  5
20B
100
AcDbEntity
  8
1
  6
Continuous
 62
     6
 48
0.75
100
AcDbVertex
100
AcDb2dVertex
 10
-506.263906
 20
-76.857839
 30
0.0
 40
0.0
 41
0.0
  0
VERTEX
  5
20C
100
AcDbEntity
  8
1
  6
Continuous
 62
     6
 48
0.75
100
AcDbVertex
100
AcDb2dVertex
 10
-557.263906
 20
-79.697839
 30
0.0
 40
0.0
 41
0.0
  0
VERTEX
  5
20D
100
AcDbEntity
  8
1
  6
Continuous
 62
     6
 48
0.75
100
AcDbVertex
100
AcDb2dVertex
 10
-608.263906
 20
-81.627839
 30
0.0
 40
0.0
 41
0.0
  0
VERTEX
  5
20E
100
AcDbEntity
  8
1
  6
Continuous
 62
     6
 48
0.75
100
AcDbVertex
100
AcDb2dVertex
 10
-659.263906
 20
-81.877839
 30
0.0
 40
0.0
 41
0.0
  0
VERTEX
  5
20F
100
AcDbEntity
  8
1
  6
Continuous
 62
     6
 48
0.75
100
AcDbVertex
100
AcDb2dVertex
 10
-710.263906
 20
-82.077839
 30
0.0
 40
0.0
 41
0.0
  0
VERTEX
  5
210
100
AcDbEntity
  8
1
  6
Continuous
 62
     6
 48
0.75
100
AcDbVertex
100
AcDb2dVertex
 10
-761.263906
 20
-81.187839
 30
0.0
 40
0.0
 41
0.0
  0
VERTEX
  5
211
100
AcDbEntity
  8
1
  6
Continuous
 62
     6
 48
0.75
100
AcDbVertex
100
AcDb2dVertex
 10
-812.263906
 20
-79.907839
 30
0.0
 40
0.0
 41
0.0
  0
VERTEX
  5
212
100
AcDbEntity
  8
1
  6
Continuous
 62
     6
 48
0.75
100
AcDbVertex
100
AcDb2dVertex
 10
-863.263906
 20
-78.547839
 30
0.0
 40
0.0
 41
0.0
  0
VERTEX
  5
213
100
AcDbEntity
  8
1
  6
Continuous
 62
     6
 48
0.75
100
AcDbVertex
100
AcDb2dVertex
 10
-914.263906
 20
-75.067839
 30
0.0
 40
0.0
 41
0.0
  0
VERTEX
  5
214
100
AcDbEntity
  8
1
  6
Continuous
 62
     6
 48
0.75
100
AcDbVertex
100
AcDb2dVertex
 10
-930.663906
 20
-73.177839
 30
0.0
 40
0.0
 41
0.0
  0
SEQEND
  5
215
100
AcDbEntity
  8
0
  0
POLYLINE
  5
216
100
AcDbEntity
  8
1
  6
Continuous
 62
     6
 48
0.75
100
AcDb2dPolyline
 66
     1
 10
0.0
 20
0.0
 30
0.0
 70
   128
  0
VERTEX
  5
217
100
AcDbEntity
  8
1
  6
Continuous
 62
     6
 48
0.75
100
AcDbVertex
100
AcDb2dVertex
 10
-128.313906
 20
-133.547839
 30
0.0
 40
0.0
 41
0.0
  0
VERTEX
  5
218
100
AcDbEntity
  8
1
  6
Continuous
 62
     6
 48
0.75
100
AcDbVertex
100
AcDb2dVertex
 10
-149.273906
 20
-133.747839
 30
0.0
 40
0.0
 41
0.0
  0
VERTEX
  5
219
100
AcDbEntity
  8
1
  6
Continuous
 62
     6
 48
0.75
100
AcDbVertex
100
AcDb2dVertex
 10
-200.263906
 20
-134.467839
 30
0.0
 40
0.0
 41
0.0
  0
VERTEX
  5
21A
100
AcDbEntity
  8
1
  6
Continuous
 62
     6
 48
0.75
100
AcDbVertex
100
AcDb2dVertex
 10
-251.263906
 20
-134.637839
 30
0.0
 40
0.0
 41
0.0
  0
VERTEX
  5
21B
100
AcDbEntity
  8
1
  6
Continuous
 62
     6
 48
0.75
100
AcDbVertex
100
AcDb2dVertex
 10
-302.263906
 20
-134.997839
 30
0.0
 40
0.0
 41
0.0
  0
VERTEX
  5
21C
100
AcDbEntity
  8
1
  6
Continuous
 62
     6
 48
0.75
100
AcDbVertex
100
AcDb2dVertex
 10
-353.263906
 20
-134.997839
 30
0.0
 40
0.0
 41
0.0
  0
VERTEX
  5
21D
100
AcDbEntity
  8
1
  6
Continuous
 62
     6
 48
0.75
100
AcDbVertex
100
AcDb2dVertex
 10
-404.263906
 20
-134.997839
 30
0.0
 40
0.0
 41
0.0
  0
VERTEX
  5
21E
100
AcDbEntity
  8
1
  6
Continuous
 62
     6
 48
0.75
100
AcDbVertex
100
AcDb2dVertex
 10
-455.263906
 20
-135.227839
 30
0.0
 40
0.0
 41
0.0
  0
VERTEX
  5
21F
100
AcDbEntity
  8
1
  6
Continuous
 62
     6
 48
0.75
100
AcDbVertex
100
AcDb2dVertex
 10
-506.263906
 20
-135.497839
 30
0.0
 40
0.0
 41
0.0
  0
VERTEX
  5
220
100
AcDbEntity
  8
1
  6
Continuous
 62
     6
 48
0.75
100
AcDbVertex
100
AcDb2dVertex
 10
-557.263906
 20
-135.597839
 30
0.0
 40
0.0
 41
0.0
  0
VERTEX
  5
221
100
AcDbEntity
  8
1
  6
Continuous
 62
     6
 48
0.75
100
AcDbVertex
100
AcDb2dVertex
 10
-608.263906
 20
-135.737839
 30
0.0
 40
0.0
 41
0.0
  0
VERTEX
  5
222
100
AcDbEntity
  8
1
  6
Continuous
 62
     6
 48
0.75
100
AcDbVertex
100
AcDb2dVertex
 10
-659.263906
 20
-136.137839
 30
0.0
 40
0.0
 41
0.0
  0
VERTEX
  5
223
100
AcDbEntity
  8
1
  6
Continuous
 62
     6
 48
0.75
100
AcDbVertex
100
AcDb2dVertex
 10
-710.263906
 20
-136.597839
 30
0.0
 40
0.0
 41
0.0
  0
VERTEX
  5
224
100
AcDbEntity
  8
1
  6
Continuous
 62
     6
 48
0.75
100
AcDbVertex
100
AcDb2dVertex
 10
-761.263906
 20
-136.937839
 30
0.0
 40
0.0
 41
0.0
  0
VERTEX
  5
225
100
AcDbEntity
  8
1
  6
Continuous
 62
     6
 48
0.75
100
AcDbVertex
100
AcDb2dVertex
 10
-812.263906
 20
-137.557839
 30
0.0
 40
0.0
 41
0.0
  0
VERTEX
  5
226
100
AcDbEntity
  8
1
  6
Continuous
 62
     6
 48
0.75
100
AcDbVertex
100
AcDb2dVertex
 10
-863.263906
 20
-137.887839
 30
0.0
 40
0.0
 41
0.0
  0
VERTEX
  5
227
100
AcDbEntity
  8
1
  6
Continuous
 62
     6
 48
0.75
100
AcDbVertex
100
AcDb2dVertex
 10
-914.263906
 20
-138.357839
 30
0.0
 40
0.0
 41
0.0
  0
VERTEX
  5
228
100
AcDbEntity
  8
1
  6
Continuous
 62
     6
 48
0.75
100
AcDbVertex
100
AcDb2dVertex
 10
-930.663906
 20
-138.157839
 30
0.0
 40
0.0
 41
0.0
  0
SEQEND
  5
229
100
AcDbEntity
  8
0
  0
POLYLINE
  5
22A
100
AcDbEntity
  8
1
  6
Continuous
 62
     6
 48
0.75
100
AcDb2dPolyline
 66
     1
 10
0.0
 20
0.0
 30
0.0
 70
   128
  0
VERTEX
  5
22B
100
AcDbEntity
  8
1
  6
Continuous
 62
     6
 48
0.75
100
AcDbVertex
100
AcDb2dVertex
 10
-149.263906
 20
-160.857839
 30
0.0
 40
0.0
 41
0.0
  0
VERTEX
  5
22C
100
AcDbEntity
  8
1
  6
Continuous
 62
     6
 48
0.75
100
AcDbVertex
100
AcDb2dVertex
 10
-149.273906
 20
-160.857839
 30
0.0
 40
0.0
 41
0.0
  0
VERTEX
  5
22D
100
AcDbEntity
  8
1
  6
Continuous
 62
     6
 48
0.75
100
AcDbVertex
100
AcDb2dVertex
 10
-200.263906
 20
-163.357839
 30
0.0
 40
0.0
 41
0.0
  0
VERTEX
  5
22E
100
AcDbEntity
  8
1
  6
Continuous
 62
     6
 48
0.75
100
AcDbVertex
100
AcDb2dVertex
 10
-251.263906
 20
-164.857839
 30
0.0
 40
0.0
 41
0.0
  0
VERTEX
  5
22F
100
AcDbEntity
  8
1
  6
Continuous
 62
     6
 48
0.75
100
AcDbVertex
100
AcDb2dVertex
 10
-302.263906
 20
-164.857839
 30
0.0
 40
0.0
 41
0.0
  0
VERTEX
  5
230
100
AcDbEntity
  8
1
  6
Continuous
 62
     6
 48
0.75
100
AcDbVertex
100
AcDb2dVertex
 10
-353.263906
 20
-164.857839
 30
0.0
 40
0.0
 41
0.0
  0
VERTEX
  5
231
100
AcDbEntity
  8
1
  6
Continuous
 62
     6
 48
0.75
100
AcDbVertex
100
AcDb2dVertex
 10
-404.263906
 20
-164.857839
 30
0.0
 40
0.0
 41
0.0
  0
VERTEX
  5
232
100
AcDbEntity
  8
1
  6
Continuous
 62
     6
 48
0.75
100
AcDbVertex
100
AcDb2dVertex
 10
-455.263906
 20
-164.857839
 30
0.0
 40
0.0
 41
0.0
  0
VERTEX
  5
233
100
AcDbEntity
  8
1
  6
Continuous
 62
     6
 48
0.75
100
AcDbVertex
100
AcDb2dVertex
 10
-506.263906
 20
-164.857839
 30
0.0
 40
0.0
 41
0.0
  0
VERTEX
  5
234
100
AcDbEntity
  8
1
  6
Continuous
 62
     6
 48
0.75
100
AcDbVertex
100
AcDb2dVertex
 10
-557.263906
 20
-162.777839
 30
0.0
 40
0.0
 41
0.0
  0
VERTEX
  5
235
100
AcDbEntity
  8
1
  6
Continuous
 62
     6
 48
0.75
100
AcDbVertex
100
AcDb2dVertex
 10
-608.263906
 20
-159.817839
 30
0.0
 40
0.0
 41
0.0
  0
VERTEX
  5
236
100
AcDbEntity
  8
1
  6
Continuous
 62
     6
 48
0.75
100
AcDbVertex
100
AcDb2dVertex
 10
-659.263906
 20
-156.707839
 30
0.0
 40
0.0
 41
0.0
  0
VERTEX
  5
237
100
AcDbEntity
  8
1
  6
Continuous
 62
     6
 48
0.75
100
AcDbVertex
100
AcDb2dVertex
 10
-710.263906
 20
-153.527839
 30
0.0
 40
0.0
 41
0.0
  0
VERTEX
  5
238
100
AcDbEntity
  8
1
  6
Continuous
 62
     6
 48
0.75
100
AcDbVertex
100
AcDb2dVertex
 10
-761.263906
 20
-150.197839
 30
0.0
 40
0.0
 41
0.0
  0
VERTEX
  5
239
100
AcDbEntity
  8
1
  6
Continuous
 62
     6
 48
0.75
100
AcDbVertex
100
AcDb2dVertex
 10
-812.263906
 20
-146.167839
 30
0.0
 40
0.0
 41
0.0
  0
VERTEX
  5
23A
100
AcDbEntity
  8
1
  6
Continuous
 62
     6
 48
0.75
100
AcDbVertex
100
AcDb2dVertex
 10
-863.263906
 20
-142.797839
 30
0.0
 40
0.0
 41
0.0
  0
VERTEX
  5
23B
100
AcDbEntity
  8
1
  6
Continuous
 62
     6
 48
0.75
100
AcDbVertex
100
AcDb2dVertex
 10
-914.263906
 20
-139.747839
 30
0.0
 40
0.0
 41
0.0
  0
VERTEX
  5
23C
100
AcDbEntity
  8
1
  6
Continuous
 62
     6
 48
0.75
100
AcDbVertex
100
AcDb2dVertex
 10
-930.663906
 20
-138.937839
 30
0.0
 40
0.0
 41
0.0
  0
SEQEND
  5
23D
100
AcDbEntity
  8
0
  0
POLYLINE
  5
23E
100
AcDbEntity
  8
1
  6
Continuous
 62
     6
 48
0.75
100
AcDb2dPolyline
 66
     1
 10
0.0
 20
0.0
 30
0.0
 70
   128
  0
VERTEX
  5
23F
100
AcDbEntity
  8
1
  6
Continuous
 62
     6
 48
0.75
100
AcDbVertex
100
AcDb2dVertex
 10
-149.263906
 20
-160.857839
 30
0.0
 40
0.0
 41
0.0
  0
VERTEX
  5
240
100
AcDbEntity
  8
1
  6
Continuous
 62
     6
 48
0.75
100
AcDbVertex
100
AcDb2dVertex
 10
-149.273906
 20
-160.857839
 30
0.0
 40
0.0
 41
0.0
  0
VERTEX
  5
241
100
AcDbEntity
  8
1
  6
Continuous
 62
     6
 48
0.75
100
AcDbVertex
100
AcDb2dVertex
 10
-200.263906
 20
-163.357839
 30
0.0
 40
0.0
 41
0.0
  0
VERTEX
  5
242
100
AcDbEntity
  8
1
  6
Continuous
 62
     6
 48
0.75
100
AcDbVertex
100
AcDb2dVertex
 10
-251.263906
 20
-164.857839
 30
0.0
 40
0.0
 41
0.0
  0
VERTEX
  5
243
100
AcDbEntity
  8
1
  6
Continuous
 62
     6
 48
0.75
100
AcDbVertex
100
AcDb2dVertex
 10
-302.263906
 20
-164.857839
 30
0.0
 40
0.0
 41
0.0
  0
VERTEX
  5
244
100
AcDbEntity
  8
1
  6
Continuous
 62
     6
 48
0.75
100
AcDbVertex
100
AcDb2dVertex
 10
-353.263906
 20
-164.857839
 30
0.0
 40
0.0
 41
0.0
  0
VERTEX
  5
245
100
AcDbEntity
  8
1
  6
Continuous
 62
     6
 48
0.75
100
AcDbVertex
100
AcDb2dVertex
 10
-404.263906
 20
-164.857839
 30
0.0
 40
0.0
 41
0.0
  0
VERTEX
  5
246
100
AcDbEntity
  8
1
  6
Continuous
 62
     6
 48
0.75
100
AcDbVertex
100
AcDb2dVertex
 10
-455.263906
 20
-164.857839
 30
0.0
 40
0.0
 41
0.0
  0
VERTEX
  5
247
100
AcDbEntity
  8
1
  6
Continuous
 62
     6
 48
0.75
100
AcDbVertex
100
AcDb2dVertex
 10
-506.263906
 20
-164.857839
 30
0.0
 40
0.0
 41
0.0
  0
VERTEX
  5
248
100
AcDbEntity
  8
1
  6
Continuous
 62
     6
 48
0.75
100
AcDbVertex
100
AcDb2dVertex
 10
-557.263906
 20
-164.857839
 30
0.0
 40
0.0
 41
0.0
  0
VERTEX
  5
249
100
AcDbEntity
  8
1
  6
Continuous
 62
     6
 48
0.75
100
AcDbVertex
100
AcDb2dVertex
 10
-608.263906
 20
-164.857839
 30
0.0
 40
0.0
 41
0.0
  0
VERTEX
  5
24A
100
AcDbEntity
  8
1
  6
Continuous
 62
     6
 48
0.75
100
AcDbVertex
100
AcDb2dVertex
 10
-659.263906
 20
-164.857839
 30
0.0
 40
0.0
 41
0.0
  0
VERTEX
  5
24B
100
AcDbEntity
  8
1
  6
Continuous
 62
     6
 48
0.75
100
AcDbVertex
100
AcDb2dVertex
 10
-710.263906
 20
-164.857839
 30
0.0
 40
0.0
 41
0.0
  0
VERTEX
  5
24C
100
AcDbEntity
  8
1
  6
Continuous
 62
     6
 48
0.75
100
AcDbVertex
100
AcDb2dVertex
 10
-761.263906
 20
-164.857839
 30
0.0
 40
0.0
 41
0.0
  0
VERTEX
  5
24D
100
AcDbEntity
  8
1
  6
Continuous
 62
     6
 48
0.75
100
AcDbVertex
100
AcDb2dVertex
 10
-812.263906
 20
-164.857839
 30
0.0
 40
0.0
 41
0.0
  0
VERTEX
  5
24E
100
AcDbEntity
  8
1
  6
Continuous
 62
     6
 48
0.75
100
AcDbVertex
100
AcDb2dVertex
 10
-863.263906
 20
-164.857839
 30
0.0
 40
0.0
 41
0.0
  0
SEQEND
  5
24F
100
AcDbEntity
  8
0
  0
POLYLINE
  5
250
100
AcDbEntity
  8
1
  6
Continuous
 62
     6
 48
0.75
100
AcDb2dPolyline
 66
     1
 10
0.0
 20
0.0
 30
0.0
 70
   128
  0
VERTEX
  5
251
100
AcDbEntity
  8
1
  6
Continuous
 62
     6
 48
0.75
100
AcDbVertex
100
AcDb2dVertex
 10
-107.523906
 20
-35.347839
 30
0.0
 40
0.0
 41
0.0
  0
VERTEX
  5
252
100
AcDbEntity
  8
1
  6
Continuous
 62
     6
 48
0.75
100
AcDbVertex
100
AcDb2dVertex
 10
-107.523906
 20
-35.917839
 30
0.0
 40
0.0
 41
0.0
  0
VERTEX
  5
253
100
AcDbEntity
  8
1
  6
Continuous
 62
     6
 48
0.75
100
AcDbVertex
100
AcDb2dVertex
 10
-107.523906
 20
-36.427839
 30
0.0
 40
0.0
 41
0.0
  0
VERTEX
  5
254
100
AcDbEntity
  8
1
  6
Continuous
 62
     6
 48
0.75
100
AcDbVertex
100
AcDb2dVertex
 10
-107.523906
 20
-36.877839
 30
0.0
 40
0.0
 41
0.0
  0
VERTEX
  5
255
100
AcDbEntity
  8
1
  6
Continuous
 62
     6
 48
0.75
100
AcDbVertex
100
AcDb2dVertex
 10
-107.523906
 20
-37.267839
 30
0.0
 40
0.0
 41
0.0
  0
VERTEX
  5
256
100
AcDbEntity
  8
1
  6
Continuous
 62
     6
 48
0.75
100
AcDbVertex
100
AcDb2dVertex
 10
-107.523906
 20
-37.597839
 30
0.0
 40
0.0
 41
0.0
  0
VERTEX
  5
257
100
AcDbEntity
  8
1
  6
Continuous
 62
     6
 48
0.75
100
AcDbVertex
100
AcDb2dVertex
 10
-107.523906
 20
-37.867839
 30
0.0
 40
0.0
 41
0.0
  0
VERTEX
  5
258
100
AcDbEntity
  8
1
  6
Continuous
 62
     6
 48
0.75
100
AcDbVertex
100
AcDb2dVertex
 10
-107.523906
 20
-38.077839
 30
0.0
 40
0.0
 41
0.0
  0
VERTEX
  5
259
100
AcDbEntity
  8
1
  6
Continuous
 62
     6
 48
0.75
100
AcDbVertex
100
AcDb2dVertex
 10
-107.523906
 20
-38.227839
 30
0.0
 40
0.0
 41
0.0
  0
VERTEX
  5
25A
100
AcDbEntity
  8
1
  6
Continuous
 62
     6
 48
0.75
100
AcDbVertex
100
AcDb2dVertex
 10
-107.523906
 20
-38.317839
 30
0.0
 40
0.0
 41
0.0
  0
VERTEX
  5
25B
100
AcDbEntity
  8
1
  6
Continuous
 62
     6
 48
0.75
100
AcDbVertex
100
AcDb2dVertex
 10
-107.523906
 20
-38.347839
 30
0.0
 40
0.0
 41
0.0
  0
VERTEX
  5
25C
100
AcDbEntity
  8
1
  6
Continuous
 62
     6
 48
0.75
100
AcDbVertex
100
AcDb2dVertex
 10
-109.173906
 20
-50.947839
 30
0.0
 40
0.0
 41
0.0
  0
VERTEX
  5
25D
100
AcDbEntity
  8
1
  6
Continuous
 62
     6
 48
0.75
100
AcDbVertex
100
AcDb2dVertex
 10
-110.913906
 20
-62.867839
 30
0.0
 40
0.0
 41
0.0
  0
VERTEX
  5
25E
100
AcDbEntity
  8
1
  6
Continuous
 62
     6
 48
0.75
100
AcDbVertex
100
AcDb2dVertex
 10
-112.753906
 20
-74.097839
 30
0.0
 40
0.0
 41
0.0
  0
VERTEX
  5
25F
100
AcDbEntity
  8
1
  6
Continuous
 62
     6
 48
0.75
100
AcDbVertex
100
AcDb2dVertex
 10
-114.693906
 20
-84.647839
 30
0.0
 40
0.0
 41
0.0
  0
VERTEX
  5
260
100
AcDbEntity
  8
1
  6
Continuous
 62
     6
 48
0.75
100
AcDbVertex
100
AcDb2dVertex
 10
-116.723906
 20
-94.507839
 30
0.0
 40
0.0
 41
0.0
  0
VERTEX
  5
261
100
AcDbEntity
  8
1
  6
Continuous
 62
     6
 48
0.75
100
AcDbVertex
100
AcDb2dVertex
 10
-118.843906
 20
-103.687839
 30
0.0
 40
0.0
 41
0.0
  0
VERTEX
  5
262
100
AcDbEntity
  8
1
  6
Continuous
 62
     6
 48
0.75
100
AcDbVertex
100
AcDb2dVertex
 10
-121.073906
 20
-112.177839
 30
0.0
 40
0.0
 41
0.0
  0
VERTEX
  5
263
100
AcDbEntity
  8
1
  6
Continuous
 62
     6
 48
0.75
100
AcDbVertex
100
AcDb2dVertex
 10
-123.393906
 20
-119.987839
 30
0.0
 40
0.0
 41
0.0
  0
VERTEX
  5
264
100
AcDbEntity
  8
1
  6
Continuous
 62
     6
 48
0.75
100
AcDbVertex
100
AcDb2dVertex
 10
-125.803906
 20
-127.107839
 30
0.0
 40
0.0
 41
0.0
  0
VERTEX
  5
265
100
AcDbEntity
  8
1
  6
Continuous
 62
     6
 48
0.75
100
AcDbVertex
100
AcDb2dVertex
 10
-128.313906
 20
-133.547839
 30
0.0
 40
0.0
 41
0.0
  0
VERTEX
  5
266
100
AcDbEntity
  8
1
  6
Continuous
 62
     6
 48
0.75
100
AcDbVertex
100
AcDb2dVertex
 10
-129.513906
 20
-136.177839
 30
0.0
 40
0.0
 41
0.0
  0
VERTEX
  5
267
100
AcDbEntity
  8
1
  6
Continuous
 62
     6
 48
0.75
100
AcDbVertex
100
AcDb2dVertex
 10
-130.913906
 20
-138.837839
 30
0.0
 40
0.0
 41
0.0
  0
VERTEX
  5
268
100
AcDbEntity
  8
1
  6
Continuous
 62
     6
 48
0.75
100
AcDbVertex
100
AcDb2dVertex
 10
-132.513906
 20
-141.507839
 30
0.0
 40
0.0
 41
0.0
  0
VERTEX
  5
269
100
AcDbEntity
  8
1
  6
Continuous
 62
     6
 48
0.75
100
AcDbVertex
100
AcDb2dVertex
 10
-134.303906
 20
-144.207839
 30
0.0
 40
0.0
 41
0.0
  0
VERTEX
  5
26A
100
AcDbEntity
  8
1
  6
Continuous
 62
     6
 48
0.75
100
AcDbVertex
100
AcDb2dVertex
 10
-136.303906
 20
-146.927839
 30
0.0
 40
0.0
 41
0.0
  0
VERTEX
  5
26B
100
AcDbEntity
  8
1
  6
Continuous
 62
     6
 48
0.75
100
AcDbVertex
100
AcDb2dVertex
 10
-138.493906
 20
-149.667839
 30
0.0
 40
0.0
 41
0.0
  0
VERTEX
  5
26C
100
AcDbEntity
  8
1
  6
Continuous
 62
     6
 48
0.75
100
AcDbVertex
100
AcDb2dVertex
 10
-140.893906
 20
-152.437839
 30
0.0
 40
0.0
 41
0.0
  0
VERTEX
  5
26D
100
AcDbEntity
  8
1
  6
Continuous
 62
     6
 48
0.75
100
AcDbVertex
100
AcDb2dVertex
 10
-143.483906
 20
-155.217839
 30
0.0
 40
0.0
 41
0.0
  0
VERTEX
  5
26E
100
AcDbEntity
  8
1
  6
Continuous
 62
     6
 48
0.75
100
AcDbVertex
100
AcDb2dVertex
 10
-146.273906
 20
-158.027839
 30
0.0
 40
0.0
 41
0.0
  0
VERTEX
  5
26F
100
AcDbEntity
  8
1
  6
Continuous
 62
     6
 48
0.75
100
AcDbVertex
100
AcDb2dVertex
 10
-149.263906
 20
-160.857839
 30
0.0
 40
0.0
 41
0.0
  0
SEQEND
  5
270
100
AcDbEntity
  8
0
  0
POLYLINE
  5
271
100
AcDbEntity
  8
1
  6
Continuous
 62
     6
 48
0.75
100
AcDb2dPolyline
 66
     1
 10
0.0
 20
0.0
 30
0.0
 70
   128
  0
VERTEX
  5
272
100
AcDbEntity
  8
1
  6
Continuous
 62
     6
 48
0.75
100
AcDbVertex
100
AcDb2dVertex
 10
-1226.663906
 20
-35.347839
 30
0.0
 40
0.0
 41
0.0
  0
VERTEX
  5
273
100
AcDbEntity
  8
1
  6
Continuous
 62
     6
 48
0.75
100
AcDbVertex
100
AcDb2dVertex
 10
-1191.243906
 20
-42.857839
 30
0.0
 40
0.0
 41
0.0
  0
VERTEX
  5
274
100
AcDbEntity
  8
1
  6
Continuous
 62
     6
 48
0.75
100
AcDbVertex
100
AcDb2dVertex
 10
-1162.173906
 20
-49.477839
 30
0.0
 40
0.0
 41
0.0
  0
VERTEX
  5
275
100
AcDbEntity
  8
1
  6
Continuous
 62
     6
 48
0.75
100
AcDbVertex
100
AcDb2dVertex
 10
-1143.973906
 20
-55.427839
 30
0.0
 40
0.0
 41
0.0
  0
VERTEX
  5
276
100
AcDbEntity
  8
1
  6
Continuous
 62
     6
 48
0.75
100
AcDbVertex
100
AcDb2dVertex
 10
-1131.893906
 20
-61.167839
 30
0.0
 40
0.0
 41
0.0
  0
VERTEX
  5
277
100
AcDbEntity
  8
1
  6
Continuous
 62
     6
 48
0.75
100
AcDbVertex
100
AcDb2dVertex
 10
-1124.643906
 20
-65.557839
 30
0.0
 40
0.0
 41
0.0
  0
VERTEX
  5
278
100
AcDbEntity
  8
1
  6
Continuous
 62
     6
 48
0.75
100
AcDbVertex
100
AcDb2dVertex
 10
-1121.103906
 20
-69.177839
 30
0.0
 40
0.0
 41
0.0
  0
VERTEX
  5
279
100
AcDbEntity
  8
1
  6
Continuous
 62
     6
 48
0.75
100
AcDbVertex
100
AcDb2dVertex
 10
-1120.223906
 20
-72.517839
 30
0.0
 40
0.0
 41
0.0
  0
VERTEX
  5
27A
100
AcDbEntity
  8
1
  6
Continuous
 62
     6
 48
0.75
100
AcDbVertex
100
AcDb2dVertex
 10
-1121.103906
 20
-73.857839
 30
0.0
 40
0.0
 41
0.0
  0
VERTEX
  5
27B
100
AcDbEntity
  8
1
  6
Continuous
 62
     6
 48
0.75
100
AcDbVertex
100
AcDb2dVertex
 10
-1123.013906
 20
-76.697839
 30
0.0
 40
0.0
 41
0.0
  0
VERTEX
  5
27C
100
AcDbEntity
  8
1
  6
Continuous
 62
     6
 48
0.75
100
AcDbVertex
100
AcDb2dVertex
 10
-1125.893906
 20
-78.627839
 30
0.0
 40
0.0
 41
0.0
  0
VERTEX
  5
27D
100
AcDbEntity
  8
1
  6
Continuous
 62
     6
 48
0.75
100
AcDbVertex
100
AcDb2dVertex
 10
-1129.783906
 20
-78.877839
 30
0.0
 40
0.0
 41
0.0
  0
VERTEX
  5
27E
100
AcDbEntity
  8
1
  6
Continuous
 62
     6
 48
0.75
100
AcDbVertex
100
AcDb2dVertex
 10
-1134.643906
 20
-79.077839
 30
0.0
 40
0.0
 41
0.0
  0
VERTEX
  5
27F
100
AcDbEntity
  8
1
  6
Continuous
 62
     6
 48
0.75
100
AcDbVertex
100
AcDb2dVertex
 10
-1140.393906
 20
-78.187839
 30
0.0
 40
0.0
 41
0.0
  0
VERTEX
  5
280
100
AcDbEntity
  8
1
  6
Continuous
 62
     6
 48
0.75
100
AcDbVertex
100
AcDb2dVertex
 10
-1147.033906
 20
-76.907839
 30
0.0
 40
0.0
 41
0.0
  0
VERTEX
  5
281
100
AcDbEntity
  8
1
  6
Continuous
 62
     6
 48
0.75
100
AcDbVertex
100
AcDb2dVertex
 10
-1154.543906
 20
-75.547839
 30
0.0
 40
0.0
 41
0.0
  0
VERTEX
  5
282
100
AcDbEntity
  8
1
  6
Continuous
 62
     6
 48
0.75
100
AcDbVertex
100
AcDb2dVertex
 10
-1163.093906
 20
-72.067839
 30
0.0
 40
0.0
 41
0.0
  0
VERTEX
  5
283
100
AcDbEntity
  8
1
  6
Continuous
 62
     6
 48
0.75
100
AcDbVertex
100
AcDb2dVertex
 10
-1166.043906
 20
-70.177839
 30
0.0
 40
0.0
 41
0.0
  0
SEQEND
  5
284
100
AcDbEntity
  8
0
  0
POLYLINE
  5
285
100
AcDbEntity
  8
1
  6
Continuous
 62
     6
 48
0.75
100
AcDb2dPolyline
 66
     1
 10
0.0
 20
0.0
 30
0.0
 70
   128
  0
VERTEX
  5
286
100
AcDbEntity
  8
1
  6
Continuous
 62
     6
 48
0.75
100
AcDbVertex
100
AcDb2dVertex
 10
-1234.663906
 20
-35.347839
 30
0.0
 40
0.0
 41
0.0
  0
VERTEX
  5
287
100
AcDbEntity
  8
1
  6
Continuous
 62
     6
 48
0.75
100
AcDbVertex
100
AcDb2dVertex
 10
-1270.083906
 20
-42.857839
 30
0.0
 40
0.0
 41
0.0
  0
VERTEX
  5
288
100
AcDbEntity
  8
1
  6
Continuous
 62
     6
 48
0.75
100
AcDbVertex
100
AcDb2dVertex
 10
-1299.153906
 20
-49.477839
 30
0.0
 40
0.0
 41
0.0
  0
VERTEX
  5
289
100
AcDbEntity
  8
1
  6
Continuous
 62
     6
 48
0.75
100
AcDbVertex
100
AcDb2dVertex
 10
-1317.353906
 20
-55.427839
 30
0.0
 40
0.0
 41
0.0
  0
VERTEX
  5
28A
100
AcDbEntity
  8
1
  6
Continuous
 62
     6
 48
0.75
100
AcDbVertex
100
AcDb2dVertex
 10
-1329.433906
 20
-61.167839
 30
0.0
 40
0.0
 41
0.0
  0
VERTEX
  5
28B
100
AcDbEntity
  8
1
  6
Continuous
 62
     6
 48
0.75
100
AcDbVertex
100
AcDb2dVertex
 10
-1336.683906
 20
-65.557839
 30
0.0
 40
0.0
 41
0.0
  0
VERTEX
  5
28C
100
AcDbEntity
  8
1
  6
Continuous
 62
     6
 48
0.75
100
AcDbVertex
100
AcDb2dVertex
 10
-1340.223906
 20
-69.177839
 30
0.0
 40
0.0
 41
0.0
  0
VERTEX
  5
28D
100
AcDbEntity
  8
1
  6
Continuous
 62
     6
 48
0.75
100
AcDbVertex
100
AcDb2dVertex
 10
-1341.103906
 20
-72.517839
 30
0.0
 40
0.0
 41
0.0
  0
VERTEX
  5
28E
100
AcDbEntity
  8
1
  6
Continuous
 62
     6
 48
0.75
100
AcDbVertex
100
AcDb2dVertex
 10
-1340.223906
 20
-73.857839
 30
0.0
 40
0.0
 41
0.0
  0
VERTEX
  5
28F
100
AcDbEntity
  8
1
  6
Continuous
 62
     6
 48
0.75
100
AcDbVertex
100
AcDb2dVertex
 10
-1338.313906
 20
-76.697839
 30
0.0
 40
0.0
 41
0.0
  0
VERTEX
  5
290
100
AcDbEntity
  8
1
  6
Continuous
 62
     6
 48
0.75
100
AcDbVertex
100
AcDb2dVertex
 10
-1335.433906
 20
-78.627839
 30
0.0
 40
0.0
 41
0.0
  0
VERTEX
  5
291
100
AcDbEntity
  8
1
  6
Continuous
 62
     6
 48
0.75
100
AcDbVertex
100
AcDb2dVertex
 10
-1331.543906
 20
-78.877839
 30
0.0
 40
0.0
 41
0.0
  0
VERTEX
  5
292
100
AcDbEntity
  8
1
  6
Continuous
 62
     6
 48
0.75
100
AcDbVertex
100
AcDb2dVertex
 10
-1326.683906
 20
-79.077839
 30
0.0
 40
0.0
 41
0.0
  0
VERTEX
  5
293
100
AcDbEntity
  8
1
  6
Continuous
 62
     6
 48
0.75
100
AcDbVertex
100
AcDb2dVertex
 10
-1320.933906
 20
-78.187839
 30
0.0
 40
0.0
 41
0.0
  0
VERTEX
  5
294
100
AcDbEntity
  8
1
  6
Continuous
 62
     6
 48
0.75
100
AcDbVertex
100
AcDb2dVertex
 10
-1314.293906
 20
-76.907839
 30
0.0
 40
0.0
 41
0.0
  0
VERTEX
  5
295
100
AcDbEntity
  8
1
  6
Continuous
 62
     6
 48
0.75
100
AcDbVertex
100
AcDb2dVertex
 10
-1306.783906
 20
-75.547839
 30
0.0
 40
0.0
 41
0.0
  0
VERTEX
  5
296
100
AcDbEntity
  8
1
  6
Continuous
 62
     6
 48
0.75
100
AcDbVertex
100
AcDb2dVertex
 10
-1298.233906
 20
-72.067839
 30
0.0
 40
0.0
 41
0.0
  0
VERTEX
  5
297
100
AcDbEntity
  8
1
  6
Continuous
 62
     6
 48
0.75
100
AcDbVertex
100
AcDb2dVertex
 10
-1295.283906
 20
-70.177839
 30
0.0
 40
0.0
 41
0.0
  0
SEQEND
  5
298
100
AcDbEntity
  8
0
  0
POLYLINE
  5
299
100
AcDbEntity
  8
1
  6
Continuous
 62
     6
 48
0.75
100
AcDb2dPolyline
 66
     1
 10
0.0
 20
0.0
 30
0.0
 70
   128
  0
VERTEX
  5
29A
100
AcDbEntity
  8
1
  6
Continuous
 62
     6
 48
0.75
100
AcDbVertex
100
AcDb2dVertex
 10
-1226.663906
 20
-38.347839
 30
0.0
 40
0.0
 41
0.0
  0
VERTEX
  5
29B
100
AcDbEntity
  8
1
  6
Continuous
 62
     6
 48
0.75
100
AcDbVertex
100
AcDb2dVertex
 10
-1191.243906
 20
-45.857839
 30
0.0
 40
0.0
 41
0.0
  0
VERTEX
  5
29C
100
AcDbEntity
  8
1
  6
Continuous
 62
     6
 48
0.75
100
AcDbVertex
100
AcDb2dVertex
 10
-1162.173906
 20
-52.477839
 30
0.0
 40
0.0
 41
0.0
  0
VERTEX
  5
29D
100
AcDbEntity
  8
1
  6
Continuous
 62
     6
 48
0.75
100
AcDbVertex
100
AcDb2dVertex
 10
-1143.973906
 20
-58.557839
 30
0.0
 40
0.0
 41
0.0
  0
VERTEX
  5
29E
100
AcDbEntity
  8
1
  6
Continuous
 62
     6
 48
0.75
100
AcDbVertex
100
AcDb2dVertex
 10
-1131.893906
 20
-64.167839
 30
0.0
 40
0.0
 41
0.0
  0
VERTEX
  5
29F
100
AcDbEntity
  8
1
  6
Continuous
 62
     6
 48
0.75
100
AcDbVertex
100
AcDb2dVertex
 10
-1124.643906
 20
-68.557839
 30
0.0
 40
0.0
 41
0.0
  0
VERTEX
  5
2A0
100
AcDbEntity
  8
1
  6
Continuous
 62
     6
 48
0.75
100
AcDbVertex
100
AcDb2dVertex
 10
-1121.103906
 20
-72.177839
 30
0.0
 40
0.0
 41
0.0
  0
VERTEX
  5
2A1
100
AcDbEntity
  8
1
  6
Continuous
 62
     6
 48
0.75
100
AcDbVertex
100
AcDb2dVertex
 10
-1120.223906
 20
-75.517839
 30
0.0
 40
0.0
 41
0.0
  0
VERTEX
  5
2A2
100
AcDbEntity
  8
1
  6
Continuous
 62
     6
 48
0.75
100
AcDbVertex
100
AcDb2dVertex
 10
-1121.103906
 20
-76.857839
 30
0.0
 40
0.0
 41
0.0
  0
VERTEX
  5
2A3
100
AcDbEntity
  8
1
  6
Continuous
 62
     6
 48
0.75
100
AcDbVertex
100
AcDb2dVertex
 10
-1123.013906
 20
-79.697839
 30
0.0
 40
0.0
 41
0.0
  0
VERTEX
  5
2A4
100
AcDbEntity
  8
1
  6
Continuous
 62
     6
 48
0.75
100
AcDbVertex
100
AcDb2dVertex
 10
-1125.893906
 20
-81.627839
 30
0.0
 40
0.0
 41
0.0
  0
VERTEX
  5
2A5
100
AcDbEntity
  8
1
  6
Continuous
 62
     6
 48
0.75
100
AcDbVertex
100
AcDb2dVertex
 10
-1129.783906
 20
-81.877839
 30
0.0
 40
0.0
 41
0.0
  0
VERTEX
  5
2A6
100
AcDbEntity
  8
1
  6
Continuous
 62
     6
 48
0.75
100
AcDbVertex
100
AcDb2dVertex
 10
-1134.643906
 20
-82.077839
 30
0.0
 40
0.0
 41
0.0
  0
VERTEX
  5
2A7
100
AcDbEntity
  8
1
  6
Continuous
 62
     6
 48
0.75
100
AcDbVertex
100
AcDb2dVertex
 10
-1140.393906
 20
-81.187839
 30
0.0
 40
0.0
 41
0.0
  0
VERTEX
  5
2A8
100
AcDbEntity
  8
1
  6
Continuous
 62
     6
 48
0.75
100
AcDbVertex
100
AcDb2dVertex
 10
-1147.033906
 20
-79.907839
 30
0.0
 40
0.0
 41
0.0
  0
VERTEX
  5
2A9
100
AcDbEntity
  8
1
  6
Continuous
 62
     6
 48
0.75
100
AcDbVertex
100
AcDb2dVertex
 10
-1154.543906
 20
-78.547839
 30
0.0
 40
0.0
 41
0.0
  0
VERTEX
  5
2AA
100
AcDbEntity
  8
1
  6
Continuous
 62
     6
 48
0.75
100
AcDbVertex
100
AcDb2dVertex
 10
-1163.093906
 20
-75.067839
 30
0.0
 40
0.0
 41
0.0
  0
VERTEX
  5
2AB
100
AcDbEntity
  8
1
  6
Continuous
 62
     6
 48
0.75
100
AcDbVertex
100
AcDb2dVertex
 10
-1166.043906
 20
-73.177839
 30
0.0
 40
0.0
 41
0.0
  0
SEQEND
  5
2AC
100
AcDbEntity
  8
0
  0
POLYLINE
  5
2AD
100
AcDbEntity
  8
1
  6
Continuous
 62
     6
 48
0.75
100
AcDb2dPolyline
 66
     1
 10
0.0
 20
0.0
 30
0.0
 70
   128
  0
VERTEX
  5
2AE
100
AcDbEntity
  8
1
  6
Continuous
 62
     6
 48
0.75
100
AcDbVertex
100
AcDb2dVertex
 10
-1234.663906
 20
-38.347839
 30
0.0
 40
0.0
 41
0.0
  0
VERTEX
  5
2AF
100
AcDbEntity
  8
1
  6
Continuous
 62
     6
 48
0.75
100
AcDbVertex
100
AcDb2dVertex
 10
-1270.083906
 20
-45.857839
 30
0.0
 40
0.0
 41
0.0
  0
VERTEX
  5
2B0
100
AcDbEntity
  8
1
  6
Continuous
 62
     6
 48
0.75
100
AcDbVertex
100
AcDb2dVertex
 10
-1299.153906
 20
-52.477839
 30
0.0
 40
0.0
 41
0.0
  0
VERTEX
  5
2B1
100
AcDbEntity
  8
1
  6
Continuous
 62
     6
 48
0.75
100
AcDbVertex
100
AcDb2dVertex
 10
-1317.353906
 20
-58.557839
 30
0.0
 40
0.0
 41
0.0
  0
VERTEX
  5
2B2
100
AcDbEntity
  8
1
  6
Continuous
 62
     6
 48
0.75
100
AcDbVertex
100
AcDb2dVertex
 10
-1329.433906
 20
-64.167839
 30
0.0
 40
0.0
 41
0.0
  0
VERTEX
  5
2B3
100
AcDbEntity
  8
1
  6
Continuous
 62
     6
 48
0.75
100
AcDbVertex
100
AcDb2dVertex
 10
-1336.683906
 20
-68.557839
 30
0.0
 40
0.0
 41
0.0
  0
VERTEX
  5
2B4
100
AcDbEntity
  8
1
  6
Continuous
 62
     6
 48
0.75
100
AcDbVertex
100
AcDb2dVertex
 10
-1340.223906
 20
-72.177839
 30
0.0
 40
0.0
 41
0.0
  0
VERTEX
  5
2B5
100
AcDbEntity
  8
1
  6
Continuous
 62
     6
 48
0.75
100
AcDbVertex
100
AcDb2dVertex
 10
-1341.103906
 20
-75.517839
 30
0.0
 40
0.0
 41
0.0
  0
VERTEX
  5
2B6
100
AcDbEntity
  8
1
  6
Continuous
 62
     6
 48
0.75
100
AcDbVertex
100
AcDb2dVertex
 10
-1340.223906
 20
-76.857839
 30
0.0
 40
0.0
 41
0.0
  0
VERTEX
  5
2B7
100
AcDbEntity
  8
1
  6
Continuous
 62
     6
 48
0.75
100
AcDbVertex
100
AcDb2dVertex
 10
-1338.313906
 20
-79.697839
 30
0.0
 40
0.0
 41
0.0
  0
VERTEX
  5
2B8
100
AcDbEntity
  8
1
  6
Continuous
 62
     6
 48
0.75
100
AcDbVertex
100
AcDb2dVertex
 10
-1335.433906
 20
-81.627839
 30
0.0
 40
0.0
 41
0.0
  0
VERTEX
  5
2B9
100
AcDbEntity
  8
1
  6
Continuous
 62
     6
 48
0.75
100
AcDbVertex
100
AcDb2dVertex
 10
-1331.543906
 20
-81.877839
 30
0.0
 40
0.0
 41
0.0
  0
VERTEX
  5
2BA
100
AcDbEntity
  8
1
  6
Continuous
 62
     6
 48
0.75
100
AcDbVertex
100
AcDb2dVertex
 10
-1326.683906
 20
-82.077839
 30
0.0
 40
0.0
 41
0.0
  0
VERTEX
  5
2BB
100
AcDbEntity
  8
1
  6
Continuous
 62
     6
 48
0.75
100
AcDbVertex
100
AcDb2dVertex
 10
-1320.933906
 20
-81.187839
 30
0.0
 40
0.0
 41
0.0
  0
VERTEX
  5
2BC
100
AcDbEntity
  8
1
  6
Continuous
 62
     6
 48
0.75
100
AcDbVertex
100
AcDb2dVertex
 10
-1314.293906
 20
-79.907839
 30
0.0
 40
0.0
 41
0.0
  0
VERTEX
  5
2BD
100
AcDbEntity
  8
1
  6
Continuous
 62
     6
 48
0.75
100
AcDbVertex
100
AcDb2dVertex
 10
-1306.783906
 20
-78.547839
 30
0.0
 40
0.0
 41
0.0
  0
VERTEX
  5
2BE
100
AcDbEntity
  8
1
  6
Continuous
 62
     6
 48
0.75
100
AcDbVertex
100
AcDb2dVertex
 10
-1298.233906
 20
-75.067839
 30
0.0
 40
0.0
 41
0.0
  0
VERTEX
  5
2BF
100
AcDbEntity
  8
1
  6
Continuous
 62
     6
 48
0.75
100
AcDbVertex
100
AcDb2dVertex
 10
-1295.283906
 20
-73.177839
 30
0.0
 40
0.0
 41
0.0
  0
SEQEND
  5
2C0
100
AcDbEntity
  8
0
  0
POLYLINE
  5
2C1
100
AcDbEntity
  8
1
  6
Continuous
 62
     6
 48
0.75
100
AcDb2dPolyline
 66
     1
 10
0.0
 20
0.0
 30
0.0
 70
   128
  0
VERTEX
  5
2C2
100
AcDbEntity
  8
1
  6
Continuous
 62
     6
 48
0.75
100
AcDbVertex
100
AcDb2dVertex
 10
-1226.663906
 20
-133.547839
 30
0.0
 40
0.0
 41
0.0
  0
VERTEX
  5
2C3
100
AcDbEntity
  8
1
  6
Continuous
 62
     6
 48
0.75
100
AcDbVertex
100
AcDb2dVertex
 10
-1218.953906
 20
-133.747839
 30
0.0
 40
0.0
 41
0.0
  0
VERTEX
  5
2C4
100
AcDbEntity
  8
1
  6
Continuous
 62
     6
 48
0.75
100
AcDbVertex
100
AcDb2dVertex
 10
-1199.933906
 20
-134.467839
 30
0.0
 40
0.0
 41
0.0
  0
VERTEX
  5
2C5
100
AcDbEntity
  8
1
  6
Continuous
 62
     6
 48
0.75
100
AcDbVertex
100
AcDb2dVertex
 10
-1183.423906
 20
-134.637839
 30
0.0
 40
0.0
 41
0.0
  0
VERTEX
  5
2C6
100
AcDbEntity
  8
1
  6
Continuous
 62
     6
 48
0.75
100
AcDbVertex
100
AcDb2dVertex
 10
-1167.073906
 20
-134.997839
 30
0.0
 40
0.0
 41
0.0
  0
VERTEX
  5
2C7
100
AcDbEntity
  8
1
  6
Continuous
 62
     6
 48
0.75
100
AcDbVertex
100
AcDb2dVertex
 10
-1152.733906
 20
-134.997839
 30
0.0
 40
0.0
 41
0.0
  0
VERTEX
  5
2C8
100
AcDbEntity
  8
1
  6
Continuous
 62
     6
 48
0.75
100
AcDbVertex
100
AcDb2dVertex
 10
-1142.043906
 20
-134.997839
 30
0.0
 40
0.0
 41
0.0
  0
VERTEX
  5
2C9
100
AcDbEntity
  8
1
  6
Continuous
 62
     6
 48
0.75
100
AcDbVertex
100
AcDb2dVertex
 10
-1134.023906
 20
-135.227839
 30
0.0
 40
0.0
 41
0.0
  0
VERTEX
  5
2CA
100
AcDbEntity
  8
1
  6
Continuous
 62
     6
 48
0.75
100
AcDbVertex
100
AcDb2dVertex
 10
-1129.423906
 20
-135.497839
 30
0.0
 40
0.0
 41
0.0
  0
VERTEX
  5
2CB
100
AcDbEntity
  8
1
  6
Continuous
 62
     6
 48
0.75
100
AcDbVertex
100
AcDb2dVertex
 10
-1129.053906
 20
-135.597839
 30
0.0
 40
0.0
 41
0.0
  0
VERTEX
  5
2CC
100
AcDbEntity
  8
1
  6
Continuous
 62
     6
 48
0.75
100
AcDbVertex
100
AcDb2dVertex
 10
-1130.973906
 20
-135.737839
 30
0.0
 40
0.0
 41
0.0
  0
VERTEX
  5
2CD
100
AcDbEntity
  8
1
  6
Continuous
 62
     6
 48
0.75
100
AcDbVertex
100
AcDb2dVertex
 10
-1133.173906
 20
-136.137839
 30
0.0
 40
0.0
 41
0.0
  0
VERTEX
  5
2CE
100
AcDbEntity
  8
1
  6
Continuous
 62
     6
 48
0.75
100
AcDbVertex
100
AcDb2dVertex
 10
-1136.053906
 20
-136.597839
 30
0.0
 40
0.0
 41
0.0
  0
VERTEX
  5
2CF
100
AcDbEntity
  8
1
  6
Continuous
 62
     6
 48
0.75
100
AcDbVertex
100
AcDb2dVertex
 10
-1140.153906
 20
-136.937839
 30
0.0
 40
0.0
 41
0.0
  0
VERTEX
  5
2D0
100
AcDbEntity
  8
1
  6
Continuous
 62
     6
 48
0.75
100
AcDbVertex
100
AcDb2dVertex
 10
-1144.823906
 20
-137.557839
 30
0.0
 40
0.0
 41
0.0
  0
VERTEX
  5
2D1
100
AcDbEntity
  8
1
  6
Continuous
 62
     6
 48
0.75
100
AcDbVertex
100
AcDb2dVertex
 10
-1149.413906
 20
-137.887839
 30
0.0
 40
0.0
 41
0.0
  0
VERTEX
  5
2D2
100
AcDbEntity
  8
1
  6
Continuous
 62
     6
 48
0.75
100
AcDbVertex
100
AcDb2dVertex
 10
-1154.593906
 20
-138.357839
 30
0.0
 40
0.0
 41
0.0
  0
VERTEX
  5
2D3
100
AcDbEntity
  8
1
  6
Continuous
 62
     6
 48
0.75
100
AcDbVertex
100
AcDb2dVertex
 10
-1157.143906
 20
-138.157839
 30
0.0
 40
0.0
 41
0.0
  0
SEQEND
  5
2D4
100
AcDbEntity
  8
0
  0
POLYLINE
  5
2D5
100
AcDbEntity
  8
1
  6
Continuous
 62
     6
 48
0.75
100
AcDb2dPolyline
 66
     1
 10
0.0
 20
0.0
 30
0.0
 70
   128
  0
VERTEX
  5
2D6
100
AcDbEntity
  8
1
  6
Continuous
 62
     6
 48
0.75
100
AcDbVertex
100
AcDb2dVertex
 10
-1234.663906
 20
-133.547839
 30
0.0
 40
0.0
 41
0.0
  0
VERTEX
  5
2D7
100
AcDbEntity
  8
1
  6
Continuous
 62
     6
 48
0.75
100
AcDbVertex
100
AcDb2dVertex
 10
-1242.373906
 20
-133.747839
 30
0.0
 40
0.0
 41
0.0
  0
VERTEX
  5
2D8
100
AcDbEntity
  8
1
  6
Continuous
 62
     6
 48
0.75
100
AcDbVertex
100
AcDb2dVertex
 10
-1261.393906
 20
-134.467839
 30
0.0
 40
0.0
 41
0.0
  0
VERTEX
  5
2D9
100
AcDbEntity
  8
1
  6
Continuous
 62
     6
 48
0.75
100
AcDbVertex
100
AcDb2dVertex
 10
-1277.903906
 20
-134.637839
 30
0.0
 40
0.0
 41
0.0
  0
VERTEX
  5
2DA
100
AcDbEntity
  8
1
  6
Continuous
 62
     6
 48
0.75
100
AcDbVertex
100
AcDb2dVertex
 10
-1294.253906
 20
-134.997839
 30
0.0
 40
0.0
 41
0.0
  0
VERTEX
  5
2DB
100
AcDbEntity
  8
1
  6
Continuous
 62
     6
 48
0.75
100
AcDbVertex
100
AcDb2dVertex
 10
-1308.593906
 20
-134.997839
 30
0.0
 40
0.0
 41
0.0
  0
VERTEX
  5
2DC
100
AcDbEntity
  8
1
  6
Continuous
 62
     6
 48
0.75
100
AcDbVertex
100
AcDb2dVertex
 10
-1319.283906
 20
-134.997839
 30
0.0
 40
0.0
 41
0.0
  0
VERTEX
  5
2DD
100
AcDbEntity
  8
1
  6
Continuous
 62
     6
 48
0.75
100
AcDbVertex
100
AcDb2dVertex
 10
-1327.303906
 20
-135.227839
 30
0.0
 40
0.0
 41
0.0
  0
VERTEX
  5
2DE
100
AcDbEntity
  8
1
  6
Continuous
 62
     6
 48
0.75
100
AcDbVertex
100
AcDb2dVertex
 10
-1331.903906
 20
-135.497839
 30
0.0
 40
0.0
 41
0.0
  0
VERTEX
  5
2DF
100
AcDbEntity
  8
1
  6
Continuous
 62
     6
 48
0.75
100
AcDbVertex
100
AcDb2dVertex
 10
-1332.273906
 20
-135.597839
 30
0.0
 40
0.0
 41
0.0
  0
VERTEX
  5
2E0
100
AcDbEntity
  8
1
  6
Continuous
 62
     6
 48
0.75
100
AcDbVertex
100
AcDb2dVertex
 10
-1330.353906
 20
-135.737839
 30
0.0
 40
0.0
 41
0.0
  0
VERTEX
  5
2E1
100
AcDbEntity
  8
1
  6
Continuous
 62
     6
 48
0.75
100
AcDbVertex
100
AcDb2dVertex
 10
-1328.153906
 20
-136.137839
 30
0.0
 40
0.0
 41
0.0
  0
VERTEX
  5
2E2
100
AcDbEntity
  8
1
  6
Continuous
 62
     6
 48
0.75
100
AcDbVertex
100
AcDb2dVertex
 10
-1325.273906
 20
-136.597839
 30
0.0
 40
0.0
 41
0.0
  0
VERTEX
  5
2E3
100
AcDbEntity
  8
1
  6
Continuous
 62
     6
 48
0.75
100
AcDbVertex
100
AcDb2dVertex
 10
-1321.173906
 20
-136.937839
 30
0.0
 40
0.0
 41
0.0
  0
VERTEX
  5
2E4
100
AcDbEntity
  8
1
  6
Continuous
 62
     6
 48
0.75
100
AcDbVertex
100
AcDb2dVertex
 10
-1316.503906
 20
-137.557839
 30
0.0
 40
0.0
 41
0.0
  0
VERTEX
  5
2E5
100
AcDbEntity
  8
1
  6
Continuous
 62
     6
 48
0.75
100
AcDbVertex
100
AcDb2dVertex
 10
-1311.913906
 20
-137.887839
 30
0.0
 40
0.0
 41
0.0
  0
VERTEX
  5
2E6
100
AcDbEntity
  8
1
  6
Continuous
 62
     6
 48
0.75
100
AcDbVertex
100
AcDb2dVertex
 10
-1306.733906
 20
-138.357839
 30
0.0
 40
0.0
 41
0.0
  0
VERTEX
  5
2E7
100
AcDbEntity
  8
1
  6
Continuous
 62
     6
 48
0.75
100
AcDbVertex
100
AcDb2dVertex
 10
-1304.183906
 20
-138.157839
 30
0.0
 40
0.0
 41
0.0
  0
SEQEND
  5
2E8
100
AcDbEntity
  8
0
  0
POLYLINE
  5
2E9
100
AcDbEntity
  8
1
  6
Continuous
 62
     6
 48
0.75
100
AcDb2dPolyline
 66
     1
 10
0.0
 20
0.0
 30
0.0
 70
   128
  0
VERTEX
  5
2EA
100
AcDbEntity
  8
1
  6
Continuous
 62
     6
 48
0.75
100
AcDbVertex
100
AcDb2dVertex
 10
-1226.663906
 20
-160.857839
 30
0.0
 40
0.0
 41
0.0
  0
VERTEX
  5
2EB
100
AcDbEntity
  8
1
  6
Continuous
 62
     6
 48
0.75
100
AcDbVertex
100
AcDb2dVertex
 10
-1226.663906
 20
-163.357839
 30
0.0
 40
0.0
 41
0.0
  0
VERTEX
  5
2EC
100
AcDbEntity
  8
1
  6
Continuous
 62
     6
 48
0.75
100
AcDbVertex
100
AcDb2dVertex
 10
-1226.663906
 20
-164.857839
 30
0.0
 40
0.0
 41
0.0
  0
VERTEX
  5
2ED
100
AcDbEntity
  8
1
  6
Continuous
 62
     6
 48
0.75
100
AcDbVertex
100
AcDb2dVertex
 10
-1226.663906
 20
-162.777839
 30
0.0
 40
0.0
 41
0.0
  0
VERTEX
  5
2EE
100
AcDbEntity
  8
1
  6
Continuous
 62
     6
 48
0.75
100
AcDbVertex
100
AcDb2dVertex
 10
-1226.663906
 20
-159.817839
 30
0.0
 40
0.0
 41
0.0
  0
VERTEX
  5
2EF
100
AcDbEntity
  8
1
  6
Continuous
 62
     6
 48
0.75
100
AcDbVertex
100
AcDb2dVertex
 10
-1226.663906
 20
-156.707839
 30
0.0
 40
0.0
 41
0.0
  0
VERTEX
  5
2F0
100
AcDbEntity
  8
1
  6
Continuous
 62
     6
 48
0.75
100
AcDbVertex
100
AcDb2dVertex
 10
-1226.663906
 20
-153.527839
 30
0.0
 40
0.0
 41
0.0
  0
VERTEX
  5
2F1
100
AcDbEntity
  8
1
  6
Continuous
 62
     6
 48
0.75
100
AcDbVertex
100
AcDb2dVertex
 10
-1226.663906
 20
-150.197839
 30
0.0
 40
0.0
 41
0.0
  0
VERTEX
  5
2F2
100
AcDbEntity
  8
1
  6
Continuous
 62
     6
 48
0.75
100
AcDbVertex
100
AcDb2dVertex
 10
-1226.663906
 20
-146.167839
 30
0.0
 40
0.0
 41
0.0
  0
VERTEX
  5
2F3
100
AcDbEntity
  8
1
  6
Continuous
 62
     6
 48
0.75
100
AcDbVertex
100
AcDb2dVertex
 10
-1226.663906
 20
-142.797839
 30
0.0
 40
0.0
 41
0.0
  0
VERTEX
  5
2F4
100
AcDbEntity
  8
1
  6
Continuous
 62
     6
 48
0.75
100
AcDbVertex
100
AcDb2dVertex
 10
-1226.663906
 20
-139.747839
 30
0.0
 40
0.0
 41
0.0
  0
VERTEX
  5
2F5
100
AcDbEntity
  8
1
  6
Continuous
 62
     6
 48
0.75
100
AcDbVertex
100
AcDb2dVertex
 10
-1226.663906
 20
-138.937839
 30
0.0
 40
0.0
 41
0.0
  0
SEQEND
  5
2F6
100
AcDbEntity
  8
0
  0
POLYLINE
  5
2F7
100
AcDbEntity
  8
1
  6
Continuous
 62
     6
 48
0.75
100
AcDb2dPolyline
 66
     1
 10
0.0
 20
0.0
 30
0.0
 70
   128
  0
VERTEX
  5
2F8
100
AcDbEntity
  8
1
  6
Continuous
 62
     6
 48
0.75
100
AcDbVertex
100
AcDb2dVertex
 10
-1234.663906
 20
-160.857839
 30
0.0
 40
0.0
 41
0.0
  0
VERTEX
  5
2F9
100
AcDbEntity
  8
1
  6
Continuous
 62
     6
 48
0.75
100
AcDbVertex
100
AcDb2dVertex
 10
-1234.663906
 20
-163.357839
 30
0.0
 40
0.0
 41
0.0
  0
VERTEX
  5
2FA
100
AcDbEntity
  8
1
  6
Continuous
 62
     6
 48
0.75
100
AcDbVertex
100
AcDb2dVertex
 10
-1234.663906
 20
-164.857839
 30
0.0
 40
0.0
 41
0.0
  0
VERTEX
  5
2FB
100
AcDbEntity
  8
1
  6
Continuous
 62
     6
 48
0.75
100
AcDbVertex
100
AcDb2dVertex
 10
-1234.663906
 20
-162.777839
 30
0.0
 40
0.0
 41
0.0
  0
VERTEX
  5
2FC
100
AcDbEntity
  8
1
  6
Continuous
 62
     6
 48
0.75
100
AcDbVertex
100
AcDb2dVertex
 10
-1234.663906
 20
-159.817839
 30
0.0
 40
0.0
 41
0.0
  0
VERTEX
  5
2FD
100
AcDbEntity
  8
1
  6
Continuous
 62
     6
 48
0.75
100
AcDbVertex
100
AcDb2dVertex
 10
-1234.663906
 20
-156.707839
 30
0.0
 40
0.0
 41
0.0
  0
VERTEX
  5
2FE
100
AcDbEntity
  8
1
  6
Continuous
 62
     6
 48
0.75
100
AcDbVertex
100
AcDb2dVertex
 10
-1234.663906
 20
-153.527839
 30
0.0
 40
0.0
 41
0.0
  0
VERTEX
  5
2FF
100
AcDbEntity
  8
1
  6
Continuous
 62
     6
 48
0.75
100
AcDbVertex
100
AcDb2dVertex
 10
-1234.663906
 20
-150.197839
 30
0.0
 40
0.0
 41
0.0
  0
VERTEX
  5
300
100
AcDbEntity
  8
1
  6
Continuous
 62
     6
 48
0.75
100
AcDbVertex
100
AcDb2dVertex
 10
-1234.663906
 20
-146.167839
 30
0.0
 40
0.0
 41
0.0
  0
VERTEX
  5
301
100
AcDbEntity
  8
1
  6
Continuous
 62
     6
 48
0.75
100
AcDbVertex
100
AcDb2dVertex
 10
-1234.663906
 20
-142.797839
 30
0.0
 40
0.0
 41
0.0
  0
VERTEX
  5
302
100
AcDbEntity
  8
1
  6
Continuous
 62
     6
 48
0.75
100
AcDbVertex
100
AcDb2dVertex
 10
-1234.663906
 20
-139.747839
 30
0.0
 40
0.0
 41
0.0
  0
VERTEX
  5
303
100
AcDbEntity
  8
1
  6
Continuous
 62
     6
 48
0.75
100
AcDbVertex
100
AcDb2dVertex
 10
-1234.663906
 20
-138.937839
 30
0.0
 40
0.0
 41
0.0
  0
SEQEND
  5
304
100
AcDbEntity
  8
0
  0
POLYLINE
  5
305
100
AcDbEntity
  8
1
  6
Continuous
 62
     6
 48
0.75
100
AcDb2dPolyline
 66
     1
 10
0.0
 20
0.0
 30
0.0
 70
   128
  0
VERTEX
  5
306
100
AcDbEntity
  8
1
  6
Continuous
 62
     6
 48
0.75
100
AcDbVertex
100
AcDb2dVertex
 10
-1226.663906
 20
-160.857839
 30
0.0
 40
0.0
 41
0.0
  0
VERTEX
  5
307
100
AcDbEntity
  8
1
  6
Continuous
 62
     6
 48
0.75
100
AcDbVertex
100
AcDb2dVertex
 10
-1226.663906
 20
-163.357839
 30
0.0
 40
0.0
 41
0.0
  0
VERTEX
  5
308
100
AcDbEntity
  8
1
  6
Continuous
 62
     6
 48
0.75
100
AcDbVertex
100
AcDb2dVertex
 10
-1226.663906
 20
-164.857839
 30
0.0
 40
0.0
 41
0.0
  0
SEQEND
  5
309
100
AcDbEntity
  8
0
  0
POLYLINE
  5
30A
100
AcDbEntity
  8
1
  6
Continuous
 62
     6
 48
0.75
100
AcDb2dPolyline
 66
     1
 10
0.0
 20
0.0
 30
0.0
 70
   128
  0
VERTEX
  5
30B
100
AcDbEntity
  8
1
  6
Continuous
 62
     6
 48
0.75
100
AcDbVertex
100
AcDb2dVertex
 10
-1234.663906
 20
-160.857839
 30
0.0
 40
0.0
 41
0.0
  0
VERTEX
  5
30C
100
AcDbEntity
  8
1
  6
Continuous
 62
     6
 48
0.75
100
AcDbVertex
100
AcDb2dVertex
 10
-1234.663906
 20
-163.357839
 30
0.0
 40
0.0
 41
0.0
  0
VERTEX
  5
30D
100
AcDbEntity
  8
1
  6
Continuous
 62
     6
 48
0.75
100
AcDbVertex
100
AcDb2dVertex
 10
-1234.663906
 20
-164.857839
 30
0.0
 40
0.0
 41
0.0
  0
SEQEND
  5
30E
100
AcDbEntity
  8
0
  0
POLYLINE
  5
30F
100
AcDbEntity
  8
1
  6
Continuous
 62
     6
 48
0.75
100
AcDb2dPolyline
 66
     1
 10
0.0
 20
0.0
 30
0.0
 70
   128
  0
VERTEX
  5
310
100
AcDbEntity
  8
1
  6
Continuous
 62
     6
 48
0.75
100
AcDbVertex
100
AcDb2dVertex
 10
-1270.083906
 20
-42.857839
 30
0.0
 40
0.0
 41
0.0
  0
VERTEX
  5
311
100
AcDbEntity
  8
1
  6
Continuous
 62
     6
 48
0.75
100
AcDbVertex
100
AcDb2dVertex
 10
-1270.083906
 20
-43.427839
 30
0.0
 40
0.0
 41
0.0
  0
VERTEX
  5
312
100
AcDbEntity
  8
1
  6
Continuous
 62
     6
 48
0.75
100
AcDbVertex
100
AcDb2dVertex
 10
-1270.083906
 20
-43.937839
 30
0.0
 40
0.0
 41
0.0
  0
VERTEX
  5
313
100
AcDbEntity
  8
1
  6
Continuous
 62
     6
 48
0.75
100
AcDbVertex
100
AcDb2dVertex
 10
-1270.083906
 20
-44.387839
 30
0.0
 40
0.0
 41
0.0
  0
VERTEX
  5
314
100
AcDbEntity
  8
1
  6
Continuous
 62
     6
 48
0.75
100
AcDbVertex
100
AcDb2dVertex
 10
-1270.083906
 20
-44.777839
 30
0.0
 40
0.0
 41
0.0
  0
VERTEX
  5
315
100
AcDbEntity
  8
1
  6
Continuous
 62
     6
 48
0.75
100
AcDbVertex
100
AcDb2dVertex
 10
-1270.083906
 20
-45.107839
 30
0.0
 40
0.0
 41
0.0
  0
VERTEX
  5
316
100
AcDbEntity
  8
1
  6
Continuous
 62
     6
 48
0.75
100
AcDbVertex
100
AcDb2dVertex
 10
-1270.083906
 20
-45.377839
 30
0.0
 40
0.0
 41
0.0
  0
VERTEX
  5
317
100
AcDbEntity
  8
1
  6
Continuous
 62
     6
 48
0.75
100
AcDbVertex
100
AcDb2dVertex
 10
-1270.083906
 20
-45.587839
 30
0.0
 40
0.0
 41
0.0
  0
VERTEX
  5
318
100
AcDbEntity
  8
1
  6
Continuous
 62
     6
 48
0.75
100
AcDbVertex
100
AcDb2dVertex
 10
-1270.083906
 20
-45.737839
 30
0.0
 40
0.0
 41
0.0
  0
VERTEX
  5
319
100
AcDbEntity
  8
1
  6
Continuous
 62
     6
 48
0.75
100
AcDbVertex
100
AcDb2dVertex
 10
-1270.083906
 20
-45.827839
 30
0.0
 40
0.0
 41
0.0
  0
VERTEX
  5
31A
100
AcDbEntity
  8
1
  6
Continuous
 62
     6
 48
0.75
100
AcDbVertex
100
AcDb2dVertex
 10
-1270.083906
 20
-45.857839
 30
0.0
 40
0.0
 41
0.0
  0
VERTEX
  5
31B
100
AcDbEntity
  8
1
  6
Continuous
 62
     6
 48
0.75
100
AcDbVertex
100
AcDb2dVertex
 10
-1266.203906
 20
-49.897839
 30
0.0
 40
0.0
 41
0.0
  0
VERTEX
  5
31C
100
AcDbEntity
  8
1
  6
Continuous
 62
     6
 48
0.75
100
AcDbVertex
100
AcDb2dVertex
 10
-1262.573906
 20
-54.997839
 30
0.0
 40
0.0
 41
0.0
  0
VERTEX
  5
31D
100
AcDbEntity
  8
1
  6
Continuous
 62
     6
 48
0.75
100
AcDbVertex
100
AcDb2dVertex
 10
-1259.193906
 20
-61.147839
 30
0.0
 40
0.0
 41
0.0
  0
VERTEX
  5
31E
100
AcDbEntity
  8
1
  6
Continuous
 62
     6
 48
0.75
100
AcDbVertex
100
AcDb2dVertex
 10
-1256.053906
 20
-68.357839
 30
0.0
 40
0.0
 41
0.0
  0
VERTEX
  5
31F
100
AcDbEntity
  8
1
  6
Continuous
 62
     6
 48
0.75
100
AcDbVertex
100
AcDb2dVertex
 10
-1253.153906
 20
-76.617839
 30
0.0
 40
0.0
 41
0.0
  0
VERTEX
  5
320
100
AcDbEntity
  8
1
  6
Continuous
 62
     6
 48
0.75
100
AcDbVertex
100
AcDb2dVertex
 10
-1250.503906
 20
-85.937839
 30
0.0
 40
0.0
 41
0.0
  0
VERTEX
  5
321
100
AcDbEntity
  8
1
  6
Continuous
 62
     6
 48
0.75
100
AcDbVertex
100
AcDb2dVertex
 10
-1248.103906
 20
-96.307839
 30
0.0
 40
0.0
 41
0.0
  0
VERTEX
  5
322
100
AcDbEntity
  8
1
  6
Continuous
 62
     6
 48
0.75
100
AcDbVertex
100
AcDb2dVertex
 10
-1245.953906
 20
-107.727839
 30
0.0
 40
0.0
 41
0.0
  0
VERTEX
  5
323
100
AcDbEntity
  8
1
  6
Continuous
 62
     6
 48
0.75
100
AcDbVertex
100
AcDb2dVertex
 10
-1244.033906
 20
-120.207839
 30
0.0
 40
0.0
 41
0.0
  0
VERTEX
  5
324
100
AcDbEntity
  8
1
  6
Continuous
 62
     6
 48
0.75
100
AcDbVertex
100
AcDb2dVertex
 10
-1242.373906
 20
-133.747839
 30
0.0
 40
0.0
 41
0.0
  0
VERTEX
  5
325
100
AcDbEntity
  8
1
  6
Continuous
 62
     6
 48
0.75
100
AcDbVertex
100
AcDb2dVertex
 10
-1234.663906
 20
-160.857839
 30
0.0
 40
0.0
 41
0.0
  0
SEQEND
  5
326
100
AcDbEntity
  8
0
  0
POLYLINE
  5
327
100
AcDbEntity
  8
1
  6
Continuous
 62
     6
 48
0.75
100
AcDb2dPolyline
 66
     1
 10
0.0
 20
0.0
 30
0.0
 70
   128
  0
VERTEX
  5
328
100
AcDbEntity
  8
1
  6
Continuous
 62
     6
 48
0.75
100
AcDbVertex
100
AcDb2dVertex
 10
-1270.083906
 20
-45.857839
 30
0.0
 40
0.0
 41
0.0
  0
VERTEX
  5
329
100
AcDbEntity
  8
1
  6
Continuous
 62
     6
 48
0.75
100
AcDbVertex
100
AcDb2dVertex
 10
-1263.943906
 20
-52.907839
 30
0.0
 40
0.0
 41
0.0
  0
VERTEX
  5
32A
100
AcDbEntity
  8
1
  6
Continuous
 62
     6
 48
0.75
100
AcDbVertex
100
AcDb2dVertex
 10
-1259.253906
 20
-61.017839
 30
0.0
 40
0.0
 41
0.0
  0
VERTEX
  5
32B
100
AcDbEntity
  8
1
  6
Continuous
 62
     6
 48
0.75
100
AcDbVertex
100
AcDb2dVertex
 10
-1255.563906
 20
-69.627839
 30
0.0
 40
0.0
 41
0.0
  0
VERTEX
  5
32C
100
AcDbEntity
  8
1
  6
Continuous
 62
     6
 48
0.75
100
AcDbVertex
100
AcDb2dVertex
 10
-1252.573906
 20
-78.507839
 30
0.0
 40
0.0
 41
0.0
  0
VERTEX
  5
32D
100
AcDbEntity
  8
1
  6
Continuous
 62
     6
 48
0.75
100
AcDbVertex
100
AcDb2dVertex
 10
-1250.103906
 20
-87.557839
 30
0.0
 40
0.0
 41
0.0
  0
VERTEX
  5
32E
100
AcDbEntity
  8
1
  6
Continuous
 62
     6
 48
0.75
100
AcDbVertex
100
AcDb2dVertex
 10
-1248.023906
 20
-96.697839
 30
0.0
 40
0.0
 41
0.0
  0
VERTEX
  5
32F
100
AcDbEntity
  8
1
  6
Continuous
 62
     6
 48
0.75
100
AcDbVertex
100
AcDb2dVertex
 10
-1246.263906
 20
-105.897839
 30
0.0
 40
0.0
 41
0.0
  0
VERTEX
  5
330
100
AcDbEntity
  8
1
  6
Continuous
 62
     6
 48
0.75
100
AcDbVertex
100
AcDb2dVertex
 10
-1244.763906
 20
-115.157839
 30
0.0
 40
0.0
 41
0.0
  0
VERTEX
  5
331
100
AcDbEntity
  8
1
  6
Continuous
 62
     6
 48
0.75
100
AcDbVertex
100
AcDb2dVertex
 10
-1243.473906
 20
-124.437839
 30
0.0
 40
0.0
 41
0.0
  0
VERTEX
  5
332
100
AcDbEntity
  8
1
  6
Continuous
 62
     6
 48
0.75
100
AcDbVertex
100
AcDb2dVertex
 10
-1242.373906
 20
-133.747839
 30
0.0
 40
0.0
 41
0.0
  0
VERTEX
  5
333
100
AcDbEntity
  8
1
  6
Continuous
 62
     6
 48
0.75
100
AcDbVertex
100
AcDb2dVertex
 10
-1234.663906
 20
-160.857839
 30
0.0
 40
0.0
 41
0.0
  0
SEQEND
  5
334
100
AcDbEntity
  8
0
  0
POLYLINE
  5
335
100
AcDbEntity
  8
1
  6
Continuous
 62
     6
 48
0.75
100
AcDb2dPolyline
 66
     1
 10
0.0
 20
0.0
 30
0.0
 70
   128
  0
VERTEX
  5
336
100
AcDbEntity
  8
1
  6
Continuous
 62
     6
 48
0.75
100
AcDbVertex
100
AcDb2dVertex
 10
-1191.243906
 20
-42.857839
 30
0.0
 40
0.0
 41
0.0
  0
VERTEX
  5
337
100
AcDbEntity
  8
1
  6
Continuous
 62
     6
 48
0.75
100
AcDbVertex
100
AcDb2dVertex
 10
-1191.243906
 20
-43.427839
 30
0.0
 40
0.0
 41
0.0
  0
VERTEX
  5
338
100
AcDbEntity
  8
1
  6
Continuous
 62
     6
 48
0.75
100
AcDbVertex
100
AcDb2dVertex
 10
-1191.243906
 20
-43.937839
 30
0.0
 40
0.0
 41
0.0
  0
VERTEX
  5
339
100
AcDbEntity
  8
1
  6
Continuous
 62
     6
 48
0.75
100
AcDbVertex
100
AcDb2dVertex
 10
-1191.243906
 20
-44.387839
 30
0.0
 40
0.0
 41
0.0
  0
VERTEX
  5
33A
100
AcDbEntity
  8
1
  6
Continuous
 62
     6
 48
0.75
100
AcDbVertex
100
AcDb2dVertex
 10
-1191.243906
 20
-44.777839
 30
0.0
 40
0.0
 41
0.0
  0
VERTEX
  5
33B
100
AcDbEntity
  8
1
  6
Continuous
 62
     6
 48
0.75
100
AcDbVertex
100
AcDb2dVertex
 10
-1191.243906
 20
-45.107839
 30
0.0
 40
0.0
 41
0.0
  0
VERTEX
  5
33C
100
AcDbEntity
  8
1
  6
Continuous
 62
     6
 48
0.75
100
AcDbVertex
100
AcDb2dVertex
 10
-1191.243906
 20
-45.377839
 30
0.0
 40
0.0
 41
0.0
  0
VERTEX
  5
33D
100
AcDbEntity
  8
1
  6
Continuous
 62
     6
 48
0.75
100
AcDbVertex
100
AcDb2dVertex
 10
-1191.243906
 20
-45.587839
 30
0.0
 40
0.0
 41
0.0
  0
VERTEX
  5
33E
100
AcDbEntity
  8
1
  6
Continuous
 62
     6
 48
0.75
100
AcDbVertex
100
AcDb2dVertex
 10
-1191.243906
 20
-45.737839
 30
0.0
 40
0.0
 41
0.0
  0
VERTEX
  5
33F
100
AcDbEntity
  8
1
  6
Continuous
 62
     6
 48
0.75
100
AcDbVertex
100
AcDb2dVertex
 10
-1191.243906
 20
-45.827839
 30
0.0
 40
0.0
 41
0.0
  0
VERTEX
  5
340
100
AcDbEntity
  8
1
  6
Continuous
 62
     6
 48
0.75
100
AcDbVertex
100
AcDb2dVertex
 10
-1191.243906
 20
-45.857839
 30
0.0
 40
0.0
 41
0.0
  0
VERTEX
  5
341
100
AcDbEntity
  8
1
  6
Continuous
 62
     6
 48
0.75
100
AcDbVertex
100
AcDb2dVertex
 10
-1195.123906
 20
-49.897839
 30
0.0
 40
0.0
 41
0.0
  0
VERTEX
  5
342
100
AcDbEntity
  8
1
  6
Continuous
 62
     6
 48
0.75
100
AcDbVertex
100
AcDb2dVertex
 10
-1198.753906
 20
-54.997839
 30
0.0
 40
0.0
 41
0.0
  0
VERTEX
  5
343
100
AcDbEntity
  8
1
  6
Continuous
 62
     6
 48
0.75
100
AcDbVertex
100
AcDb2dVertex
 10
-1202.133906
 20
-61.147839
 30
0.0
 40
0.0
 41
0.0
  0
VERTEX
  5
344
100
AcDbEntity
  8
1
  6
Continuous
 62
     6
 48
0.75
100
AcDbVertex
100
AcDb2dVertex
 10
-1205.273906
 20
-68.357839
 30
0.0
 40
0.0
 41
0.0
  0
VERTEX
  5
345
100
AcDbEntity
  8
1
  6
Continuous
 62
     6
 48
0.75
100
AcDbVertex
100
AcDb2dVertex
 10
-1208.173906
 20
-76.617839
 30
0.0
 40
0.0
 41
0.0
  0
VERTEX
  5
346
100
AcDbEntity
  8
1
  6
Continuous
 62
     6
 48
0.75
100
AcDbVertex
100
AcDb2dVertex
 10
-1210.823906
 20
-85.937839
 30
0.0
 40
0.0
 41
0.0
  0
VERTEX
  5
347
100
AcDbEntity
  8
1
  6
Continuous
 62
     6
 48
0.75
100
AcDbVertex
100
AcDb2dVertex
 10
-1213.223906
 20
-96.307839
 30
0.0
 40
0.0
 41
0.0
  0
VERTEX
  5
348
100
AcDbEntity
  8
1
  6
Continuous
 62
     6
 48
0.75
100
AcDbVertex
100
AcDb2dVertex
 10
-1215.373906
 20
-107.727839
 30
0.0
 40
0.0
 41
0.0
  0
VERTEX
  5
349
100
AcDbEntity
  8
1
  6
Continuous
 62
     6
 48
0.75
100
AcDbVertex
100
AcDb2dVertex
 10
-1217.293906
 20
-120.207839
 30
0.0
 40
0.0
 41
0.0
  0
VERTEX
  5
34A
100
AcDbEntity
  8
1
  6
Continuous
 62
     6
 48
0.75
100
AcDbVertex
100
AcDb2dVertex
 10
-1218.953906
 20
-133.747839
 30
0.0
 40
0.0
 41
0.0
  0
VERTEX
  5
34B
100
AcDbEntity
  8
1
  6
Continuous
 62
     6
 48
0.75
100
AcDbVertex
100
AcDb2dVertex
 10
-1226.663906
 20
-160.857839
 30
0.0
 40
0.0
 41
0.0
  0
SEQEND
  5
34C
100
AcDbEntity
  8
0
  0
POLYLINE
  5
34D
100
AcDbEntity
  8
1
  6
Continuous
 62
     6
 48
0.75
100
AcDb2dPolyline
 66
     1
 10
0.0
 20
0.0
 30
0.0
 70
   128
  0
VERTEX
  5
34E
100
AcDbEntity
  8
1
  6
Continuous
 62
     6
 48
0.75
100
AcDbVertex
100
AcDb2dVertex
 10
-1299.153906
 20
-49.477839
 30
0.0
 40
0.0
 41
0.0
  0
VERTEX
  5
34F
100
AcDbEntity
  8
1
  6
Continuous
 62
     6
 48
0.75
100
AcDbVertex
100
AcDb2dVertex
 10
-1299.153906
 20
-50.047839
 30
0.0
 40
0.0
 41
0.0
  0
VERTEX
  5
350
100
AcDbEntity
  8
1
  6
Continuous
 62
     6
 48
0.75
100
AcDbVertex
100
AcDb2dVertex
 10
-1299.153906
 20
-50.557839
 30
0.0
 40
0.0
 41
0.0
  0
VERTEX
  5
351
100
AcDbEntity
  8
1
  6
Continuous
 62
     6
 48
0.75
100
AcDbVertex
100
AcDb2dVertex
 10
-1299.153906
 20
-51.007839
 30
0.0
 40
0.0
 41
0.0
  0
VERTEX
  5
352
100
AcDbEntity
  8
1
  6
Continuous
 62
     6
 48
0.75
100
AcDbVertex
100
AcDb2dVertex
 10
-1299.153906
 20
-51.397839
 30
0.0
 40
0.0
 41
0.0
  0
VERTEX
  5
353
100
AcDbEntity
  8
1
  6
Continuous
 62
     6
 48
0.75
100
AcDbVertex
100
AcDb2dVertex
 10
-1299.153906
 20
-51.727839
 30
0.0
 40
0.0
 41
0.0
  0
VERTEX
  5
354
100
AcDbEntity
  8
1
  6
Continuous
 62
     6
 48
0.75
100
AcDbVertex
100
AcDb2dVertex
 10
-1299.153906
 20
-51.997839
 30
0.0
 40
0.0
 41
0.0
  0
VERTEX
  5
355
100
AcDbEntity
  8
1
  6
Continuous
 62
     6
 48
0.75
100
AcDbVertex
100
AcDb2dVertex
 10
-1299.153906
 20
-52.207839
 30
0.0
 40
0.0
 41
0.0
  0
VERTEX
  5
356
100
AcDbEntity
  8
1
  6
Continuous
 62
     6
 48
0.75
100
AcDbVertex
100
AcDb2dVertex
 10
-1299.153906
 20
-52.357839
 30
0.0
 40
0.0
 41
0.0
  0
VERTEX
  5
357
100
AcDbEntity
  8
1
  6
Continuous
 62
     6
 48
0.75
100
AcDbVertex
100
AcDb2dVertex
 10
-1299.153906
 20
-52.447839
 30
0.0
 40
0.0
 41
0.0
  0
VERTEX
  5
358
100
AcDbEntity
  8
1
  6
Continuous
 62
     6
 48
0.75
100
AcDbVertex
100
AcDb2dVertex
 10
-1299.153906
 20
-52.477839
 30
0.0
 40
0.0
 41
0.0
  0
VERTEX
  5
359
100
AcDbEntity
  8
1
  6
Continuous
 62
     6
 48
0.75
100
AcDbVertex
100
AcDb2dVertex
 10
-1294.723906
 20
-55.527839
 30
0.0
 40
0.0
 41
0.0
  0
VERTEX
  5
35A
100
AcDbEntity
  8
1
  6
Continuous
 62
     6
 48
0.75
100
AcDbVertex
100
AcDb2dVertex
 10
-1290.443906
 20
-59.727839
 30
0.0
 40
0.0
 41
0.0
  0
VERTEX
  5
35B
100
AcDbEntity
  8
1
  6
Continuous
 62
     6
 48
0.75
100
AcDbVertex
100
AcDb2dVertex
 10
-1286.303906
 20
-65.067839
 30
0.0
 40
0.0
 41
0.0
  0
VERTEX
  5
35C
100
AcDbEntity
  8
1
  6
Continuous
 62
     6
 48
0.75
100
AcDbVertex
100
AcDb2dVertex
 10
-1282.313906
 20
-71.557839
 30
0.0
 40
0.0
 41
0.0
  0
VERTEX
  5
35D
100
AcDbEntity
  8
1
  6
Continuous
 62
     6
 48
0.75
100
AcDbVertex
100
AcDb2dVertex
 10
-1278.463906
 20
-79.177839
 30
0.0
 40
0.0
 41
0.0
  0
VERTEX
  5
35E
100
AcDbEntity
  8
1
  6
Continuous
 62
     6
 48
0.75
100
AcDbVertex
100
AcDb2dVertex
 10
-1274.763906
 20
-87.947839
 30
0.0
 40
0.0
 41
0.0
  0
VERTEX
  5
35F
100
AcDbEntity
  8
1
  6
Continuous
 62
     6
 48
0.75
100
AcDbVertex
100
AcDb2dVertex
 10
-1271.203906
 20
-97.867839
 30
0.0
 40
0.0
 41
0.0
  0
VERTEX
  5
360
100
AcDbEntity
  8
1
  6
Continuous
 62
     6
 48
0.75
100
AcDbVertex
100
AcDb2dVertex
 10
-1267.783906
 20
-108.927839
 30
0.0
 40
0.0
 41
0.0
  0
VERTEX
  5
361
100
AcDbEntity
  8
1
  6
Continuous
 62
     6
 48
0.75
100
AcDbVertex
100
AcDb2dVertex
 10
-1264.513906
 20
-121.127839
 30
0.0
 40
0.0
 41
0.0
  0
VERTEX
  5
362
100
AcDbEntity
  8
1
  6
Continuous
 62
     6
 48
0.75
100
AcDbVertex
100
AcDb2dVertex
 10
-1261.393906
 20
-134.467839
 30
0.0
 40
0.0
 41
0.0
  0
VERTEX
  5
363
100
AcDbEntity
  8
1
  6
Continuous
 62
     6
 48
0.75
100
AcDbVertex
100
AcDb2dVertex
 10
-1234.663906
 20
-163.357839
 30
0.0
 40
0.0
 41
0.0
  0
SEQEND
  5
364
100
AcDbEntity
  8
0
  0
POLYLINE
  5
365
100
AcDbEntity
  8
1
  6
Continuous
 62
     6
 48
0.75
100
AcDb2dPolyline
 66
     1
 10
0.0
 20
0.0
 30
0.0
 70
   128
  0
VERTEX
  5
366
100
AcDbEntity
  8
1
  6
Continuous
 62
     6
 48
0.75
100
AcDbVertex
100
AcDb2dVertex
 10
-1299.153906
 20
-52.477839
 30
0.0
 40
0.0
 41
0.0
  0
VERTEX
  5
367
100
AcDbEntity
  8
1
  6
Continuous
 62
     6
 48
0.75
100
AcDbVertex
100
AcDb2dVertex
 10
-1291.913906
 20
-58.147839
 30
0.0
 40
0.0
 41
0.0
  0
VERTEX
  5
368
100
AcDbEntity
  8
1
  6
Continuous
 62
     6
 48
0.75
100
AcDbVertex
100
AcDb2dVertex
 10
-1286.133906
 20
-65.327839
 30
0.0
 40
0.0
 41
0.0
  0
VERTEX
  5
369
100
AcDbEntity
  8
1
  6
Continuous
 62
     6
 48
0.75
100
AcDbVertex
100
AcDb2dVertex
 10
-1281.393906
 20
-73.237839
 30
0.0
 40
0.0
 41
0.0
  0
VERTEX
  5
36A
100
AcDbEntity
  8
1
  6
Continuous
 62
     6
 48
0.75
100
AcDbVertex
100
AcDb2dVertex
 10
-1277.403906
 20
-81.547839
 30
0.0
 40
0.0
 41
0.0
  0
VERTEX
  5
36B
100
AcDbEntity
  8
1
  6
Continuous
 62
     6
 48
0.75
100
AcDbVertex
100
AcDb2dVertex
 10
-1273.933906
 20
-90.107839
 30
0.0
 40
0.0
 41
0.0
  0
VERTEX
  5
36C
100
AcDbEntity
  8
1
  6
Continuous
 62
     6
 48
0.75
100
AcDbVertex
100
AcDb2dVertex
 10
-1270.883906
 20
-98.817839
 30
0.0
 40
0.0
 41
0.0
  0
VERTEX
  5
36D
100
AcDbEntity
  8
1
  6
Continuous
 62
     6
 48
0.75
100
AcDbVertex
100
AcDb2dVertex
 10
-1268.163906
 20
-107.627839
 30
0.0
 40
0.0
 41
0.0
  0
VERTEX
  5
36E
100
AcDbEntity
  8
1
  6
Continuous
 62
     6
 48
0.75
100
AcDbVertex
100
AcDb2dVertex
 10
-1265.703906
 20
-116.517839
 30
0.0
 40
0.0
 41
0.0
  0
VERTEX
  5
36F
100
AcDbEntity
  8
1
  6
Continuous
 62
     6
 48
0.75
100
AcDbVertex
100
AcDb2dVertex
 10
-1263.453906
 20
-125.477839
 30
0.0
 40
0.0
 41
0.0
  0
VERTEX
  5
370
100
AcDbEntity
  8
1
  6
Continuous
 62
     6
 48
0.75
100
AcDbVertex
100
AcDb2dVertex
 10
-1261.393906
 20
-134.467839
 30
0.0
 40
0.0
 41
0.0
  0
VERTEX
  5
371
100
AcDbEntity
  8
1
  6
Continuous
 62
     6
 48
0.75
100
AcDbVertex
100
AcDb2dVertex
 10
-1234.663906
 20
-163.357839
 30
0.0
 40
0.0
 41
0.0
  0
SEQEND
  5
372
100
AcDbEntity
  8
0
  0
POLYLINE
  5
373
100
AcDbEntity
  8
1
  6
Continuous
 62
     6
 48
0.75
100
AcDb2dPolyline
 66
     1
 10
0.0
 20
0.0
 30
0.0
 70
   128
  0
VERTEX
  5
374
100
AcDbEntity
  8
1
  6
Continuous
 62
     6
 48
0.75
100
AcDbVertex
100
AcDb2dVertex
 10
-1162.173906
 20
-49.477839
 30
0.0
 40
0.0
 41
0.0
  0
VERTEX
  5
375
100
AcDbEntity
  8
1
  6
Continuous
 62
     6
 48
0.75
100
AcDbVertex
100
AcDb2dVertex
 10
-1162.173906
 20
-50.047839
 30
0.0
 40
0.0
 41
0.0
  0
VERTEX
  5
376
100
AcDbEntity
  8
1
  6
Continuous
 62
     6
 48
0.75
100
AcDbVertex
100
AcDb2dVertex
 10
-1162.173906
 20
-50.557839
 30
0.0
 40
0.0
 41
0.0
  0
VERTEX
  5
377
100
AcDbEntity
  8
1
  6
Continuous
 62
     6
 48
0.75
100
AcDbVertex
100
AcDb2dVertex
 10
-1162.173906
 20
-51.007839
 30
0.0
 40
0.0
 41
0.0
  0
VERTEX
  5
378
100
AcDbEntity
  8
1
  6
Continuous
 62
     6
 48
0.75
100
AcDbVertex
100
AcDb2dVertex
 10
-1162.173906
 20
-51.397839
 30
0.0
 40
0.0
 41
0.0
  0
VERTEX
  5
379
100
AcDbEntity
  8
1
  6
Continuous
 62
     6
 48
0.75
100
AcDbVertex
100
AcDb2dVertex
 10
-1162.173906
 20
-51.727839
 30
0.0
 40
0.0
 41
0.0
  0
VERTEX
  5
37A
100
AcDbEntity
  8
1
  6
Continuous
 62
     6
 48
0.75
100
AcDbVertex
100
AcDb2dVertex
 10
-1162.173906
 20
-51.997839
 30
0.0
 40
0.0
 41
0.0
  0
VERTEX
  5
37B
100
AcDbEntity
  8
1
  6
Continuous
 62
     6
 48
0.75
100
AcDbVertex
100
AcDb2dVertex
 10
-1162.173906
 20
-52.207839
 30
0.0
 40
0.0
 41
0.0
  0
VERTEX
  5
37C
100
AcDbEntity
  8
1
  6
Continuous
 62
     6
 48
0.75
100
AcDbVertex
100
AcDb2dVertex
 10
-1162.173906
 20
-52.357839
 30
0.0
 40
0.0
 41
0.0
  0
VERTEX
  5
37D
100
AcDbEntity
  8
1
  6
Continuous
 62
     6
 48
0.75
100
AcDbVertex
100
AcDb2dVertex
 10
-1162.173906
 20
-52.447839
 30
0.0
 40
0.0
 41
0.0
  0
VERTEX
  5
37E
100
AcDbEntity
  8
1
  6
Continuous
 62
     6
 48
0.75
100
AcDbVertex
100
AcDb2dVertex
 10
-1162.173906
 20
-52.477839
 30
0.0
 40
0.0
 41
0.0
  0
VERTEX
  5
37F
100
AcDbEntity
  8
1
  6
Continuous
 62
     6
 48
0.75
100
AcDbVertex
100
AcDb2dVertex
 10
-1166.603906
 20
-55.527839
 30
0.0
 40
0.0
 41
0.0
  0
VERTEX
  5
380
100
AcDbEntity
  8
1
  6
Continuous
 62
     6
 48
0.75
100
AcDbVertex
100
AcDb2dVertex
 10
-1170.883906
 20
-59.727839
 30
0.0
 40
0.0
 41
0.0
  0
VERTEX
  5
381
100
AcDbEntity
  8
1
  6
Continuous
 62
     6
 48
0.75
100
AcDbVertex
100
AcDb2dVertex
 10
-1175.023906
 20
-65.067839
 30
0.0
 40
0.0
 41
0.0
  0
VERTEX
  5
382
100
AcDbEntity
  8
1
  6
Continuous
 62
     6
 48
0.75
100
AcDbVertex
100
AcDb2dVertex
 10
-1179.013906
 20
-71.557839
 30
0.0
 40
0.0
 41
0.0
  0
VERTEX
  5
383
100
AcDbEntity
  8
1
  6
Continuous
 62
     6
 48
0.75
100
AcDbVertex
100
AcDb2dVertex
 10
-1182.863906
 20
-79.177839
 30
0.0
 40
0.0
 41
0.0
  0
VERTEX
  5
384
100
AcDbEntity
  8
1
  6
Continuous
 62
     6
 48
0.75
100
AcDbVertex
100
AcDb2dVertex
 10
-1186.563906
 20
-87.947839
 30
0.0
 40
0.0
 41
0.0
  0
VERTEX
  5
385
100
AcDbEntity
  8
1
  6
Continuous
 62
     6
 48
0.75
100
AcDbVertex
100
AcDb2dVertex
 10
-1190.123906
 20
-97.867839
 30
0.0
 40
0.0
 41
0.0
  0
VERTEX
  5
386
100
AcDbEntity
  8
1
  6
Continuous
 62
     6
 48
0.75
100
AcDbVertex
100
AcDb2dVertex
 10
-1193.543906
 20
-108.927839
 30
0.0
 40
0.0
 41
0.0
  0
VERTEX
  5
387
100
AcDbEntity
  8
1
  6
Continuous
 62
     6
 48
0.75
100
AcDbVertex
100
AcDb2dVertex
 10
-1196.813906
 20
-121.127839
 30
0.0
 40
0.0
 41
0.0
  0
VERTEX
  5
388
100
AcDbEntity
  8
1
  6
Continuous
 62
     6
 48
0.75
100
AcDbVertex
100
AcDb2dVertex
 10
-1199.933906
 20
-134.467839
 30
0.0
 40
0.0
 41
0.0
  0
VERTEX
  5
389
100
AcDbEntity
  8
1
  6
Continuous
 62
     6
 48
0.75
100
AcDbVertex
100
AcDb2dVertex
 10
-1226.663906
 20
-163.357839
 30
0.0
 40
0.0
 41
0.0
  0
SEQEND
  5
38A
100
AcDbEntity
  8
0
  0
POLYLINE
  5
38B
100
AcDbEntity
  8
1
  6
Continuous
 62
     6
 48
0.75
100
AcDb2dPolyline
 66
     1
 10
0.0
 20
0.0
 30
0.0
 70
   128
  0
VERTEX
  5
38C
100
AcDbEntity
  8
1
  6
Continuous
 62
     6
 48
0.75
100
AcDbVertex
100
AcDb2dVertex
 10
-1317.353906
 20
-55.427839
 30
0.0
 40
0.0
 41
0.0
  0
VERTEX
  5
38D
100
AcDbEntity
  8
1
  6
Continuous
 62
     6
 48
0.75
100
AcDbVertex
100
AcDb2dVertex
 10
-1317.353906
 20
-56.017839
 30
0.0
 40
0.0
 41
0.0
  0
VERTEX
  5
38E
100
AcDbEntity
  8
1
  6
Continuous
 62
     6
 48
0.75
100
AcDbVertex
100
AcDb2dVertex
 10
-1317.353906
 20
-56.557839
 30
0.0
 40
0.0
 41
0.0
  0
VERTEX
  5
38F
100
AcDbEntity
  8
1
  6
Continuous
 62
     6
 48
0.75
100
AcDbVertex
100
AcDb2dVertex
 10
-1317.353906
 20
-57.027839
 30
0.0
 40
0.0
 41
0.0
  0
VERTEX
  5
390
100
AcDbEntity
  8
1
  6
Continuous
 62
     6
 48
0.75
100
AcDbVertex
100
AcDb2dVertex
 10
-1317.353906
 20
-57.427839
 30
0.0
 40
0.0
 41
0.0
  0
VERTEX
  5
391
100
AcDbEntity
  8
1
  6
Continuous
 62
     6
 48
0.75
100
AcDbVertex
100
AcDb2dVertex
 10
-1317.353906
 20
-57.777839
 30
0.0
 40
0.0
 41
0.0
  0
VERTEX
  5
392
100
AcDbEntity
  8
1
  6
Continuous
 62
     6
 48
0.75
100
AcDbVertex
100
AcDb2dVertex
 10
-1317.353906
 20
-58.057839
 30
0.0
 40
0.0
 41
0.0
  0
VERTEX
  5
393
100
AcDbEntity
  8
1
  6
Continuous
 62
     6
 48
0.75
100
AcDbVertex
100
AcDb2dVertex
 10
-1317.353906
 20
-58.277839
 30
0.0
 40
0.0
 41
0.0
  0
VERTEX
  5
394
100
AcDbEntity
  8
1
  6
Continuous
 62
     6
 48
0.75
100
AcDbVertex
100
AcDb2dVertex
 10
-1317.353906
 20
-58.427839
 30
0.0
 40
0.0
 41
0.0
  0
VERTEX
  5
395
100
AcDbEntity
  8
1
  6
Continuous
 62
     6
 48
0.75
100
AcDbVertex
100
AcDb2dVertex
 10
-1317.353906
 20
-58.527839
 30
0.0
 40
0.0
 41
0.0
  0
VERTEX
  5
396
100
AcDbEntity
  8
1
  6
Continuous
 62
     6
 48
0.75
100
AcDbVertex
100
AcDb2dVertex
 10
-1317.353906
 20
-58.557839
 30
0.0
 40
0.0
 41
0.0
  0
VERTEX
  5
397
100
AcDbEntity
  8
1
  6
Continuous
 62
     6
 48
0.75
100
AcDbVertex
100
AcDb2dVertex
 10
-1314.803906
 20
-60.917839
 30
0.0
 40
0.0
 41
0.0
  0
VERTEX
  5
398
100
AcDbEntity
  8
1
  6
Continuous
 62
     6
 48
0.75
100
AcDbVertex
100
AcDb2dVertex
 10
-1311.933906
 20
-64.437839
 30
0.0
 40
0.0
 41
0.0
  0
VERTEX
  5
399
100
AcDbEntity
  8
1
  6
Continuous
 62
     6
 48
0.75
100
AcDbVertex
100
AcDb2dVertex
 10
-1308.763906
 20
-69.137839
 30
0.0
 40
0.0
 41
0.0
  0
VERTEX
  5
39A
100
AcDbEntity
  8
1
  6
Continuous
 62
     6
 48
0.75
100
AcDbVertex
100
AcDb2dVertex
 10
-1305.283906
 20
-74.987839
 30
0.0
 40
0.0
 41
0.0
  0
VERTEX
  5
39B
100
AcDbEntity
  8
1
  6
Continuous
 62
     6
 48
0.75
100
AcDbVertex
100
AcDb2dVertex
 10
-1301.493906
 20
-82.017839
 30
0.0
 40
0.0
 41
0.0
  0
VERTEX
  5
39C
100
AcDbEntity
  8
1
  6
Continuous
 62
     6
 48
0.75
100
AcDbVertex
100
AcDb2dVertex
 10
-1297.393906
 20
-90.207839
 30
0.0
 40
0.0
 41
0.0
  0
VERTEX
  5
39D
100
AcDbEntity
  8
1
  6
Continuous
 62
     6
 48
0.75
100
AcDbVertex
100
AcDb2dVertex
 10
-1292.983906
 20
-99.567839
 30
0.0
 40
0.0
 41
0.0
  0
VERTEX
  5
39E
100
AcDbEntity
  8
1
  6
Continuous
 62
     6
 48
0.75
100
AcDbVertex
100
AcDb2dVertex
 10
-1288.263906
 20
-110.087839
 30
0.0
 40
0.0
 41
0.0
  0
VERTEX
  5
39F
100
AcDbEntity
  8
1
  6
Continuous
 62
     6
 48
0.75
100
AcDbVertex
100
AcDb2dVertex
 10
-1283.243906
 20
-121.777839
 30
0.0
 40
0.0
 41
0.0
  0
VERTEX
  5
3A0
100
AcDbEntity
  8
1
  6
Continuous
 62
     6
 48
0.75
100
AcDbVertex
100
AcDb2dVertex
 10
-1277.903906
 20
-134.637839
 30
0.0
 40
0.0
 41
0.0
  0
VERTEX
  5
3A1
100
AcDbEntity
  8
1
  6
Continuous
 62
     6
 48
0.75
100
AcDbVertex
100
AcDb2dVertex
 10
-1234.663906
 20
-164.857839
 30
0.0
 40
0.0
 41
0.0
  0
SEQEND
  5
3A2
100
AcDbEntity
  8
0
  0
POLYLINE
  5
3A3
100
AcDbEntity
  8
1
  6
Continuous
 62
     6
 48
0.75
100
AcDb2dPolyline
 66
     1
 10
0.0
 20
0.0
 30
0.0
 70
   128
  0
VERTEX
  5
3A4
100
AcDbEntity
  8
1
  6
Continuous
 62
     6
 48
0.75
100
AcDbVertex
100
AcDb2dVertex
 10
-1317.353906
 20
-58.557839
 30
0.0
 40
0.0
 41
0.0
  0
VERTEX
  5
3A5
100
AcDbEntity
  8
1
  6
Continuous
 62
     6
 48
0.75
100
AcDbVertex
100
AcDb2dVertex
 10
-1311.583906
 20
-64.917839
 30
0.0
 40
0.0
 41
0.0
  0
VERTEX
  5
3A6
100
AcDbEntity
  8
1
  6
Continuous
 62
     6
 48
0.75
100
AcDbVertex
100
AcDb2dVertex
 10
-1306.913906
 20
-72.157839
 30
0.0
 40
0.0
 41
0.0
  0
VERTEX
  5
3A7
100
AcDbEntity
  8
1
  6
Continuous
 62
     6
 48
0.75
100
AcDbVertex
100
AcDb2dVertex
 10
-1302.713906
 20
-79.677839
 30
0.0
 40
0.0
 41
0.0
  0
VERTEX
  5
3A8
100
AcDbEntity
  8
1
  6
Continuous
 62
     6
 48
0.75
100
AcDbVertex
100
AcDb2dVertex
 10
-1298.793906
 20
-87.347839
 30
0.0
 40
0.0
 41
0.0
  0
VERTEX
  5
3A9
100
AcDbEntity
  8
1
  6
Continuous
 62
     6
 48
0.75
100
AcDbVertex
100
AcDb2dVertex
 10
-1295.053906
 20
-95.117839
 30
0.0
 40
0.0
 41
0.0
  0
VERTEX
  5
3AA
100
AcDbEntity
  8
1
  6
Continuous
 62
     6
 48
0.75
100
AcDbVertex
100
AcDb2dVertex
 10
-1291.443906
 20
-102.937839
 30
0.0
 40
0.0
 41
0.0
  0
VERTEX
  5
3AB
100
AcDbEntity
  8
1
  6
Continuous
 62
     6
 48
0.75
100
AcDbVertex
100
AcDb2dVertex
 10
-1287.943906
 20
-110.817839
 30
0.0
 40
0.0
 41
0.0
  0
VERTEX
  5
3AC
100
AcDbEntity
  8
1
  6
Continuous
 62
     6
 48
0.75
100
AcDbVertex
100
AcDb2dVertex
 10
-1284.533906
 20
-118.727839
 30
0.0
 40
0.0
 41
0.0
  0
VERTEX
  5
3AD
100
AcDbEntity
  8
1
  6
Continuous
 62
     6
 48
0.75
100
AcDbVertex
100
AcDb2dVertex
 10
-1281.193906
 20
-126.667839
 30
0.0
 40
0.0
 41
0.0
  0
VERTEX
  5
3AE
100
AcDbEntity
  8
1
  6
Continuous
 62
     6
 48
0.75
100
AcDbVertex
100
AcDb2dVertex
 10
-1277.903906
 20
-134.637839
 30
0.0
 40
0.0
 41
0.0
  0
VERTEX
  5
3AF
100
AcDbEntity
  8
1
  6
Continuous
 62
     6
 48
0.75
100
AcDbVertex
100
AcDb2dVertex
 10
-1234.663906
 20
-164.857839
 30
0.0
 40
0.0
 41
0.0
  0
SEQEND
  5
3B0
100
AcDbEntity
  8
0
  0
POLYLINE
  5
3B1
100
AcDbEntity
  8
1
  6
Continuous
 62
     6
 48
0.75
100
AcDb2dPolyline
 66
     1
 10
0.0
 20
0.0
 30
0.0
 70
   128
  0
VERTEX
  5
3B2
100
AcDbEntity
  8
1
  6
Continuous
 62
     6
 48
0.75
100
AcDbVertex
100
AcDb2dVertex
 10
-1143.973906
 20
-55.427839
 30
0.0
 40
0.0
 41
0.0
  0
VERTEX
  5
3B3
100
AcDbEntity
  8
1
  6
Continuous
 62
     6
 48
0.75
100
AcDbVertex
100
AcDb2dVertex
 10
-1143.973906
 20
-56.017839
 30
0.0
 40
0.0
 41
0.0
  0
VERTEX
  5
3B4
100
AcDbEntity
  8
1
  6
Continuous
 62
     6
 48
0.75
100
AcDbVertex
100
AcDb2dVertex
 10
-1143.973906
 20
-56.557839
 30
0.0
 40
0.0
 41
0.0
  0
VERTEX
  5
3B5
100
AcDbEntity
  8
1
  6
Continuous
 62
     6
 48
0.75
100
AcDbVertex
100
AcDb2dVertex
 10
-1143.973906
 20
-57.027839
 30
0.0
 40
0.0
 41
0.0
  0
VERTEX
  5
3B6
100
AcDbEntity
  8
1
  6
Continuous
 62
     6
 48
0.75
100
AcDbVertex
100
AcDb2dVertex
 10
-1143.973906
 20
-57.427839
 30
0.0
 40
0.0
 41
0.0
  0
VERTEX
  5
3B7
100
AcDbEntity
  8
1
  6
Continuous
 62
     6
 48
0.75
100
AcDbVertex
100
AcDb2dVertex
 10
-1143.973906
 20
-57.777839
 30
0.0
 40
0.0
 41
0.0
  0
VERTEX
  5
3B8
100
AcDbEntity
  8
1
  6
Continuous
 62
     6
 48
0.75
100
AcDbVertex
100
AcDb2dVertex
 10
-1143.973906
 20
-58.057839
 30
0.0
 40
0.0
 41
0.0
  0
VERTEX
  5
3B9
100
AcDbEntity
  8
1
  6
Continuous
 62
     6
 48
0.75
100
AcDbVertex
100
AcDb2dVertex
 10
-1143.973906
 20
-58.277839
 30
0.0
 40
0.0
 41
0.0
  0
VERTEX
  5
3BA
100
AcDbEntity
  8
1
  6
Continuous
 62
     6
 48
0.75
100
AcDbVertex
100
AcDb2dVertex
 10
-1143.973906
 20
-58.427839
 30
0.0
 40
0.0
 41
0.0
  0
VERTEX
  5
3BB
100
AcDbEntity
  8
1
  6
Continuous
 62
     6
 48
0.75
100
AcDbVertex
100
AcDb2dVertex
 10
-1143.973906
 20
-58.527839
 30
0.0
 40
0.0
 41
0.0
  0
VERTEX
  5
3BC
100
AcDbEntity
  8
1
  6
Continuous
 62
     6
 48
0.75
100
AcDbVertex
100
AcDb2dVertex
 10
-1143.973906
 20
-58.557839
 30
0.0
 40
0.0
 41
0.0
  0
VERTEX
  5
3BD
100
AcDbEntity
  8
1
  6
Continuous
 62
     6
 48
0.75
100
AcDbVertex
100
AcDb2dVertex
 10
-1146.523906
 20
-60.917839
 30
0.0
 40
0.0
 41
0.0
  0
VERTEX
  5
3BE
100
AcDbEntity
  8
1
  6
Continuous
 62
     6
 48
0.75
100
AcDbVertex
100
AcDb2dVertex
 10
-1149.393906
 20
-64.437839
 30
0.0
 40
0.0
 41
0.0
  0
VERTEX
  5
3BF
100
AcDbEntity
  8
1
  6
Continuous
 62
     6
 48
0.75
100
AcDbVertex
100
AcDb2dVertex
 10
-1152.563906
 20
-69.137839
 30
0.0
 40
0.0
 41
0.0
  0
VERTEX
  5
3C0
100
AcDbEntity
  8
1
  6
Continuous
 62
     6
 48
0.75
100
AcDbVertex
100
AcDb2dVertex
 10
-1156.043906
 20
-74.987839
 30
0.0
 40
0.0
 41
0.0
  0
VERTEX
  5
3C1
100
AcDbEntity
  8
1
  6
Continuous
 62
     6
 48
0.75
100
AcDbVertex
100
AcDb2dVertex
 10
-1159.833906
 20
-82.017839
 30
0.0
 40
0.0
 41
0.0
  0
VERTEX
  5
3C2
100
AcDbEntity
  8
1
  6
Continuous
 62
     6
 48
0.75
100
AcDbVertex
100
AcDb2dVertex
 10
-1163.933906
 20
-90.207839
 30
0.0
 40
0.0
 41
0.0
  0
VERTEX
  5
3C3
100
AcDbEntity
  8
1
  6
Continuous
 62
     6
 48
0.75
100
AcDbVertex
100
AcDb2dVertex
 10
-1168.343906
 20
-99.567839
 30
0.0
 40
0.0
 41
0.0
  0
VERTEX
  5
3C4
100
AcDbEntity
  8
1
  6
Continuous
 62
     6
 48
0.75
100
AcDbVertex
100
AcDb2dVertex
 10
-1173.063906
 20
-110.087839
 30
0.0
 40
0.0
 41
0.0
  0
VERTEX
  5
3C5
100
AcDbEntity
  8
1
  6
Continuous
 62
     6
 48
0.75
100
AcDbVertex
100
AcDb2dVertex
 10
-1178.083906
 20
-121.777839
 30
0.0
 40
0.0
 41
0.0
  0
VERTEX
  5
3C6
100
AcDbEntity
  8
1
  6
Continuous
 62
     6
 48
0.75
100
AcDbVertex
100
AcDb2dVertex
 10
-1183.423906
 20
-134.637839
 30
0.0
 40
0.0
 41
0.0
  0
VERTEX
  5
3C7
100
AcDbEntity
  8
1
  6
Continuous
 62
     6
 48
0.75
100
AcDbVertex
100
AcDb2dVertex
 10
-1226.663906
 20
-164.857839
 30
0.0
 40
0.0
 41
0.0
  0
SEQEND
  5
3C8
100
AcDbEntity
  8
0
  0
POLYLINE
  5
3C9
100
AcDbEntity
  8
1
  6
Continuous
 62
     6
 48
0.75
100
AcDb2dPolyline
 66
     1
 10
0.0
 20
0.0
 30
0.0
 70
   128
  0
VERTEX
  5
3CA
100
AcDbEntity
  8
1
  6
Continuous
 62
     6
 48
0.75
100
AcDbVertex
100
AcDb2dVertex
 10
-1329.433906
 20
-61.167839
 30
0.0
 40
0.0
 41
0.0
  0
VERTEX
  5
3CB
100
AcDbEntity
  8
1
  6
Continuous
 62
     6
 48
0.75
100
AcDbVertex
100
AcDb2dVertex
 10
-1329.433906
 20
-61.737839
 30
0.0
 40
0.0
 41
0.0
  0
VERTEX
  5
3CC
100
AcDbEntity
  8
1
  6
Continuous
 62
     6
 48
0.75
100
AcDbVertex
100
AcDb2dVertex
 10
-1329.433906
 20
-62.247839
 30
0.0
 40
0.0
 41
0.0
  0
VERTEX
  5
3CD
100
AcDbEntity
  8
1
  6
Continuous
 62
     6
 48
0.75
100
AcDbVertex
100
AcDb2dVertex
 10
-1329.433906
 20
-62.697839
 30
0.0
 40
0.0
 41
0.0
  0
VERTEX
  5
3CE
100
AcDbEntity
  8
1
  6
Continuous
 62
     6
 48
0.75
100
AcDbVertex
100
AcDb2dVertex
 10
-1329.433906
 20
-63.087839
 30
0.0
 40
0.0
 41
0.0
  0
VERTEX
  5
3CF
100
AcDbEntity
  8
1
  6
Continuous
 62
     6
 48
0.75
100
AcDbVertex
100
AcDb2dVertex
 10
-1329.433906
 20
-63.417839
 30
0.0
 40
0.0
 41
0.0
  0
VERTEX
  5
3D0
100
AcDbEntity
  8
1
  6
Continuous
 62
     6
 48
0.75
100
AcDbVertex
100
AcDb2dVertex
 10
-1329.433906
 20
-63.687839
 30
0.0
 40
0.0
 41
0.0
  0
VERTEX
  5
3D1
100
AcDbEntity
  8
1
  6
Continuous
 62
     6
 48
0.75
100
AcDbVertex
100
AcDb2dVertex
 10
-1329.433906
 20
-63.897839
 30
0.0
 40
0.0
 41
0.0
  0
VERTEX
  5
3D2
100
AcDbEntity
  8
1
  6
Continuous
 62
     6
 48
0.75
100
AcDbVertex
100
AcDb2dVertex
 10
-1329.433906
 20
-64.047839
 30
0.0
 40
0.0
 41
0.0
  0
VERTEX
  5
3D3
100
AcDbEntity
  8
1
  6
Continuous
 62
     6
 48
0.75
100
AcDbVertex
100
AcDb2dVertex
 10
-1329.433906
 20
-64.137839
 30
0.0
 40
0.0
 41
0.0
  0
VERTEX
  5
3D4
100
AcDbEntity
  8
1
  6
Continuous
 62
     6
 48
0.75
100
AcDbVertex
100
AcDb2dVertex
 10
-1329.433906
 20
-64.167839
 30
0.0
 40
0.0
 41
0.0
  0
VERTEX
  5
3D5
100
AcDbEntity
  8
1
  6
Continuous
 62
     6
 48
0.75
100
AcDbVertex
100
AcDb2dVertex
 10
-1328.003906
 20
-65.957839
 30
0.0
 40
0.0
 41
0.0
  0
VERTEX
  5
3D6
100
AcDbEntity
  8
1
  6
Continuous
 62
     6
 48
0.75
100
AcDbVertex
100
AcDb2dVertex
 10
-1326.103906
 20
-68.917839
 30
0.0
 40
0.0
 41
0.0
  0
VERTEX
  5
3D7
100
AcDbEntity
  8
1
  6
Continuous
 62
     6
 48
0.75
100
AcDbVertex
100
AcDb2dVertex
 10
-1323.743906
 20
-73.057839
 30
0.0
 40
0.0
 41
0.0
  0
VERTEX
  5
3D8
100
AcDbEntity
  8
1
  6
Continuous
 62
     6
 48
0.75
100
AcDbVertex
100
AcDb2dVertex
 10
-1320.923906
 20
-78.377839
 30
0.0
 40
0.0
 41
0.0
  0
VERTEX
  5
3D9
100
AcDbEntity
  8
1
  6
Continuous
 62
     6
 48
0.75
100
AcDbVertex
100
AcDb2dVertex
 10
-1317.633906
 20
-84.877839
 30
0.0
 40
0.0
 41
0.0
  0
VERTEX
  5
3DA
100
AcDbEntity
  8
1
  6
Continuous
 62
     6
 48
0.75
100
AcDbVertex
100
AcDb2dVertex
 10
-1313.893906
 20
-92.547839
 30
0.0
 40
0.0
 41
0.0
  0
VERTEX
  5
3DB
100
AcDbEntity
  8
1
  6
Continuous
 62
     6
 48
0.75
100
AcDbVertex
100
AcDb2dVertex
 10
-1309.673906
 20
-101.397839
 30
0.0
 40
0.0
 41
0.0
  0
VERTEX
  5
3DC
100
AcDbEntity
  8
1
  6
Continuous
 62
     6
 48
0.75
100
AcDbVertex
100
AcDb2dVertex
 10
-1304.993906
 20
-111.417839
 30
0.0
 40
0.0
 41
0.0
  0
VERTEX
  5
3DD
100
AcDbEntity
  8
1
  6
Continuous
 62
     6
 48
0.75
100
AcDbVertex
100
AcDb2dVertex
 10
-1299.853906
 20
-122.617839
 30
0.0
 40
0.0
 41
0.0
  0
VERTEX
  5
3DE
100
AcDbEntity
  8
1
  6
Continuous
 62
     6
 48
0.75
100
AcDbVertex
100
AcDb2dVertex
 10
-1294.253906
 20
-134.997839
 30
0.0
 40
0.0
 41
0.0
  0
VERTEX
  5
3DF
100
AcDbEntity
  8
1
  6
Continuous
 62
     6
 48
0.75
100
AcDbVertex
100
AcDb2dVertex
 10
-1234.663906
 20
-164.857839
 30
0.0
 40
0.0
 41
0.0
  0
SEQEND
  5
3E0
100
AcDbEntity
  8
0
  0
POLYLINE
  5
3E1
100
AcDbEntity
  8
1
  6
Continuous
 62
     6
 48
0.75
100
AcDb2dPolyline
 66
     1
 10
0.0
 20
0.0
 30
0.0
 70
   128
  0
VERTEX
  5
3E2
100
AcDbEntity
  8
1
  6
Continuous
 62
     6
 48
0.75
100
AcDbVertex
100
AcDb2dVertex
 10
-1329.433906
 20
-64.167839
 30
0.0
 40
0.0
 41
0.0
  0
VERTEX
  5
3E3
100
AcDbEntity
  8
1
  6
Continuous
 62
     6
 48
0.75
100
AcDbVertex
100
AcDb2dVertex
 10
-1325.043906
 20
-70.737839
 30
0.0
 40
0.0
 41
0.0
  0
VERTEX
  5
3E4
100
AcDbEntity
  8
1
  6
Continuous
 62
     6
 48
0.75
100
AcDbVertex
100
AcDb2dVertex
 10
-1321.273906
 20
-77.707839
 30
0.0
 40
0.0
 41
0.0
  0
VERTEX
  5
3E5
100
AcDbEntity
  8
1
  6
Continuous
 62
     6
 48
0.75
100
AcDbVertex
100
AcDb2dVertex
 10
-1317.693906
 20
-84.767839
 30
0.0
 40
0.0
 41
0.0
  0
VERTEX
  5
3E6
100
AcDbEntity
  8
1
  6
Continuous
 62
     6
 48
0.75
100
AcDbVertex
100
AcDb2dVertex
 10
-1314.213906
 20
-91.877839
 30
0.0
 40
0.0
 41
0.0
  0
VERTEX
  5
3E7
100
AcDbEntity
  8
1
  6
Continuous
 62
     6
 48
0.75
100
AcDbVertex
100
AcDb2dVertex
 10
-1310.793906
 20
-99.027839
 30
0.0
 40
0.0
 41
0.0
  0
VERTEX
  5
3E8
100
AcDbEntity
  8
1
  6
Continuous
 62
     6
 48
0.75
100
AcDbVertex
100
AcDb2dVertex
 10
-1307.423906
 20
-106.187839
 30
0.0
 40
0.0
 41
0.0
  0
VERTEX
  5
3E9
100
AcDbEntity
  8
1
  6
Continuous
 62
     6
 48
0.75
100
AcDbVertex
100
AcDb2dVertex
 10
-1304.093906
 20
-113.377839
 30
0.0
 40
0.0
 41
0.0
  0
VERTEX
  5
3EA
100
AcDbEntity
  8
1
  6
Continuous
 62
     6
 48
0.75
100
AcDbVertex
100
AcDb2dVertex
 10
-1300.793906
 20
-120.567839
 30
0.0
 40
0.0
 41
0.0
  0
VERTEX
  5
3EB
100
AcDbEntity
  8
1
  6
Continuous
 62
     6
 48
0.75
100
AcDbVertex
100
AcDb2dVertex
 10
-1297.513906
 20
-127.777839
 30
0.0
 40
0.0
 41
0.0
  0
VERTEX
  5
3EC
100
AcDbEntity
  8
1
  6
Continuous
 62
     6
 48
0.75
100
AcDbVertex
100
AcDb2dVertex
 10
-1294.253906
 20
-134.997839
 30
0.0
 40
0.0
 41
0.0
  0
VERTEX
  5
3ED
100
AcDbEntity
  8
1
  6
Continuous
 62
     6
 48
0.75
100
AcDbVertex
100
AcDb2dVertex
 10
-1234.663906
 20
-164.857839
 30
0.0
 40
0.0
 41
0.0
  0
SEQEND
  5
3EE
100
AcDbEntity
  8
0
  0
POLYLINE
  5
3EF
100
AcDbEntity
  8
1
  6
Continuous
 62
     6
 48
0.75
100
AcDb2dPolyline
 66
     1
 10
0.0
 20
0.0
 30
0.0
 70
   128
  0
VERTEX
  5
3F0
100
AcDbEntity
  8
1
  6
Continuous
 62
     6
 48
0.75
100
AcDbVertex
100
AcDb2dVertex
 10
-1131.893906
 20
-61.167839
 30
0.0
 40
0.0
 41
0.0
  0
VERTEX
  5
3F1
100
AcDbEntity
  8
1
  6
Continuous
 62
     6
 48
0.75
100
AcDbVertex
100
AcDb2dVertex
 10
-1131.893906
 20
-61.737839
 30
0.0
 40
0.0
 41
0.0
  0
VERTEX
  5
3F2
100
AcDbEntity
  8
1
  6
Continuous
 62
     6
 48
0.75
100
AcDbVertex
100
AcDb2dVertex
 10
-1131.893906
 20
-62.247839
 30
0.0
 40
0.0
 41
0.0
  0
VERTEX
  5
3F3
100
AcDbEntity
  8
1
  6
Continuous
 62
     6
 48
0.75
100
AcDbVertex
100
AcDb2dVertex
 10
-1131.893906
 20
-62.697839
 30
0.0
 40
0.0
 41
0.0
  0
VERTEX
  5
3F4
100
AcDbEntity
  8
1
  6
Continuous
 62
     6
 48
0.75
100
AcDbVertex
100
AcDb2dVertex
 10
-1131.893906
 20
-63.087839
 30
0.0
 40
0.0
 41
0.0
  0
VERTEX
  5
3F5
100
AcDbEntity
  8
1
  6
Continuous
 62
     6
 48
0.75
100
AcDbVertex
100
AcDb2dVertex
 10
-1131.893906
 20
-63.417839
 30
0.0
 40
0.0
 41
0.0
  0
VERTEX
  5
3F6
100
AcDbEntity
  8
1
  6
Continuous
 62
     6
 48
0.75
100
AcDbVertex
100
AcDb2dVertex
 10
-1131.893906
 20
-63.687839
 30
0.0
 40
0.0
 41
0.0
  0
VERTEX
  5
3F7
100
AcDbEntity
  8
1
  6
Continuous
 62
     6
 48
0.75
100
AcDbVertex
100
AcDb2dVertex
 10
-1131.893906
 20
-63.897839
 30
0.0
 40
0.0
 41
0.0
  0
VERTEX
  5
3F8
100
AcDbEntity
  8
1
  6
Continuous
 62
     6
 48
0.75
100
AcDbVertex
100
AcDb2dVertex
 10
-1131.893906
 20
-64.047839
 30
0.0
 40
0.0
 41
0.0
  0
VERTEX
  5
3F9
100
AcDbEntity
  8
1
  6
Continuous
 62
     6
 48
0.75
100
AcDbVertex
100
AcDb2dVertex
 10
-1131.893906
 20
-64.137839
 30
0.0
 40
0.0
 41
0.0
  0
VERTEX
  5
3FA
100
AcDbEntity
  8
1
  6
Continuous
 62
     6
 48
0.75
100
AcDbVertex
100
AcDb2dVertex
 10
-1131.893906
 20
-64.167839
 30
0.0
 40
0.0
 41
0.0
  0
VERTEX
  5
3FB
100
AcDbEntity
  8
1
  6
Continuous
 62
     6
 48
0.75
100
AcDbVertex
100
AcDb2dVertex
 10
-1133.323906
 20
-65.957839
 30
0.0
 40
0.0
 41
0.0
  0
VERTEX
  5
3FC
100
AcDbEntity
  8
1
  6
Continuous
 62
     6
 48
0.75
100
AcDbVertex
100
AcDb2dVertex
 10
-1135.223906
 20
-68.917839
 30
0.0
 40
0.0
 41
0.0
  0
VERTEX
  5
3FD
100
AcDbEntity
  8
1
  6
Continuous
 62
     6
 48
0.75
100
AcDbVertex
100
AcDb2dVertex
 10
-1137.583906
 20
-73.057839
 30
0.0
 40
0.0
 41
0.0
  0
VERTEX
  5
3FE
100
AcDbEntity
  8
1
  6
Continuous
 62
     6
 48
0.75
100
AcDbVertex
100
AcDb2dVertex
 10
-1140.403906
 20
-78.377839
 30
0.0
 40
0.0
 41
0.0
  0
VERTEX
  5
3FF
100
AcDbEntity
  8
1
  6
Continuous
 62
     6
 48
0.75
100
AcDbVertex
100
AcDb2dVertex
 10
-1143.693906
 20
-84.877839
 30
0.0
 40
0.0
 41
0.0
  0
VERTEX
  5
400
100
AcDbEntity
  8
1
  6
Continuous
 62
     6
 48
0.75
100
AcDbVertex
100
AcDb2dVertex
 10
-1147.433906
 20
-92.547839
 30
0.0
 40
0.0
 41
0.0
  0
VERTEX
  5
401
100
AcDbEntity
  8
1
  6
Continuous
 62
     6
 48
0.75
100
AcDbVertex
100
AcDb2dVertex
 10
-1151.653906
 20
-101.397839
 30
0.0
 40
0.0
 41
0.0
  0
VERTEX
  5
402
100
AcDbEntity
  8
1
  6
Continuous
 62
     6
 48
0.75
100
AcDbVertex
100
AcDb2dVertex
 10
-1156.333906
 20
-111.417839
 30
0.0
 40
0.0
 41
0.0
  0
VERTEX
  5
403
100
AcDbEntity
  8
1
  6
Continuous
 62
     6
 48
0.75
100
AcDbVertex
100
AcDb2dVertex
 10
-1161.473906
 20
-122.617839
 30
0.0
 40
0.0
 41
0.0
  0
VERTEX
  5
404
100
AcDbEntity
  8
1
  6
Continuous
 62
     6
 48
0.75
100
AcDbVertex
100
AcDb2dVertex
 10
-1167.073906
 20
-134.997839
 30
0.0
 40
0.0
 41
0.0
  0
VERTEX
  5
405
100
AcDbEntity
  8
1
  6
Continuous
 62
     6
 48
0.75
100
AcDbVertex
100
AcDb2dVertex
 10
-1226.663906
 20
-164.857839
 30
0.0
 40
0.0
 41
0.0
  0
SEQEND
  5
406
100
AcDbEntity
  8
0
  0
POLYLINE
  5
407
100
AcDbEntity
  8
1
  6
Continuous
 62
     6
 48
0.75
100
AcDb2dPolyline
 66
     1
 10
0.0
 20
0.0
 30
0.0
 70
   128
  0
VERTEX
  5
408
100
AcDbEntity
  8
1
  6
Continuous
 62
     6
 48
0.75
100
AcDbVertex
100
AcDb2dVertex
 10
-1336.683906
 20
-65.557839
 30
0.0
 40
0.0
 41
0.0
  0
VERTEX
  5
409
100
AcDbEntity
  8
1
  6
Continuous
 62
     6
 48
0.75
100
AcDbVertex
100
AcDb2dVertex
 10
-1336.683906
 20
-66.127839
 30
0.0
 40
0.0
 41
0.0
  0
VERTEX
  5
40A
100
AcDbEntity
  8
1
  6
Continuous
 62
     6
 48
0.75
100
AcDbVertex
100
AcDb2dVertex
 10
-1336.683906
 20
-66.637839
 30
0.0
 40
0.0
 41
0.0
  0
VERTEX
  5
40B
100
AcDbEntity
  8
1
  6
Continuous
 62
     6
 48
0.75
100
AcDbVertex
100
AcDb2dVertex
 10
-1336.683906
 20
-67.087839
 30
0.0
 40
0.0
 41
0.0
  0
VERTEX
  5
40C
100
AcDbEntity
  8
1
  6
Continuous
 62
     6
 48
0.75
100
AcDbVertex
100
AcDb2dVertex
 10
-1336.683906
 20
-67.477839
 30
0.0
 40
0.0
 41
0.0
  0
VERTEX
  5
40D
100
AcDbEntity
  8
1
  6
Continuous
 62
     6
 48
0.75
100
AcDbVertex
100
AcDb2dVertex
 10
-1336.683906
 20
-67.807839
 30
0.0
 40
0.0
 41
0.0
  0
VERTEX
  5
40E
100
AcDbEntity
  8
1
  6
Continuous
 62
     6
 48
0.75
100
AcDbVertex
100
AcDb2dVertex
 10
-1336.683906
 20
-68.077839
 30
0.0
 40
0.0
 41
0.0
  0
VERTEX
  5
40F
100
AcDbEntity
  8
1
  6
Continuous
 62
     6
 48
0.75
100
AcDbVertex
100
AcDb2dVertex
 10
-1336.683906
 20
-68.287839
 30
0.0
 40
0.0
 41
0.0
  0
VERTEX
  5
410
100
AcDbEntity
  8
1
  6
Continuous
 62
     6
 48
0.75
100
AcDbVertex
100
AcDb2dVertex
 10
-1336.683906
 20
-68.437839
 30
0.0
 40
0.0
 41
0.0
  0
VERTEX
  5
411
100
AcDbEntity
  8
1
  6
Continuous
 62
     6
 48
0.75
100
AcDbVertex
100
AcDb2dVertex
 10
-1336.683906
 20
-68.527839
 30
0.0
 40
0.0
 41
0.0
  0
VERTEX
  5
412
100
AcDbEntity
  8
1
  6
Continuous
 62
     6
 48
0.75
100
AcDbVertex
100
AcDb2dVertex
 10
-1336.683906
 20
-68.557839
 30
0.0
 40
0.0
 41
0.0
  0
VERTEX
  5
413
100
AcDbEntity
  8
1
  6
Continuous
 62
     6
 48
0.75
100
AcDbVertex
100
AcDb2dVertex
 10
-1335.863906
 20
-69.937839
 30
0.0
 40
0.0
 41
0.0
  0
VERTEX
  5
414
100
AcDbEntity
  8
1
  6
Continuous
 62
     6
 48
0.75
100
AcDbVertex
100
AcDb2dVertex
 10
-1334.603906
 20
-72.497839
 30
0.0
 40
0.0
 41
0.0
  0
VERTEX
  5
415
100
AcDbEntity
  8
1
  6
Continuous
 62
     6
 48
0.75
100
AcDbVertex
100
AcDb2dVertex
 10
-1332.893906
 20
-76.217839
 30
0.0
 40
0.0
 41
0.0
  0
VERTEX
  5
416
100
AcDbEntity
  8
1
  6
Continuous
 62
     6
 48
0.75
100
AcDbVertex
100
AcDb2dVertex
 10
-1330.753906
 20
-81.107839
 30
0.0
 40
0.0
 41
0.0
  0
VERTEX
  5
417
100
AcDbEntity
  8
1
  6
Continuous
 62
     6
 48
0.75
100
AcDbVertex
100
AcDb2dVertex
 10
-1328.163906
 20
-87.167839
 30
0.0
 40
0.0
 41
0.0
  0
VERTEX
  5
418
100
AcDbEntity
  8
1
  6
Continuous
 62
     6
 48
0.75
100
AcDbVertex
100
AcDb2dVertex
 10
-1325.133906
 20
-94.397839
 30
0.0
 40
0.0
 41
0.0
  0
VERTEX
  5
419
100
AcDbEntity
  8
1
  6
Continuous
 62
     6
 48
0.75
100
AcDbVertex
100
AcDb2dVertex
 10
-1321.663906
 20
-102.797839
 30
0.0
 40
0.0
 41
0.0
  0
VERTEX
  5
41A
100
AcDbEntity
  8
1
  6
Continuous
 62
     6
 48
0.75
100
AcDbVertex
100
AcDb2dVertex
 10
-1317.743906
 20
-112.357839
 30
0.0
 40
0.0
 41
0.0
  0
VERTEX
  5
41B
100
AcDbEntity
  8
1
  6
Continuous
 62
     6
 48
0.75
100
AcDbVertex
100
AcDb2dVertex
 10
-1313.393906
 20
-123.097839
 30
0.0
 40
0.0
 41
0.0
  0
VERTEX
  5
41C
100
AcDbEntity
  8
1
  6
Continuous
 62
     6
 48
0.75
100
AcDbVertex
100
AcDb2dVertex
 10
-1308.593906
 20
-134.997839
 30
0.0
 40
0.0
 41
0.0
  0
VERTEX
  5
41D
100
AcDbEntity
  8
1
  6
Continuous
 62
     6
 48
0.75
100
AcDbVertex
100
AcDb2dVertex
 10
-1234.663906
 20
-164.857839
 30
0.0
 40
0.0
 41
0.0
  0
SEQEND
  5
41E
100
AcDbEntity
  8
0
  0
POLYLINE
  5
41F
100
AcDbEntity
  8
1
  6
Continuous
 62
     6
 48
0.75
100
AcDb2dPolyline
 66
     1
 10
0.0
 20
0.0
 30
0.0
 70
   128
  0
VERTEX
  5
420
100
AcDbEntity
  8
1
  6
Continuous
 62
     6
 48
0.75
100
AcDbVertex
100
AcDb2dVertex
 10
-1336.683906
 20
-68.557839
 30
0.0
 40
0.0
 41
0.0
  0
VERTEX
  5
421
100
AcDbEntity
  8
1
  6
Continuous
 62
     6
 48
0.75
100
AcDbVertex
100
AcDb2dVertex
 10
-1333.443906
 20
-74.997839
 30
0.0
 40
0.0
 41
0.0
  0
VERTEX
  5
422
100
AcDbEntity
  8
1
  6
Continuous
 62
     6
 48
0.75
100
AcDbVertex
100
AcDb2dVertex
 10
-1330.533906
 20
-81.597839
 30
0.0
 40
0.0
 41
0.0
  0
VERTEX
  5
423
100
AcDbEntity
  8
1
  6
Continuous
 62
     6
 48
0.75
100
AcDbVertex
100
AcDb2dVertex
 10
-1327.703906
 20
-88.237839
 30
0.0
 40
0.0
 41
0.0
  0
VERTEX
  5
424
100
AcDbEntity
  8
1
  6
Continuous
 62
     6
 48
0.75
100
AcDbVertex
100
AcDb2dVertex
 10
-1324.923906
 20
-94.897839
 30
0.0
 40
0.0
 41
0.0
  0
VERTEX
  5
425
100
AcDbEntity
  8
1
  6
Continuous
 62
     6
 48
0.75
100
AcDbVertex
100
AcDb2dVertex
 10
-1322.163906
 20
-101.567839
 30
0.0
 40
0.0
 41
0.0
  0
VERTEX
  5
426
100
AcDbEntity
  8
1
  6
Continuous
 62
     6
 48
0.75
100
AcDbVertex
100
AcDb2dVertex
 10
-1319.423906
 20
-108.237839
 30
0.0
 40
0.0
 41
0.0
  0
VERTEX
  5
427
100
AcDbEntity
  8
1
  6
Continuous
 62
     6
 48
0.75
100
AcDbVertex
100
AcDb2dVertex
 10
-1316.703906
 20
-114.927839
 30
0.0
 40
0.0
 41
0.0
  0
VERTEX
  5
428
100
AcDbEntity
  8
1
  6
Continuous
 62
     6
 48
0.75
100
AcDbVertex
100
AcDb2dVertex
 10
-1313.993906
 20
-121.607839
 30
0.0
 40
0.0
 41
0.0
  0
VERTEX
  5
429
100
AcDbEntity
  8
1
  6
Continuous
 62
     6
 48
0.75
100
AcDbVertex
100
AcDb2dVertex
 10
-1311.283906
 20
-128.307839
 30
0.0
 40
0.0
 41
0.0
  0
VERTEX
  5
42A
100
AcDbEntity
  8
1
  6
Continuous
 62
     6
 48
0.75
100
AcDbVertex
100
AcDb2dVertex
 10
-1308.593906
 20
-134.997839
 30
0.0
 40
0.0
 41
0.0
  0
VERTEX
  5
42B
100
AcDbEntity
  8
1
  6
Continuous
 62
     6
 48
0.75
100
AcDbVertex
100
AcDb2dVertex
 10
-1234.663906
 20
-164.857839
 30
0.0
 40
0.0
 41
0.0
  0
SEQEND
  5
42C
100
AcDbEntity
  8
0
  0
POLYLINE
  5
42D
100
AcDbEntity
  8
1
  6
Continuous
 62
     6
 48
0.75
100
AcDb2dPolyline
 66
     1
 10
0.0
 20
0.0
 30
0.0
 70
   128
  0
VERTEX
  5
42E
100
AcDbEntity
  8
1
  6
Continuous
 62
     6
 48
0.75
100
AcDbVertex
100
AcDb2dVertex
 10
-1124.643906
 20
-65.557839
 30
0.0
 40
0.0
 41
0.0
  0
VERTEX
  5
42F
100
AcDbEntity
  8
1
  6
Continuous
 62
     6
 48
0.75
100
AcDbVertex
100
AcDb2dVertex
 10
-1124.643906
 20
-66.127839
 30
0.0
 40
0.0
 41
0.0
  0
VERTEX
  5
430
100
AcDbEntity
  8
1
  6
Continuous
 62
     6
 48
0.75
100
AcDbVertex
100
AcDb2dVertex
 10
-1124.643906
 20
-66.637839
 30
0.0
 40
0.0
 41
0.0
  0
VERTEX
  5
431
100
AcDbEntity
  8
1
  6
Continuous
 62
     6
 48
0.75
100
AcDbVertex
100
AcDb2dVertex
 10
-1124.643906
 20
-67.087839
 30
0.0
 40
0.0
 41
0.0
  0
VERTEX
  5
432
100
AcDbEntity
  8
1
  6
Continuous
 62
     6
 48
0.75
100
AcDbVertex
100
AcDb2dVertex
 10
-1124.643906
 20
-67.477839
 30
0.0
 40
0.0
 41
0.0
  0
VERTEX
  5
433
100
AcDbEntity
  8
1
  6
Continuous
 62
     6
 48
0.75
100
AcDbVertex
100
AcDb2dVertex
 10
-1124.643906
 20
-67.807839
 30
0.0
 40
0.0
 41
0.0
  0
VERTEX
  5
434
100
AcDbEntity
  8
1
  6
Continuous
 62
     6
 48
0.75
100
AcDbVertex
100
AcDb2dVertex
 10
-1124.643906
 20
-68.077839
 30
0.0
 40
0.0
 41
0.0
  0
VERTEX
  5
435
100
AcDbEntity
  8
1
  6
Continuous
 62
     6
 48
0.75
100
AcDbVertex
100
AcDb2dVertex
 10
-1124.643906
 20
-68.287839
 30
0.0
 40
0.0
 41
0.0
  0
VERTEX
  5
436
100
AcDbEntity
  8
1
  6
Continuous
 62
     6
 48
0.75
100
AcDbVertex
100
AcDb2dVertex
 10
-1124.643906
 20
-68.437839
 30
0.0
 40
0.0
 41
0.0
  0
VERTEX
  5
437
100
AcDbEntity
  8
1
  6
Continuous
 62
     6
 48
0.75
100
AcDbVertex
100
AcDb2dVertex
 10
-1124.643906
 20
-68.527839
 30
0.0
 40
0.0
 41
0.0
  0
VERTEX
  5
438
100
AcDbEntity
  8
1
  6
Continuous
 62
     6
 48
0.75
100
AcDbVertex
100
AcDb2dVertex
 10
-1124.643906
 20
-68.557839
 30
0.0
 40
0.0
 41
0.0
  0
VERTEX
  5
439
100
AcDbEntity
  8
1
  6
Continuous
 62
     6
 48
0.75
100
AcDbVertex
100
AcDb2dVertex
 10
-1125.463906
 20
-69.937839
 30
0.0
 40
0.0
 41
0.0
  0
VERTEX
  5
43A
100
AcDbEntity
  8
1
  6
Continuous
 62
     6
 48
0.75
100
AcDbVertex
100
AcDb2dVertex
 10
-1126.723906
 20
-72.497839
 30
0.0
 40
0.0
 41
0.0
  0
VERTEX
  5
43B
100
AcDbEntity
  8
1
  6
Continuous
 62
     6
 48
0.75
100
AcDbVertex
100
AcDb2dVertex
 10
-1128.433906
 20
-76.217839
 30
0.0
 40
0.0
 41
0.0
  0
VERTEX
  5
43C
100
AcDbEntity
  8
1
  6
Continuous
 62
     6
 48
0.75
100
AcDbVertex
100
AcDb2dVertex
 10
-1130.573906
 20
-81.107839
 30
0.0
 40
0.0
 41
0.0
  0
VERTEX
  5
43D
100
AcDbEntity
  8
1
  6
Continuous
 62
     6
 48
0.75
100
AcDbVertex
100
AcDb2dVertex
 10
-1133.163906
 20
-87.167839
 30
0.0
 40
0.0
 41
0.0
  0
VERTEX
  5
43E
100
AcDbEntity
  8
1
  6
Continuous
 62
     6
 48
0.75
100
AcDbVertex
100
AcDb2dVertex
 10
-1136.193906
 20
-94.397839
 30
0.0
 40
0.0
 41
0.0
  0
VERTEX
  5
43F
100
AcDbEntity
  8
1
  6
Continuous
 62
     6
 48
0.75
100
AcDbVertex
100
AcDb2dVertex
 10
-1139.663906
 20
-102.797839
 30
0.0
 40
0.0
 41
0.0
  0
VERTEX
  5
440
100
AcDbEntity
  8
1
  6
Continuous
 62
     6
 48
0.75
100
AcDbVertex
100
AcDb2dVertex
 10
-1143.583906
 20
-112.357839
 30
0.0
 40
0.0
 41
0.0
  0
VERTEX
  5
441
100
AcDbEntity
  8
1
  6
Continuous
 62
     6
 48
0.75
100
AcDbVertex
100
AcDb2dVertex
 10
-1147.933906
 20
-123.097839
 30
0.0
 40
0.0
 41
0.0
  0
VERTEX
  5
442
100
AcDbEntity
  8
1
  6
Continuous
 62
     6
 48
0.75
100
AcDbVertex
100
AcDb2dVertex
 10
-1152.733906
 20
-134.997839
 30
0.0
 40
0.0
 41
0.0
  0
VERTEX
  5
443
100
AcDbEntity
  8
1
  6
Continuous
 62
     6
 48
0.75
100
AcDbVertex
100
AcDb2dVertex
 10
-1226.663906
 20
-164.857839
 30
0.0
 40
0.0
 41
0.0
  0
SEQEND
  5
444
100
AcDbEntity
  8
0
  0
POLYLINE
  5
445
100
AcDbEntity
  8
1
  6
Continuous
 62
     6
 48
0.75
100
AcDb2dPolyline
 66
     1
 10
0.0
 20
0.0
 30
0.0
 70
   128
  0
VERTEX
  5
446
100
AcDbEntity
  8
1
  6
Continuous
 62
     6
 48
0.75
100
AcDbVertex
100
AcDb2dVertex
 10
-1340.223906
 20
-69.177839
 30
0.0
 40
0.0
 41
0.0
  0
VERTEX
  5
447
100
AcDbEntity
  8
1
  6
Continuous
 62
     6
 48
0.75
100
AcDbVertex
100
AcDb2dVertex
 10
-1340.223906
 20
-69.747839
 30
0.0
 40
0.0
 41
0.0
  0
VERTEX
  5
448
100
AcDbEntity
  8
1
  6
Continuous
 62
     6
 48
0.75
100
AcDbVertex
100
AcDb2dVertex
 10
-1340.223906
 20
-70.257839
 30
0.0
 40
0.0
 41
0.0
  0
VERTEX
  5
449
100
AcDbEntity
  8
1
  6
Continuous
 62
     6
 48
0.75
100
AcDbVertex
100
AcDb2dVertex
 10
-1340.223906
 20
-70.707839
 30
0.0
 40
0.0
 41
0.0
  0
VERTEX
  5
44A
100
AcDbEntity
  8
1
  6
Continuous
 62
     6
 48
0.75
100
AcDbVertex
100
AcDb2dVertex
 10
-1340.223906
 20
-71.097839
 30
0.0
 40
0.0
 41
0.0
  0
VERTEX
  5
44B
100
AcDbEntity
  8
1
  6
Continuous
 62
     6
 48
0.75
100
AcDbVertex
100
AcDb2dVertex
 10
-1340.223906
 20
-71.427839
 30
0.0
 40
0.0
 41
0.0
  0
VERTEX
  5
44C
100
AcDbEntity
  8
1
  6
Continuous
 62
     6
 48
0.75
100
AcDbVertex
100
AcDb2dVertex
 10
-1340.223906
 20
-71.697839
 30
0.0
 40
0.0
 41
0.0
  0
VERTEX
  5
44D
100
AcDbEntity
  8
1
  6
Continuous
 62
     6
 48
0.75
100
AcDbVertex
100
AcDb2dVertex
 10
-1340.223906
 20
-71.907839
 30
0.0
 40
0.0
 41
0.0
  0
VERTEX
  5
44E
100
AcDbEntity
  8
1
  6
Continuous
 62
     6
 48
0.75
100
AcDbVertex
100
AcDb2dVertex
 10
-1340.223906
 20
-72.057839
 30
0.0
 40
0.0
 41
0.0
  0
VERTEX
  5
44F
100
AcDbEntity
  8
1
  6
Continuous
 62
     6
 48
0.75
100
AcDbVertex
100
AcDb2dVertex
 10
-1340.223906
 20
-72.147839
 30
0.0
 40
0.0
 41
0.0
  0
VERTEX
  5
450
100
AcDbEntity
  8
1
  6
Continuous
 62
     6
 48
0.75
100
AcDbVertex
100
AcDb2dVertex
 10
-1340.223906
 20
-72.177839
 30
0.0
 40
0.0
 41
0.0
  0
VERTEX
  5
451
100
AcDbEntity
  8
1
  6
Continuous
 62
     6
 48
0.75
100
AcDbVertex
100
AcDb2dVertex
 10
-1339.473906
 20
-73.277839
 30
0.0
 40
0.0
 41
0.0
  0
VERTEX
  5
452
100
AcDbEntity
  8
1
  6
Continuous
 62
     6
 48
0.75
100
AcDbVertex
100
AcDb2dVertex
 10
-1338.423906
 20
-75.527839
 30
0.0
 40
0.0
 41
0.0
  0
VERTEX
  5
453
100
AcDbEntity
  8
1
  6
Continuous
 62
     6
 48
0.75
100
AcDbVertex
100
AcDb2dVertex
 10
-1337.083906
 20
-78.937839
 30
0.0
 40
0.0
 41
0.0
  0
VERTEX
  5
454
100
AcDbEntity
  8
1
  6
Continuous
 62
     6
 48
0.75
100
AcDbVertex
100
AcDb2dVertex
 10
-1335.433906
 20
-83.487839
 30
0.0
 40
0.0
 41
0.0
  0
VERTEX
  5
455
100
AcDbEntity
  8
1
  6
Continuous
 62
     6
 48
0.75
100
AcDbVertex
100
AcDb2dVertex
 10
-1333.483906
 20
-89.197839
 30
0.0
 40
0.0
 41
0.0
  0
VERTEX
  5
456
100
AcDbEntity
  8
1
  6
Continuous
 62
     6
 48
0.75
100
AcDbVertex
100
AcDb2dVertex
 10
-1331.243906
 20
-96.057839
 30
0.0
 40
0.0
 41
0.0
  0
VERTEX
  5
457
100
AcDbEntity
  8
1
  6
Continuous
 62
     6
 48
0.75
100
AcDbVertex
100
AcDb2dVertex
 10
-1328.703906
 20
-104.057839
 30
0.0
 40
0.0
 41
0.0
  0
VERTEX
  5
458
100
AcDbEntity
  8
1
  6
Continuous
 62
     6
 48
0.75
100
AcDbVertex
100
AcDb2dVertex
 10
-1325.863906
 20
-113.227839
 30
0.0
 40
0.0
 41
0.0
  0
VERTEX
  5
459
100
AcDbEntity
  8
1
  6
Continuous
 62
     6
 48
0.75
100
AcDbVertex
100
AcDb2dVertex
 10
-1322.723906
 20
-123.537839
 30
0.0
 40
0.0
 41
0.0
  0
VERTEX
  5
45A
100
AcDbEntity
  8
1
  6
Continuous
 62
     6
 48
0.75
100
AcDbVertex
100
AcDb2dVertex
 10
-1319.283906
 20
-134.997839
 30
0.0
 40
0.0
 41
0.0
  0
VERTEX
  5
45B
100
AcDbEntity
  8
1
  6
Continuous
 62
     6
 48
0.75
100
AcDbVertex
100
AcDb2dVertex
 10
-1234.663906
 20
-164.857839
 30
0.0
 40
0.0
 41
0.0
  0
SEQEND
  5
45C
100
AcDbEntity
  8
0
  0
POLYLINE
  5
45D
100
AcDbEntity
  8
1
  6
Continuous
 62
     6
 48
0.75
100
AcDb2dPolyline
 66
     1
 10
0.0
 20
0.0
 30
0.0
 70
   128
  0
VERTEX
  5
45E
100
AcDbEntity
  8
1
  6
Continuous
 62
     6
 48
0.75
100
AcDbVertex
100
AcDb2dVertex
 10
-1340.223906
 20
-72.177839
 30
0.0
 40
0.0
 41
0.0
  0
VERTEX
  5
45F
100
AcDbEntity
  8
1
  6
Continuous
 62
     6
 48
0.75
100
AcDbVertex
100
AcDb2dVertex
 10
-1337.383906
 20
-78.137839
 30
0.0
 40
0.0
 41
0.0
  0
VERTEX
  5
460
100
AcDbEntity
  8
1
  6
Continuous
 62
     6
 48
0.75
100
AcDbVertex
100
AcDb2dVertex
 10
-1335.123906
 20
-84.377839
 30
0.0
 40
0.0
 41
0.0
  0
VERTEX
  5
461
100
AcDbEntity
  8
1
  6
Continuous
 62
     6
 48
0.75
100
AcDbVertex
100
AcDb2dVertex
 10
-1333.003906
 20
-90.657839
 30
0.0
 40
0.0
 41
0.0
  0
VERTEX
  5
462
100
AcDbEntity
  8
1
  6
Continuous
 62
     6
 48
0.75
100
AcDbVertex
100
AcDb2dVertex
 10
-1330.953906
 20
-96.957839
 30
0.0
 40
0.0
 41
0.0
  0
VERTEX
  5
463
100
AcDbEntity
  8
1
  6
Continuous
 62
     6
 48
0.75
100
AcDbVertex
100
AcDb2dVertex
 10
-1328.943906
 20
-103.277839
 30
0.0
 40
0.0
 41
0.0
  0
VERTEX
  5
464
100
AcDbEntity
  8
1
  6
Continuous
 62
     6
 48
0.75
100
AcDbVertex
100
AcDb2dVertex
 10
-1326.973906
 20
-109.617839
 30
0.0
 40
0.0
 41
0.0
  0
VERTEX
  5
465
100
AcDbEntity
  8
1
  6
Continuous
 62
     6
 48
0.75
100
AcDbVertex
100
AcDb2dVertex
 10
-1325.023906
 20
-115.947839
 30
0.0
 40
0.0
 41
0.0
  0
VERTEX
  5
466
100
AcDbEntity
  8
1
  6
Continuous
 62
     6
 48
0.75
100
AcDbVertex
100
AcDb2dVertex
 10
-1323.093906
 20
-122.297839
 30
0.0
 40
0.0
 41
0.0
  0
VERTEX
  5
467
100
AcDbEntity
  8
1
  6
Continuous
 62
     6
 48
0.75
100
AcDbVertex
100
AcDb2dVertex
 10
-1321.183906
 20
-128.647839
 30
0.0
 40
0.0
 41
0.0
  0
VERTEX
  5
468
100
AcDbEntity
  8
1
  6
Continuous
 62
     6
 48
0.75
100
AcDbVertex
100
AcDb2dVertex
 10
-1319.283906
 20
-134.997839
 30
0.0
 40
0.0
 41
0.0
  0
VERTEX
  5
469
100
AcDbEntity
  8
1
  6
Continuous
 62
     6
 48
0.75
100
AcDbVertex
100
AcDb2dVertex
 10
-1234.663906
 20
-164.857839
 30
0.0
 40
0.0
 41
0.0
  0
SEQEND
  5
46A
100
AcDbEntity
  8
0
  0
POLYLINE
  5
46B
100
AcDbEntity
  8
1
  6
Continuous
 62
     6
 48
0.75
100
AcDb2dPolyline
 66
     1
 10
0.0
 20
0.0
 30
0.0
 70
   128
  0
VERTEX
  5
46C
100
AcDbEntity
  8
1
  6
Continuous
 62
     6
 48
0.75
100
AcDbVertex
100
AcDb2dVertex
 10
-1121.103906
 20
-69.177839
 30
0.0
 40
0.0
 41
0.0
  0
VERTEX
  5
46D
100
AcDbEntity
  8
1
  6
Continuous
 62
     6
 48
0.75
100
AcDbVertex
100
AcDb2dVertex
 10
-1121.103906
 20
-69.747839
 30
0.0
 40
0.0
 41
0.0
  0
VERTEX
  5
46E
100
AcDbEntity
  8
1
  6
Continuous
 62
     6
 48
0.75
100
AcDbVertex
100
AcDb2dVertex
 10
-1121.103906
 20
-70.257839
 30
0.0
 40
0.0
 41
0.0
  0
VERTEX
  5
46F
100
AcDbEntity
  8
1
  6
Continuous
 62
     6
 48
0.75
100
AcDbVertex
100
AcDb2dVertex
 10
-1121.103906
 20
-70.707839
 30
0.0
 40
0.0
 41
0.0
  0
VERTEX
  5
470
100
AcDbEntity
  8
1
  6
Continuous
 62
     6
 48
0.75
100
AcDbVertex
100
AcDb2dVertex
 10
-1121.103906
 20
-71.097839
 30
0.0
 40
0.0
 41
0.0
  0
VERTEX
  5
471
100
AcDbEntity
  8
1
  6
Continuous
 62
     6
 48
0.75
100
AcDbVertex
100
AcDb2dVertex
 10
-1121.103906
 20
-71.427839
 30
0.0
 40
0.0
 41
0.0
  0
VERTEX
  5
472
100
AcDbEntity
  8
1
  6
Continuous
 62
     6
 48
0.75
100
AcDbVertex
100
AcDb2dVertex
 10
-1121.103906
 20
-71.697839
 30
0.0
 40
0.0
 41
0.0
  0
VERTEX
  5
473
100
AcDbEntity
  8
1
  6
Continuous
 62
     6
 48
0.75
100
AcDbVertex
100
AcDb2dVertex
 10
-1121.103906
 20
-71.907839
 30
0.0
 40
0.0
 41
0.0
  0
VERTEX
  5
474
100
AcDbEntity
  8
1
  6
Continuous
 62
     6
 48
0.75
100
AcDbVertex
100
AcDb2dVertex
 10
-1121.103906
 20
-72.057839
 30
0.0
 40
0.0
 41
0.0
  0
VERTEX
  5
475
100
AcDbEntity
  8
1
  6
Continuous
 62
     6
 48
0.75
100
AcDbVertex
100
AcDb2dVertex
 10
-1121.103906
 20
-72.147839
 30
0.0
 40
0.0
 41
0.0
  0
VERTEX
  5
476
100
AcDbEntity
  8
1
  6
Continuous
 62
     6
 48
0.75
100
AcDbVertex
100
AcDb2dVertex
 10
-1121.103906
 20
-72.177839
 30
0.0
 40
0.0
 41
0.0
  0
VERTEX
  5
477
100
AcDbEntity
  8
1
  6
Continuous
 62
     6
 48
0.75
100
AcDbVertex
100
AcDb2dVertex
 10
-1121.853906
 20
-73.277839
 30
0.0
 40
0.0
 41
0.0
  0
VERTEX
  5
478
100
AcDbEntity
  8
1
  6
Continuous
 62
     6
 48
0.75
100
AcDbVertex
100
AcDb2dVertex
 10
-1122.903906
 20
-75.527839
 30
0.0
 40
0.0
 41
0.0
  0
VERTEX
  5
479
100
AcDbEntity
  8
1
  6
Continuous
 62
     6
 48
0.75
100
AcDbVertex
100
AcDb2dVertex
 10
-1124.243906
 20
-78.937839
 30
0.0
 40
0.0
 41
0.0
  0
VERTEX
  5
47A
100
AcDbEntity
  8
1
  6
Continuous
 62
     6
 48
0.75
100
AcDbVertex
100
AcDb2dVertex
 10
-1125.893906
 20
-83.487839
 30
0.0
 40
0.0
 41
0.0
  0
VERTEX
  5
47B
100
AcDbEntity
  8
1
  6
Continuous
 62
     6
 48
0.75
100
AcDbVertex
100
AcDb2dVertex
 10
-1127.843906
 20
-89.197839
 30
0.0
 40
0.0
 41
0.0
  0
VERTEX
  5
47C
100
AcDbEntity
  8
1
  6
Continuous
 62
     6
 48
0.75
100
AcDbVertex
100
AcDb2dVertex
 10
-1130.083906
 20
-96.057839
 30
0.0
 40
0.0
 41
0.0
  0
VERTEX
  5
47D
100
AcDbEntity
  8
1
  6
Continuous
 62
     6
 48
0.75
100
AcDbVertex
100
AcDb2dVertex
 10
-1132.623906
 20
-104.057839
 30
0.0
 40
0.0
 41
0.0
  0
VERTEX
  5
47E
100
AcDbEntity
  8
1
  6
Continuous
 62
     6
 48
0.75
100
AcDbVertex
100
AcDb2dVertex
 10
-1135.463906
 20
-113.227839
 30
0.0
 40
0.0
 41
0.0
  0
VERTEX
  5
47F
100
AcDbEntity
  8
1
  6
Continuous
 62
     6
 48
0.75
100
AcDbVertex
100
AcDb2dVertex
 10
-1138.603906
 20
-123.537839
 30
0.0
 40
0.0
 41
0.0
  0
VERTEX
  5
480
100
AcDbEntity
  8
1
  6
Continuous
 62
     6
 48
0.75
100
AcDbVertex
100
AcDb2dVertex
 10
-1142.043906
 20
-134.997839
 30
0.0
 40
0.0
 41
0.0
  0
VERTEX
  5
481
100
AcDbEntity
  8
1
  6
Continuous
 62
     6
 48
0.75
100
AcDbVertex
100
AcDb2dVertex
 10
-1226.663906
 20
-164.857839
 30
0.0
 40
0.0
 41
0.0
  0
SEQEND
  5
482
100
AcDbEntity
  8
0
  0
POLYLINE
  5
483
100
AcDbEntity
  8
1
  6
Continuous
 62
     6
 48
0.75
100
AcDb2dPolyline
 66
     1
 10
0.0
 20
0.0
 30
0.0
 70
   128
  0
VERTEX
  5
484
100
AcDbEntity
  8
1
  6
Continuous
 62
     6
 48
0.75
100
AcDbVertex
100
AcDb2dVertex
 10
-1341.103906
 20
-72.517839
 30
0.0
 40
0.0
 41
0.0
  0
VERTEX
  5
485
100
AcDbEntity
  8
1
  6
Continuous
 62
     6
 48
0.75
100
AcDbVertex
100
AcDb2dVertex
 10
-1341.103906
 20
-73.087839
 30
0.0
 40
0.0
 41
0.0
  0
VERTEX
  5
486
100
AcDbEntity
  8
1
  6
Continuous
 62
     6
 48
0.75
100
AcDbVertex
100
AcDb2dVertex
 10
-1341.103906
 20
-73.597839
 30
0.0
 40
0.0
 41
0.0
  0
VERTEX
  5
487
100
AcDbEntity
  8
1
  6
Continuous
 62
     6
 48
0.75
100
AcDbVertex
100
AcDb2dVertex
 10
-1341.103906
 20
-74.047839
 30
0.0
 40
0.0
 41
0.0
  0
VERTEX
  5
488
100
AcDbEntity
  8
1
  6
Continuous
 62
     6
 48
0.75
100
AcDbVertex
100
AcDb2dVertex
 10
-1341.103906
 20
-74.437839
 30
0.0
 40
0.0
 41
0.0
  0
VERTEX
  5
489
100
AcDbEntity
  8
1
  6
Continuous
 62
     6
 48
0.75
100
AcDbVertex
100
AcDb2dVertex
 10
-1341.103906
 20
-74.767839
 30
0.0
 40
0.0
 41
0.0
  0
VERTEX
  5
48A
100
AcDbEntity
  8
1
  6
Continuous
 62
     6
 48
0.75
100
AcDbVertex
100
AcDb2dVertex
 10
-1341.103906
 20
-75.037839
 30
0.0
 40
0.0
 41
0.0
  0
VERTEX
  5
48B
100
AcDbEntity
  8
1
  6
Continuous
 62
     6
 48
0.75
100
AcDbVertex
100
AcDb2dVertex
 10
-1341.103906
 20
-75.247839
 30
0.0
 40
0.0
 41
0.0
  0
VERTEX
  5
48C
100
AcDbEntity
  8
1
  6
Continuous
 62
     6
 48
0.75
100
AcDbVertex
100
AcDb2dVertex
 10
-1341.103906
 20
-75.397839
 30
0.0
 40
0.0
 41
0.0
  0
VERTEX
  5
48D
100
AcDbEntity
  8
1
  6
Continuous
 62
     6
 48
0.75
100
AcDbVertex
100
AcDb2dVertex
 10
-1341.103906
 20
-75.487839
 30
0.0
 40
0.0
 41
0.0
  0
VERTEX
  5
48E
100
AcDbEntity
  8
1
  6
Continuous
 62
     6
 48
0.75
100
AcDbVertex
100
AcDb2dVertex
 10
-1341.103906
 20
-75.517839
 30
0.0
 40
0.0
 41
0.0
  0
VERTEX
  5
48F
100
AcDbEntity
  8
1
  6
Continuous
 62
     6
 48
0.75
100
AcDbVertex
100
AcDb2dVertex
 10
-1340.423906
 20
-76.477839
 30
0.0
 40
0.0
 41
0.0
  0
VERTEX
  5
490
100
AcDbEntity
  8
1
  6
Continuous
 62
     6
 48
0.75
100
AcDbVertex
100
AcDb2dVertex
 10
-1339.593906
 20
-78.547839
 30
0.0
 40
0.0
 41
0.0
  0
VERTEX
  5
491
100
AcDbEntity
  8
1
  6
Continuous
 62
     6
 48
0.75
100
AcDbVertex
100
AcDb2dVertex
 10
-1338.603906
 20
-81.727839
 30
0.0
 40
0.0
 41
0.0
  0
VERTEX
  5
492
100
AcDbEntity
  8
1
  6
Continuous
 62
     6
 48
0.75
100
AcDbVertex
100
AcDb2dVertex
 10
-1337.453906
 20
-86.027839
 30
0.0
 40
0.0
 41
0.0
  0
VERTEX
  5
493
100
AcDbEntity
  8
1
  6
Continuous
 62
     6
 48
0.75
100
AcDbVertex
100
AcDb2dVertex
 10
-1336.153906
 20
-91.447839
 30
0.0
 40
0.0
 41
0.0
  0
VERTEX
  5
494
100
AcDbEntity
  8
1
  6
Continuous
 62
     6
 48
0.75
100
AcDbVertex
100
AcDb2dVertex
 10
-1334.693906
 20
-97.977839
 30
0.0
 40
0.0
 41
0.0
  0
VERTEX
  5
495
100
AcDbEntity
  8
1
  6
Continuous
 62
     6
 48
0.75
100
AcDbVertex
100
AcDb2dVertex
 10
-1333.083906
 20
-105.617839
 30
0.0
 40
0.0
 41
0.0
  0
VERTEX
  5
496
100
AcDbEntity
  8
1
  6
Continuous
 62
     6
 48
0.75
100
AcDbVertex
100
AcDb2dVertex
 10
-1331.313906
 20
-114.367839
 30
0.0
 40
0.0
 41
0.0
  0
VERTEX
  5
497
100
AcDbEntity
  8
1
  6
Continuous
 62
     6
 48
0.75
100
AcDbVertex
100
AcDb2dVertex
 10
-1329.383906
 20
-124.247839
 30
0.0
 40
0.0
 41
0.0
  0
VERTEX
  5
498
100
AcDbEntity
  8
1
  6
Continuous
 62
     6
 48
0.75
100
AcDbVertex
100
AcDb2dVertex
 10
-1327.303906
 20
-135.227839
 30
0.0
 40
0.0
 41
0.0
  0
VERTEX
  5
499
100
AcDbEntity
  8
1
  6
Continuous
 62
     6
 48
0.75
100
AcDbVertex
100
AcDb2dVertex
 10
-1234.663906
 20
-164.857839
 30
0.0
 40
0.0
 41
0.0
  0
SEQEND
  5
49A
100
AcDbEntity
  8
0
  0
POLYLINE
  5
49B
100
AcDbEntity
  8
1
  6
Continuous
 62
     6
 48
0.75
100
AcDb2dPolyline
 66
     1
 10
0.0
 20
0.0
 30
0.0
 70
   128
  0
VERTEX
  5
49C
100
AcDbEntity
  8
1
  6
Continuous
 62
     6
 48
0.75
100
AcDbVertex
100
AcDb2dVertex
 10
-1341.103906
 20
-75.517839
 30
0.0
 40
0.0
 41
0.0
  0
VERTEX
  5
49D
100
AcDbEntity
  8
1
  6
Continuous
 62
     6
 48
0.75
100
AcDbVertex
100
AcDb2dVertex
 10
-1338.773906
 20
-81.147839
 30
0.0
 40
0.0
 41
0.0
  0
VERTEX
  5
49E
100
AcDbEntity
  8
1
  6
Continuous
 62
     6
 48
0.75
100
AcDbVertex
100
AcDb2dVertex
 10
-1337.193906
 20
-87.087839
 30
0.0
 40
0.0
 41
0.0
  0
VERTEX
  5
49F
100
AcDbEntity
  8
1
  6
Continuous
 62
     6
 48
0.75
100
AcDbVertex
100
AcDb2dVertex
 10
-1335.783906
 20
-93.067839
 30
0.0
 40
0.0
 41
0.0
  0
VERTEX
  5
4A0
100
AcDbEntity
  8
1
  6
Continuous
 62
     6
 48
0.75
100
AcDbVertex
100
AcDb2dVertex
 10
-1334.463906
 20
-99.067839
 30
0.0
 40
0.0
 41
0.0
  0
VERTEX
  5
4A1
100
AcDbEntity
  8
1
  6
Continuous
 62
     6
 48
0.75
100
AcDbVertex
100
AcDb2dVertex
 10
-1333.193906
 20
-105.077839
 30
0.0
 40
0.0
 41
0.0
  0
VERTEX
  5
4A2
100
AcDbEntity
  8
1
  6
Continuous
 62
     6
 48
0.75
100
AcDbVertex
100
AcDb2dVertex
 10
-1331.963906
 20
-111.097839
 30
0.0
 40
0.0
 41
0.0
  0
VERTEX
  5
4A3
100
AcDbEntity
  8
1
  6
Continuous
 62
     6
 48
0.75
100
AcDbVertex
100
AcDb2dVertex
 10
-1330.763906
 20
-117.127839
 30
0.0
 40
0.0
 41
0.0
  0
VERTEX
  5
4A4
100
AcDbEntity
  8
1
  6
Continuous
 62
     6
 48
0.75
100
AcDbVertex
100
AcDb2dVertex
 10
-1329.593906
 20
-123.157839
 30
0.0
 40
0.0
 41
0.0
  0
VERTEX
  5
4A5
100
AcDbEntity
  8
1
  6
Continuous
 62
     6
 48
0.75
100
AcDbVertex
100
AcDb2dVertex
 10
-1328.443906
 20
-129.187839
 30
0.0
 40
0.0
 41
0.0
  0
VERTEX
  5
4A6
100
AcDbEntity
  8
1
  6
Continuous
 62
     6
 48
0.75
100
AcDbVertex
100
AcDb2dVertex
 10
-1327.303906
 20
-135.227839
 30
0.0
 40
0.0
 41
0.0
  0
VERTEX
  5
4A7
100
AcDbEntity
  8
1
  6
Continuous
 62
     6
 48
0.75
100
AcDbVertex
100
AcDb2dVertex
 10
-1234.663906
 20
-164.857839
 30
0.0
 40
0.0
 41
0.0
  0
SEQEND
  5
4A8
100
AcDbEntity
  8
0
  0
POLYLINE
  5
4A9
100
AcDbEntity
  8
1
  6
Continuous
 62
     6
 48
0.75
100
AcDb2dPolyline
 66
     1
 10
0.0
 20
0.0
 30
0.0
 70
   128
  0
VERTEX
  5
4AA
100
AcDbEntity
  8
1
  6
Continuous
 62
     6
 48
0.75
100
AcDbVertex
100
AcDb2dVertex
 10
-1120.223906
 20
-72.517839
 30
0.0
 40
0.0
 41
0.0
  0
VERTEX
  5
4AB
100
AcDbEntity
  8
1
  6
Continuous
 62
     6
 48
0.75
100
AcDbVertex
100
AcDb2dVertex
 10
-1120.223906
 20
-73.087839
 30
0.0
 40
0.0
 41
0.0
  0
VERTEX
  5
4AC
100
AcDbEntity
  8
1
  6
Continuous
 62
     6
 48
0.75
100
AcDbVertex
100
AcDb2dVertex
 10
-1120.223906
 20
-73.597839
 30
0.0
 40
0.0
 41
0.0
  0
VERTEX
  5
4AD
100
AcDbEntity
  8
1
  6
Continuous
 62
     6
 48
0.75
100
AcDbVertex
100
AcDb2dVertex
 10
-1120.223906
 20
-74.047839
 30
0.0
 40
0.0
 41
0.0
  0
VERTEX
  5
4AE
100
AcDbEntity
  8
1
  6
Continuous
 62
     6
 48
0.75
100
AcDbVertex
100
AcDb2dVertex
 10
-1120.223906
 20
-74.437839
 30
0.0
 40
0.0
 41
0.0
  0
VERTEX
  5
4AF
100
AcDbEntity
  8
1
  6
Continuous
 62
     6
 48
0.75
100
AcDbVertex
100
AcDb2dVertex
 10
-1120.223906
 20
-74.767839
 30
0.0
 40
0.0
 41
0.0
  0
VERTEX
  5
4B0
100
AcDbEntity
  8
1
  6
Continuous
 62
     6
 48
0.75
100
AcDbVertex
100
AcDb2dVertex
 10
-1120.223906
 20
-75.037839
 30
0.0
 40
0.0
 41
0.0
  0
VERTEX
  5
4B1
100
AcDbEntity
  8
1
  6
Continuous
 62
     6
 48
0.75
100
AcDbVertex
100
AcDb2dVertex
 10
-1120.223906
 20
-75.247839
 30
0.0
 40
0.0
 41
0.0
  0
VERTEX
  5
4B2
100
AcDbEntity
  8
1
  6
Continuous
 62
     6
 48
0.75
100
AcDbVertex
100
AcDb2dVertex
 10
-1120.223906
 20
-75.397839
 30
0.0
 40
0.0
 41
0.0
  0
VERTEX
  5
4B3
100
AcDbEntity
  8
1
  6
Continuous
 62
     6
 48
0.75
100
AcDbVertex
100
AcDb2dVertex
 10
-1120.223906
 20
-75.487839
 30
0.0
 40
0.0
 41
0.0
  0
VERTEX
  5
4B4
100
AcDbEntity
  8
1
  6
Continuous
 62
     6
 48
0.75
100
AcDbVertex
100
AcDb2dVertex
 10
-1120.223906
 20
-75.517839
 30
0.0
 40
0.0
 41
0.0
  0
VERTEX
  5
4B5
100
AcDbEntity
  8
1
  6
Continuous
 62
     6
 48
0.75
100
AcDbVertex
100
AcDb2dVertex
 10
-1120.903906
 20
-76.477839
 30
0.0
 40
0.0
 41
0.0
  0
VERTEX
  5
4B6
100
AcDbEntity
  8
1
  6
Continuous
 62
     6
 48
0.75
100
AcDbVertex
100
AcDb2dVertex
 10
-1121.733906
 20
-78.547839
 30
0.0
 40
0.0
 41
0.0
  0
VERTEX
  5
4B7
100
AcDbEntity
  8
1
  6
Continuous
 62
     6
 48
0.75
100
AcDbVertex
100
AcDb2dVertex
 10
-1122.723906
 20
-81.727839
 30
0.0
 40
0.0
 41
0.0
  0
VERTEX
  5
4B8
100
AcDbEntity
  8
1
  6
Continuous
 62
     6
 48
0.75
100
AcDbVertex
100
AcDb2dVertex
 10
-1123.873906
 20
-86.027839
 30
0.0
 40
0.0
 41
0.0
  0
VERTEX
  5
4B9
100
AcDbEntity
  8
1
  6
Continuous
 62
     6
 48
0.75
100
AcDbVertex
100
AcDb2dVertex
 10
-1125.173906
 20
-91.447839
 30
0.0
 40
0.0
 41
0.0
  0
VERTEX
  5
4BA
100
AcDbEntity
  8
1
  6
Continuous
 62
     6
 48
0.75
100
AcDbVertex
100
AcDb2dVertex
 10
-1126.633906
 20
-97.977839
 30
0.0
 40
0.0
 41
0.0
  0
VERTEX
  5
4BB
100
AcDbEntity
  8
1
  6
Continuous
 62
     6
 48
0.75
100
AcDbVertex
100
AcDb2dVertex
 10
-1128.243906
 20
-105.617839
 30
0.0
 40
0.0
 41
0.0
  0
VERTEX
  5
4BC
100
AcDbEntity
  8
1
  6
Continuous
 62
     6
 48
0.75
100
AcDbVertex
100
AcDb2dVertex
 10
-1130.013906
 20
-114.367839
 30
0.0
 40
0.0
 41
0.0
  0
VERTEX
  5
4BD
100
AcDbEntity
  8
1
  6
Continuous
 62
     6
 48
0.75
100
AcDbVertex
100
AcDb2dVertex
 10
-1131.943906
 20
-124.247839
 30
0.0
 40
0.0
 41
0.0
  0
VERTEX
  5
4BE
100
AcDbEntity
  8
1
  6
Continuous
 62
     6
 48
0.75
100
AcDbVertex
100
AcDb2dVertex
 10
-1134.023906
 20
-135.227839
 30
0.0
 40
0.0
 41
0.0
  0
VERTEX
  5
4BF
100
AcDbEntity
  8
1
  6
Continuous
 62
     6
 48
0.75
100
AcDbVertex
100
AcDb2dVertex
 10
-1226.663906
 20
-164.857839
 30
0.0
 40
0.0
 41
0.0
  0
SEQEND
  5
4C0
100
AcDbEntity
  8
0
  0
POLYLINE
  5
4C1
100
AcDbEntity
  8
1
  6
Continuous
 62
     6
 48
0.75
100
AcDb2dPolyline
 66
     1
 10
0.0
 20
0.0
 30
0.0
 70
   128
  0
VERTEX
  5
4C2
100
AcDbEntity
  8
1
  6
Continuous
 62
     6
 48
0.75
100
AcDbVertex
100
AcDb2dVertex
 10
-1340.223906
 20
-73.857839
 30
0.0
 40
0.0
 41
0.0
  0
VERTEX
  5
4C3
100
AcDbEntity
  8
1
  6
Continuous
 62
     6
 48
0.75
100
AcDbVertex
100
AcDb2dVertex
 10
-1340.223906
 20
-74.427839
 30
0.0
 40
0.0
 41
0.0
  0
VERTEX
  5
4C4
100
AcDbEntity
  8
1
  6
Continuous
 62
     6
 48
0.75
100
AcDbVertex
100
AcDb2dVertex
 10
-1340.223906
 20
-74.937839
 30
0.0
 40
0.0
 41
0.0
  0
VERTEX
  5
4C5
100
AcDbEntity
  8
1
  6
Continuous
 62
     6
 48
0.75
100
AcDbVertex
100
AcDb2dVertex
 10
-1340.223906
 20
-75.387839
 30
0.0
 40
0.0
 41
0.0
  0
VERTEX
  5
4C6
100
AcDbEntity
  8
1
  6
Continuous
 62
     6
 48
0.75
100
AcDbVertex
100
AcDb2dVertex
 10
-1340.223906
 20
-75.777839
 30
0.0
 40
0.0
 41
0.0
  0
VERTEX
  5
4C7
100
AcDbEntity
  8
1
  6
Continuous
 62
     6
 48
0.75
100
AcDbVertex
100
AcDb2dVertex
 10
-1340.223906
 20
-76.107839
 30
0.0
 40
0.0
 41
0.0
  0
VERTEX
  5
4C8
100
AcDbEntity
  8
1
  6
Continuous
 62
     6
 48
0.75
100
AcDbVertex
100
AcDb2dVertex
 10
-1340.223906
 20
-76.377839
 30
0.0
 40
0.0
 41
0.0
  0
VERTEX
  5
4C9
100
AcDbEntity
  8
1
  6
Continuous
 62
     6
 48
0.75
100
AcDbVertex
100
AcDb2dVertex
 10
-1340.223906
 20
-76.587839
 30
0.0
 40
0.0
 41
0.0
  0
VERTEX
  5
4CA
100
AcDbEntity
  8
1
  6
Continuous
 62
     6
 48
0.75
100
AcDbVertex
100
AcDb2dVertex
 10
-1340.223906
 20
-76.737839
 30
0.0
 40
0.0
 41
0.0
  0
VERTEX
  5
4CB
100
AcDbEntity
  8
1
  6
Continuous
 62
     6
 48
0.75
100
AcDbVertex
100
AcDb2dVertex
 10
-1340.223906
 20
-76.827839
 30
0.0
 40
0.0
 41
0.0
  0
VERTEX
  5
4CC
100
AcDbEntity
  8
1
  6
Continuous
 62
     6
 48
0.75
100
AcDbVertex
100
AcDb2dVertex
 10
-1340.223906
 20
-76.857839
 30
0.0
 40
0.0
 41
0.0
  0
VERTEX
  5
4CD
100
AcDbEntity
  8
1
  6
Continuous
 62
     6
 48
0.75
100
AcDbVertex
100
AcDb2dVertex
 10
-1339.603906
 20
-77.807839
 30
0.0
 40
0.0
 41
0.0
  0
VERTEX
  5
4CE
100
AcDbEntity
  8
1
  6
Continuous
 62
     6
 48
0.75
100
AcDbVertex
100
AcDb2dVertex
 10
-1338.933906
 20
-79.847839
 30
0.0
 40
0.0
 41
0.0
  0
VERTEX
  5
4CF
100
AcDbEntity
  8
1
  6
Continuous
 62
     6
 48
0.75
100
AcDbVertex
100
AcDb2dVertex
 10
-1338.213906
 20
-82.977839
 30
0.0
 40
0.0
 41
0.0
  0
VERTEX
  5
4D0
100
AcDbEntity
  8
1
  6
Continuous
 62
     6
 48
0.75
100
AcDbVertex
100
AcDb2dVertex
 10
-1337.453906
 20
-87.197839
 30
0.0
 40
0.0
 41
0.0
  0
VERTEX
  5
4D1
100
AcDbEntity
  8
1
  6
Continuous
 62
     6
 48
0.75
100
AcDbVertex
100
AcDb2dVertex
 10
-1336.643906
 20
-92.517839
 30
0.0
 40
0.0
 41
0.0
  0
VERTEX
  5
4D2
100
AcDbEntity
  8
1
  6
Continuous
 62
     6
 48
0.75
100
AcDbVertex
100
AcDb2dVertex
 10
-1335.783906
 20
-98.927839
 30
0.0
 40
0.0
 41
0.0
  0
VERTEX
  5
4D3
100
AcDbEntity
  8
1
  6
Continuous
 62
     6
 48
0.75
100
AcDbVertex
100
AcDb2dVertex
 10
-1334.883906
 20
-106.427839
 30
0.0
 40
0.0
 41
0.0
  0
VERTEX
  5
4D4
100
AcDbEntity
  8
1
  6
Continuous
 62
     6
 48
0.75
100
AcDbVertex
100
AcDb2dVertex
 10
-1333.943906
 20
-115.027839
 30
0.0
 40
0.0
 41
0.0
  0
VERTEX
  5
4D5
100
AcDbEntity
  8
1
  6
Continuous
 62
     6
 48
0.75
100
AcDbVertex
100
AcDb2dVertex
 10
-1332.943906
 20
-124.717839
 30
0.0
 40
0.0
 41
0.0
  0
VERTEX
  5
4D6
100
AcDbEntity
  8
1
  6
Continuous
 62
     6
 48
0.75
100
AcDbVertex
100
AcDb2dVertex
 10
-1331.903906
 20
-135.497839
 30
0.0
 40
0.0
 41
0.0
  0
VERTEX
  5
4D7
100
AcDbEntity
  8
1
  6
Continuous
 62
     6
 48
0.75
100
AcDbVertex
100
AcDb2dVertex
 10
-1234.663906
 20
-164.857839
 30
0.0
 40
0.0
 41
0.0
  0
SEQEND
  5
4D8
100
AcDbEntity
  8
0
  0
POLYLINE
  5
4D9
100
AcDbEntity
  8
1
  6
Continuous
 62
     6
 48
0.75
100
AcDb2dPolyline
 66
     1
 10
0.0
 20
0.0
 30
0.0
 70
   128
  0
VERTEX
  5
4DA
100
AcDbEntity
  8
1
  6
Continuous
 62
     6
 48
0.75
100
AcDbVertex
100
AcDb2dVertex
 10
-1340.223906
 20
-76.857839
 30
0.0
 40
0.0
 41
0.0
  0
VERTEX
  5
4DB
100
AcDbEntity
  8
1
  6
Continuous
 62
     6
 48
0.75
100
AcDbVertex
100
AcDb2dVertex
 10
-1338.323906
 20
-82.417839
 30
0.0
 40
0.0
 41
0.0
  0
VERTEX
  5
4DC
100
AcDbEntity
  8
1
  6
Continuous
 62
     6
 48
0.75
100
AcDbVertex
100
AcDb2dVertex
 10
-1337.283906
 20
-88.267839
 30
0.0
 40
0.0
 41
0.0
  0
VERTEX
  5
4DD
100
AcDbEntity
  8
1
  6
Continuous
 62
     6
 48
0.75
100
AcDbVertex
100
AcDb2dVertex
 10
-1336.413906
 20
-94.147839
 30
0.0
 40
0.0
 41
0.0
  0
VERTEX
  5
4DE
100
AcDbEntity
  8
1
  6
Continuous
 62
     6
 48
0.75
100
AcDbVertex
100
AcDb2dVertex
 10
-1335.653906
 20
-100.037839
 30
0.0
 40
0.0
 41
0.0
  0
VERTEX
  5
4DF
100
AcDbEntity
  8
1
  6
Continuous
 62
     6
 48
0.75
100
AcDbVertex
100
AcDb2dVertex
 10
-1334.943906
 20
-105.937839
 30
0.0
 40
0.0
 41
0.0
  0
VERTEX
  5
4E0
100
AcDbEntity
  8
1
  6
Continuous
 62
     6
 48
0.75
100
AcDbVertex
100
AcDb2dVertex
 10
-1334.283906
 20
-111.847839
 30
0.0
 40
0.0
 41
0.0
  0
VERTEX
  5
4E1
100
AcDbEntity
  8
1
  6
Continuous
 62
     6
 48
0.75
100
AcDbVertex
100
AcDb2dVertex
 10
-1333.653906
 20
-117.757839
 30
0.0
 40
0.0
 41
0.0
  0
VERTEX
  5
4E2
100
AcDbEntity
  8
1
  6
Continuous
 62
     6
 48
0.75
100
AcDbVertex
100
AcDb2dVertex
 10
-1333.053906
 20
-123.667839
 30
0.0
 40
0.0
 41
0.0
  0
VERTEX
  5
4E3
100
AcDbEntity
  8
1
  6
Continuous
 62
     6
 48
0.75
100
AcDbVertex
100
AcDb2dVertex
 10
-1332.463906
 20
-129.577839
 30
0.0
 40
0.0
 41
0.0
  0
VERTEX
  5
4E4
100
AcDbEntity
  8
1
  6
Continuous
 62
     6
 48
0.75
100
AcDbVertex
100
AcDb2dVertex
 10
-1331.903906
 20
-135.497839
 30
0.0
 40
0.0
 41
0.0
  0
VERTEX
  5
4E5
100
AcDbEntity
  8
1
  6
Continuous
 62
     6
 48
0.75
100
AcDbVertex
100
AcDb2dVertex
 10
-1234.663906
 20
-164.857839
 30
0.0
 40
0.0
 41
0.0
  0
SEQEND
  5
4E6
100
AcDbEntity
  8
0
  0
POLYLINE
  5
4E7
100
AcDbEntity
  8
1
  6
Continuous
 62
     6
 48
0.75
100
AcDb2dPolyline
 66
     1
 10
0.0
 20
0.0
 30
0.0
 70
   128
  0
VERTEX
  5
4E8
100
AcDbEntity
  8
1
  6
Continuous
 62
     6
 48
0.75
100
AcDbVertex
100
AcDb2dVertex
 10
-1121.103906
 20
-73.857839
 30
0.0
 40
0.0
 41
0.0
  0
VERTEX
  5
4E9
100
AcDbEntity
  8
1
  6
Continuous
 62
     6
 48
0.75
100
AcDbVertex
100
AcDb2dVertex
 10
-1121.103906
 20
-74.427839
 30
0.0
 40
0.0
 41
0.0
  0
VERTEX
  5
4EA
100
AcDbEntity
  8
1
  6
Continuous
 62
     6
 48
0.75
100
AcDbVertex
100
AcDb2dVertex
 10
-1121.103906
 20
-74.937839
 30
0.0
 40
0.0
 41
0.0
  0
VERTEX
  5
4EB
100
AcDbEntity
  8
1
  6
Continuous
 62
     6
 48
0.75
100
AcDbVertex
100
AcDb2dVertex
 10
-1121.103906
 20
-75.387839
 30
0.0
 40
0.0
 41
0.0
  0
VERTEX
  5
4EC
100
AcDbEntity
  8
1
  6
Continuous
 62
     6
 48
0.75
100
AcDbVertex
100
AcDb2dVertex
 10
-1121.103906
 20
-75.777839
 30
0.0
 40
0.0
 41
0.0
  0
VERTEX
  5
4ED
100
AcDbEntity
  8
1
  6
Continuous
 62
     6
 48
0.75
100
AcDbVertex
100
AcDb2dVertex
 10
-1121.103906
 20
-76.107839
 30
0.0
 40
0.0
 41
0.0
  0
VERTEX
  5
4EE
100
AcDbEntity
  8
1
  6
Continuous
 62
     6
 48
0.75
100
AcDbVertex
100
AcDb2dVertex
 10
-1121.103906
 20
-76.377839
 30
0.0
 40
0.0
 41
0.0
  0
VERTEX
  5
4EF
100
AcDbEntity
  8
1
  6
Continuous
 62
     6
 48
0.75
100
AcDbVertex
100
AcDb2dVertex
 10
-1121.103906
 20
-76.587839
 30
0.0
 40
0.0
 41
0.0
  0
VERTEX
  5
4F0
100
AcDbEntity
  8
1
  6
Continuous
 62
     6
 48
0.75
100
AcDbVertex
100
AcDb2dVertex
 10
-1121.103906
 20
-76.737839
 30
0.0
 40
0.0
 41
0.0
  0
VERTEX
  5
4F1
100
AcDbEntity
  8
1
  6
Continuous
 62
     6
 48
0.75
100
AcDbVertex
100
AcDb2dVertex
 10
-1121.103906
 20
-76.827839
 30
0.0
 40
0.0
 41
0.0
  0
VERTEX
  5
4F2
100
AcDbEntity
  8
1
  6
Continuous
 62
     6
 48
0.75
100
AcDbVertex
100
AcDb2dVertex
 10
-1121.103906
 20
-76.857839
 30
0.0
 40
0.0
 41
0.0
  0
VERTEX
  5
4F3
100
AcDbEntity
  8
1
  6
Continuous
 62
     6
 48
0.75
100
AcDbVertex
100
AcDb2dVertex
 10
-1121.723906
 20
-77.807839
 30
0.0
 40
0.0
 41
0.0
  0
VERTEX
  5
4F4
100
AcDbEntity
  8
1
  6
Continuous
 62
     6
 48
0.75
100
AcDbVertex
100
AcDb2dVertex
 10
-1122.393906
 20
-79.847839
 30
0.0
 40
0.0
 41
0.0
  0
VERTEX
  5
4F5
100
AcDbEntity
  8
1
  6
Continuous
 62
     6
 48
0.75
100
AcDbVertex
100
AcDb2dVertex
 10
-1123.113906
 20
-82.977839
 30
0.0
 40
0.0
 41
0.0
  0
VERTEX
  5
4F6
100
AcDbEntity
  8
1
  6
Continuous
 62
     6
 48
0.75
100
AcDbVertex
100
AcDb2dVertex
 10
-1123.873906
 20
-87.197839
 30
0.0
 40
0.0
 41
0.0
  0
VERTEX
  5
4F7
100
AcDbEntity
  8
1
  6
Continuous
 62
     6
 48
0.75
100
AcDbVertex
100
AcDb2dVertex
 10
-1124.683906
 20
-92.517839
 30
0.0
 40
0.0
 41
0.0
  0
VERTEX
  5
4F8
100
AcDbEntity
  8
1
  6
Continuous
 62
     6
 48
0.75
100
AcDbVertex
100
AcDb2dVertex
 10
-1125.543906
 20
-98.927839
 30
0.0
 40
0.0
 41
0.0
  0
VERTEX
  5
4F9
100
AcDbEntity
  8
1
  6
Continuous
 62
     6
 48
0.75
100
AcDbVertex
100
AcDb2dVertex
 10
-1126.443906
 20
-106.427839
 30
0.0
 40
0.0
 41
0.0
  0
VERTEX
  5
4FA
100
AcDbEntity
  8
1
  6
Continuous
 62
     6
 48
0.75
100
AcDbVertex
100
AcDb2dVertex
 10
-1127.383906
 20
-115.027839
 30
0.0
 40
0.0
 41
0.0
  0
VERTEX
  5
4FB
100
AcDbEntity
  8
1
  6
Continuous
 62
     6
 48
0.75
100
AcDbVertex
100
AcDb2dVertex
 10
-1128.383906
 20
-124.717839
 30
0.0
 40
0.0
 41
0.0
  0
VERTEX
  5
4FC
100
AcDbEntity
  8
1
  6
Continuous
 62
     6
 48
0.75
100
AcDbVertex
100
AcDb2dVertex
 10
-1129.423906
 20
-135.497839
 30
0.0
 40
0.0
 41
0.0
  0
VERTEX
  5
4FD
100
AcDbEntity
  8
1
  6
Continuous
 62
     6
 48
0.75
100
AcDbVertex
100
AcDb2dVertex
 10
-1226.663906
 20
-164.857839
 30
0.0
 40
0.0
 41
0.0
  0
SEQEND
  5
4FE
100
AcDbEntity
  8
0
  0
POLYLINE
  5
4FF
100
AcDbEntity
  8
1
  6
Continuous
 62
     6
 48
0.75
100
AcDb2dPolyline
 66
     1
 10
0.0
 20
0.0
 30
0.0
 70
   128
  0
VERTEX
  5
500
100
AcDbEntity
  8
1
  6
Continuous
 62
     6
 48
0.75
100
AcDbVertex
100
AcDb2dVertex
 10
-1338.313906
 20
-76.697839
 30
0.0
 40
0.0
 41
0.0
  0
VERTEX
  5
501
100
AcDbEntity
  8
1
  6
Continuous
 62
     6
 48
0.75
100
AcDbVertex
100
AcDb2dVertex
 10
-1338.313906
 20
-77.267839
 30
0.0
 40
0.0
 41
0.0
  0
VERTEX
  5
502
100
AcDbEntity
  8
1
  6
Continuous
 62
     6
 48
0.75
100
AcDbVertex
100
AcDb2dVertex
 10
-1338.313906
 20
-77.777839
 30
0.0
 40
0.0
 41
0.0
  0
VERTEX
  5
503
100
AcDbEntity
  8
1
  6
Continuous
 62
     6
 48
0.75
100
AcDbVertex
100
AcDb2dVertex
 10
-1338.313906
 20
-78.227839
 30
0.0
 40
0.0
 41
0.0
  0
VERTEX
  5
504
100
AcDbEntity
  8
1
  6
Continuous
 62
     6
 48
0.75
100
AcDbVertex
100
AcDb2dVertex
 10
-1338.313906
 20
-78.617839
 30
0.0
 40
0.0
 41
0.0
  0
VERTEX
  5
505
100
AcDbEntity
  8
1
  6
Continuous
 62
     6
 48
0.75
100
AcDbVertex
100
AcDb2dVertex
 10
-1338.313906
 20
-78.947839
 30
0.0
 40
0.0
 41
0.0
  0
VERTEX
  5
506
100
AcDbEntity
  8
1
  6
Continuous
 62
     6
 48
0.75
100
AcDbVertex
100
AcDb2dVertex
 10
-1338.313906
 20
-79.217839
 30
0.0
 40
0.0
 41
0.0
  0
VERTEX
  5
507
100
AcDbEntity
  8
1
  6
Continuous
 62
     6
 48
0.75
100
AcDbVertex
100
AcDb2dVertex
 10
-1338.313906
 20
-79.427839
 30
0.0
 40
0.0
 41
0.0
  0
VERTEX
  5
508
100
AcDbEntity
  8
1
  6
Continuous
 62
     6
 48
0.75
100
AcDbVertex
100
AcDb2dVertex
 10
-1338.313906
 20
-79.577839
 30
0.0
 40
0.0
 41
0.0
  0
VERTEX
  5
509
100
AcDbEntity
  8
1
  6
Continuous
 62
     6
 48
0.75
100
AcDbVertex
100
AcDb2dVertex
 10
-1338.313906
 20
-79.667839
 30
0.0
 40
0.0
 41
0.0
  0
VERTEX
  5
50A
100
AcDbEntity
  8
1
  6
Continuous
 62
     6
 48
0.75
100
AcDbVertex
100
AcDb2dVertex
 10
-1338.313906
 20
-79.697839
 30
0.0
 40
0.0
 41
0.0
  0
VERTEX
  5
50B
100
AcDbEntity
  8
1
  6
Continuous
 62
     6
 48
0.75
100
AcDbVertex
100
AcDb2dVertex
 10
-1337.713906
 20
-80.527839
 30
0.0
 40
0.0
 41
0.0
  0
VERTEX
  5
50C
100
AcDbEntity
  8
1
  6
Continuous
 62
     6
 48
0.75
100
AcDbVertex
100
AcDb2dVertex
 10
-1337.113906
 20
-82.417839
 30
0.0
 40
0.0
 41
0.0
  0
VERTEX
  5
50D
100
AcDbEntity
  8
1
  6
Continuous
 62
     6
 48
0.75
100
AcDbVertex
100
AcDb2dVertex
 10
-1336.513906
 20
-85.357839
 30
0.0
 40
0.0
 41
0.0
  0
VERTEX
  5
50E
100
AcDbEntity
  8
1
  6
Continuous
 62
     6
 48
0.75
100
AcDbVertex
100
AcDb2dVertex
 10
-1335.903906
 20
-89.357839
 30
0.0
 40
0.0
 41
0.0
  0
VERTEX
  5
50F
100
AcDbEntity
  8
1
  6
Continuous
 62
     6
 48
0.75
100
AcDbVertex
100
AcDb2dVertex
 10
-1335.303906
 20
-94.417839
 30
0.0
 40
0.0
 41
0.0
  0
VERTEX
  5
510
100
AcDbEntity
  8
1
  6
Continuous
 62
     6
 48
0.75
100
AcDbVertex
100
AcDb2dVertex
 10
-1334.703906
 20
-100.537839
 30
0.0
 40
0.0
 41
0.0
  0
VERTEX
  5
511
100
AcDbEntity
  8
1
  6
Continuous
 62
     6
 48
0.75
100
AcDbVertex
100
AcDb2dVertex
 10
-1334.093906
 20
-107.717839
 30
0.0
 40
0.0
 41
0.0
  0
VERTEX
  5
512
100
AcDbEntity
  8
1
  6
Continuous
 62
     6
 48
0.75
100
AcDbVertex
100
AcDb2dVertex
 10
-1333.483906
 20
-115.957839
 30
0.0
 40
0.0
 41
0.0
  0
VERTEX
  5
513
100
AcDbEntity
  8
1
  6
Continuous
 62
     6
 48
0.75
100
AcDbVertex
100
AcDb2dVertex
 10
-1332.883906
 20
-125.247839
 30
0.0
 40
0.0
 41
0.0
  0
VERTEX
  5
514
100
AcDbEntity
  8
1
  6
Continuous
 62
     6
 48
0.75
100
AcDbVertex
100
AcDb2dVertex
 10
-1332.273906
 20
-135.597839
 30
0.0
 40
0.0
 41
0.0
  0
VERTEX
  5
515
100
AcDbEntity
  8
1
  6
Continuous
 62
     6
 48
0.75
100
AcDbVertex
100
AcDb2dVertex
 10
-1234.663906
 20
-162.777839
 30
0.0
 40
0.0
 41
0.0
  0
VERTEX
  5
516
100
AcDbEntity
  8
1
  6
Continuous
 62
     6
 48
0.75
100
AcDbVertex
100
AcDb2dVertex
 10
-1234.663906
 20
-164.857839
 30
0.0
 40
0.0
 41
0.0
  0
SEQEND
  5
517
100
AcDbEntity
  8
0
  0
POLYLINE
  5
518
100
AcDbEntity
  8
1
  6
Continuous
 62
     6
 48
0.75
100
AcDb2dPolyline
 66
     1
 10
0.0
 20
0.0
 30
0.0
 70
   128
  0
VERTEX
  5
519
100
AcDbEntity
  8
1
  6
Continuous
 62
     6
 48
0.75
100
AcDbVertex
100
AcDb2dVertex
 10
-1338.313906
 20
-79.697839
 30
0.0
 40
0.0
 41
0.0
  0
VERTEX
  5
51A
100
AcDbEntity
  8
1
  6
Continuous
 62
     6
 48
0.75
100
AcDbVertex
100
AcDb2dVertex
 10
-1336.573906
 20
-84.977839
 30
0.0
 40
0.0
 41
0.0
  0
VERTEX
  5
51B
100
AcDbEntity
  8
1
  6
Continuous
 62
     6
 48
0.75
100
AcDbVertex
100
AcDb2dVertex
 10
-1335.753906
 20
-90.567839
 30
0.0
 40
0.0
 41
0.0
  0
VERTEX
  5
51C
100
AcDbEntity
  8
1
  6
Continuous
 62
     6
 48
0.75
100
AcDbVertex
100
AcDb2dVertex
 10
-1335.123906
 20
-96.177839
 30
0.0
 40
0.0
 41
0.0
  0
VERTEX
  5
51D
100
AcDbEntity
  8
1
  6
Continuous
 62
     6
 48
0.75
100
AcDbVertex
100
AcDb2dVertex
 10
-1334.583906
 20
-101.797839
 30
0.0
 40
0.0
 41
0.0
  0
VERTEX
  5
51E
100
AcDbEntity
  8
1
  6
Continuous
 62
     6
 48
0.75
100
AcDbVertex
100
AcDb2dVertex
 10
-1334.113906
 20
-107.427839
 30
0.0
 40
0.0
 41
0.0
  0
VERTEX
  5
51F
100
AcDbEntity
  8
1
  6
Continuous
 62
     6
 48
0.75
100
AcDbVertex
100
AcDb2dVertex
 10
-1333.693906
 20
-113.057839
 30
0.0
 40
0.0
 41
0.0
  0
VERTEX
  5
520
100
AcDbEntity
  8
1
  6
Continuous
 62
     6
 48
0.75
100
AcDbVertex
100
AcDb2dVertex
 10
-1333.303906
 20
-118.687839
 30
0.0
 40
0.0
 41
0.0
  0
VERTEX
  5
521
100
AcDbEntity
  8
1
  6
Continuous
 62
     6
 48
0.75
100
AcDbVertex
100
AcDb2dVertex
 10
-1332.933906
 20
-124.327839
 30
0.0
 40
0.0
 41
0.0
  0
VERTEX
  5
522
100
AcDbEntity
  8
1
  6
Continuous
 62
     6
 48
0.75
100
AcDbVertex
100
AcDb2dVertex
 10
-1332.593906
 20
-129.957839
 30
0.0
 40
0.0
 41
0.0
  0
VERTEX
  5
523
100
AcDbEntity
  8
1
  6
Continuous
 62
     6
 48
0.75
100
AcDbVertex
100
AcDb2dVertex
 10
-1332.273906
 20
-135.597839
 30
0.0
 40
0.0
 41
0.0
  0
VERTEX
  5
524
100
AcDbEntity
  8
1
  6
Continuous
 62
     6
 48
0.75
100
AcDbVertex
100
AcDb2dVertex
 10
-1234.663906
 20
-162.777839
 30
0.0
 40
0.0
 41
0.0
  0
VERTEX
  5
525
100
AcDbEntity
  8
1
  6
Continuous
 62
     6
 48
0.75
100
AcDbVertex
100
AcDb2dVertex
 10
-1234.663906
 20
-164.857839
 30
0.0
 40
0.0
 41
0.0
  0
SEQEND
  5
526
100
AcDbEntity
  8
0
  0
POLYLINE
  5
527
100
AcDbEntity
  8
1
  6
Continuous
 62
     6
 48
0.75
100
AcDb2dPolyline
 66
     1
 10
0.0
 20
0.0
 30
0.0
 70
   128
  0
VERTEX
  5
528
100
AcDbEntity
  8
1
  6
Continuous
 62
     6
 48
0.75
100
AcDbVertex
100
AcDb2dVertex
 10
-1123.013906
 20
-76.697839
 30
0.0
 40
0.0
 41
0.0
  0
VERTEX
  5
529
100
AcDbEntity
  8
1
  6
Continuous
 62
     6
 48
0.75
100
AcDbVertex
100
AcDb2dVertex
 10
-1123.013906
 20
-77.267839
 30
0.0
 40
0.0
 41
0.0
  0
VERTEX
  5
52A
100
AcDbEntity
  8
1
  6
Continuous
 62
     6
 48
0.75
100
AcDbVertex
100
AcDb2dVertex
 10
-1123.013906
 20
-77.777839
 30
0.0
 40
0.0
 41
0.0
  0
VERTEX
  5
52B
100
AcDbEntity
  8
1
  6
Continuous
 62
     6
 48
0.75
100
AcDbVertex
100
AcDb2dVertex
 10
-1123.013906
 20
-78.227839
 30
0.0
 40
0.0
 41
0.0
  0
VERTEX
  5
52C
100
AcDbEntity
  8
1
  6
Continuous
 62
     6
 48
0.75
100
AcDbVertex
100
AcDb2dVertex
 10
-1123.013906
 20
-78.617839
 30
0.0
 40
0.0
 41
0.0
  0
VERTEX
  5
52D
100
AcDbEntity
  8
1
  6
Continuous
 62
     6
 48
0.75
100
AcDbVertex
100
AcDb2dVertex
 10
-1123.013906
 20
-78.947839
 30
0.0
 40
0.0
 41
0.0
  0
VERTEX
  5
52E
100
AcDbEntity
  8
1
  6
Continuous
 62
     6
 48
0.75
100
AcDbVertex
100
AcDb2dVertex
 10
-1123.013906
 20
-79.217839
 30
0.0
 40
0.0
 41
0.0
  0
VERTEX
  5
52F
100
AcDbEntity
  8
1
  6
Continuous
 62
     6
 48
0.75
100
AcDbVertex
100
AcDb2dVertex
 10
-1123.013906
 20
-79.427839
 30
0.0
 40
0.0
 41
0.0
  0
VERTEX
  5
530
100
AcDbEntity
  8
1
  6
Continuous
 62
     6
 48
0.75
100
AcDbVertex
100
AcDb2dVertex
 10
-1123.013906
 20
-79.577839
 30
0.0
 40
0.0
 41
0.0
  0
VERTEX
  5
531
100
AcDbEntity
  8
1
  6
Continuous
 62
     6
 48
0.75
100
AcDbVertex
100
AcDb2dVertex
 10
-1123.013906
 20
-79.667839
 30
0.0
 40
0.0
 41
0.0
  0
VERTEX
  5
532
100
AcDbEntity
  8
1
  6
Continuous
 62
     6
 48
0.75
100
AcDbVertex
100
AcDb2dVertex
 10
-1123.013906
 20
-79.697839
 30
0.0
 40
0.0
 41
0.0
  0
VERTEX
  5
533
100
AcDbEntity
  8
1
  6
Continuous
 62
     6
 48
0.75
100
AcDbVertex
100
AcDb2dVertex
 10
-1123.613906
 20
-80.527839
 30
0.0
 40
0.0
 41
0.0
  0
VERTEX
  5
534
100
AcDbEntity
  8
1
  6
Continuous
 62
     6
 48
0.75
100
AcDbVertex
100
AcDb2dVertex
 10
-1124.213906
 20
-82.417839
 30
0.0
 40
0.0
 41
0.0
  0
VERTEX
  5
535
100
AcDbEntity
  8
1
  6
Continuous
 62
     6
 48
0.75
100
AcDbVertex
100
AcDb2dVertex
 10
-1124.813906
 20
-85.357839
 30
0.0
 40
0.0
 41
0.0
  0
VERTEX
  5
536
100
AcDbEntity
  8
1
  6
Continuous
 62
     6
 48
0.75
100
AcDbVertex
100
AcDb2dVertex
 10
-1125.423906
 20
-89.357839
 30
0.0
 40
0.0
 41
0.0
  0
VERTEX
  5
537
100
AcDbEntity
  8
1
  6
Continuous
 62
     6
 48
0.75
100
AcDbVertex
100
AcDb2dVertex
 10
-1126.023906
 20
-94.417839
 30
0.0
 40
0.0
 41
0.0
  0
VERTEX
  5
538
100
AcDbEntity
  8
1
  6
Continuous
 62
     6
 48
0.75
100
AcDbVertex
100
AcDb2dVertex
 10
-1126.623906
 20
-100.537839
 30
0.0
 40
0.0
 41
0.0
  0
VERTEX
  5
539
100
AcDbEntity
  8
1
  6
Continuous
 62
     6
 48
0.75
100
AcDbVertex
100
AcDb2dVertex
 10
-1127.233906
 20
-107.717839
 30
0.0
 40
0.0
 41
0.0
  0
VERTEX
  5
53A
100
AcDbEntity
  8
1
  6
Continuous
 62
     6
 48
0.75
100
AcDbVertex
100
AcDb2dVertex
 10
-1127.843906
 20
-115.957839
 30
0.0
 40
0.0
 41
0.0
  0
VERTEX
  5
53B
100
AcDbEntity
  8
1
  6
Continuous
 62
     6
 48
0.75
100
AcDbVertex
100
AcDb2dVertex
 10
-1128.443906
 20
-125.247839
 30
0.0
 40
0.0
 41
0.0
  0
VERTEX
  5
53C
100
AcDbEntity
  8
1
  6
Continuous
 62
     6
 48
0.75
100
AcDbVertex
100
AcDb2dVertex
 10
-1129.053906
 20
-135.597839
 30
0.0
 40
0.0
 41
0.0
  0
VERTEX
  5
53D
100
AcDbEntity
  8
1
  6
Continuous
 62
     6
 48
0.75
100
AcDbVertex
100
AcDb2dVertex
 10
-1226.663906
 20
-162.777839
 30
0.0
 40
0.0
 41
0.0
  0
VERTEX
  5
53E
100
AcDbEntity
  8
1
  6
Continuous
 62
     6
 48
0.75
100
AcDbVertex
100
AcDb2dVertex
 10
-1226.663906
 20
-164.857839
 30
0.0
 40
0.0
 41
0.0
  0
SEQEND
  5
53F
100
AcDbEntity
  8
0
  0
POLYLINE
  5
540
100
AcDbEntity
  8
1
  6
Continuous
 62
     6
 48
0.75
100
AcDb2dPolyline
 66
     1
 10
0.0
 20
0.0
 30
0.0
 70
   128
  0
VERTEX
  5
541
100
AcDbEntity
  8
1
  6
Continuous
 62
     6
 48
0.75
100
AcDbVertex
100
AcDb2dVertex
 10
-1335.433906
 20
-78.627839
 30
0.0
 40
0.0
 41
0.0
  0
VERTEX
  5
542
100
AcDbEntity
  8
1
  6
Continuous
 62
     6
 48
0.75
100
AcDbVertex
100
AcDb2dVertex
 10
-1335.433906
 20
-79.197839
 30
0.0
 40
0.0
 41
0.0
  0
VERTEX
  5
543
100
AcDbEntity
  8
1
  6
Continuous
 62
     6
 48
0.75
100
AcDbVertex
100
AcDb2dVertex
 10
-1335.433906
 20
-79.707839
 30
0.0
 40
0.0
 41
0.0
  0
VERTEX
  5
544
100
AcDbEntity
  8
1
  6
Continuous
 62
     6
 48
0.75
100
AcDbVertex
100
AcDb2dVertex
 10
-1335.433906
 20
-80.157839
 30
0.0
 40
0.0
 41
0.0
  0
VERTEX
  5
545
100
AcDbEntity
  8
1
  6
Continuous
 62
     6
 48
0.75
100
AcDbVertex
100
AcDb2dVertex
 10
-1335.433906
 20
-80.547839
 30
0.0
 40
0.0
 41
0.0
  0
VERTEX
  5
546
100
AcDbEntity
  8
1
  6
Continuous
 62
     6
 48
0.75
100
AcDbVertex
100
AcDb2dVertex
 10
-1335.433906
 20
-80.877839
 30
0.0
 40
0.0
 41
0.0
  0
VERTEX
  5
547
100
AcDbEntity
  8
1
  6
Continuous
 62
     6
 48
0.75
100
AcDbVertex
100
AcDb2dVertex
 10
-1335.433906
 20
-81.147839
 30
0.0
 40
0.0
 41
0.0
  0
VERTEX
  5
548
100
AcDbEntity
  8
1
  6
Continuous
 62
     6
 48
0.75
100
AcDbVertex
100
AcDb2dVertex
 10
-1335.433906
 20
-81.357839
 30
0.0
 40
0.0
 41
0.0
  0
VERTEX
  5
549
100
AcDbEntity
  8
1
  6
Continuous
 62
     6
 48
0.75
100
AcDbVertex
100
AcDb2dVertex
 10
-1335.433906
 20
-81.507839
 30
0.0
 40
0.0
 41
0.0
  0
VERTEX
  5
54A
100
AcDbEntity
  8
1
  6
Continuous
 62
     6
 48
0.75
100
AcDbVertex
100
AcDb2dVertex
 10
-1335.433906
 20
-81.597839
 30
0.0
 40
0.0
 41
0.0
  0
VERTEX
  5
54B
100
AcDbEntity
  8
1
  6
Continuous
 62
     6
 48
0.75
100
AcDbVertex
100
AcDb2dVertex
 10
-1335.433906
 20
-81.627839
 30
0.0
 40
0.0
 41
0.0
  0
VERTEX
  5
54C
100
AcDbEntity
  8
1
  6
Continuous
 62
     6
 48
0.75
100
AcDbVertex
100
AcDb2dVertex
 10
-1334.843906
 20
-82.507839
 30
0.0
 40
0.0
 41
0.0
  0
VERTEX
  5
54D
100
AcDbEntity
  8
1
  6
Continuous
 62
     6
 48
0.75
100
AcDbVertex
100
AcDb2dVertex
 10
-1334.273906
 20
-84.397839
 30
0.0
 40
0.0
 41
0.0
  0
VERTEX
  5
54E
100
AcDbEntity
  8
1
  6
Continuous
 62
     6
 48
0.75
100
AcDbVertex
100
AcDb2dVertex
 10
-1333.713906
 20
-87.297839
 30
0.0
 40
0.0
 41
0.0
  0
VERTEX
  5
54F
100
AcDbEntity
  8
1
  6
Continuous
 62
     6
 48
0.75
100
AcDbVertex
100
AcDb2dVertex
 10
-1333.183906
 20
-91.197839
 30
0.0
 40
0.0
 41
0.0
  0
VERTEX
  5
550
100
AcDbEntity
  8
1
  6
Continuous
 62
     6
 48
0.75
100
AcDbVertex
100
AcDb2dVertex
 10
-1332.663906
 20
-96.107839
 30
0.0
 40
0.0
 41
0.0
  0
VERTEX
  5
551
100
AcDbEntity
  8
1
  6
Continuous
 62
     6
 48
0.75
100
AcDbVertex
100
AcDb2dVertex
 10
-1332.163906
 20
-102.017839
 30
0.0
 40
0.0
 41
0.0
  0
VERTEX
  5
552
100
AcDbEntity
  8
1
  6
Continuous
 62
     6
 48
0.75
100
AcDbVertex
100
AcDb2dVertex
 10
-1331.683906
 20
-108.937839
 30
0.0
 40
0.0
 41
0.0
  0
VERTEX
  5
553
100
AcDbEntity
  8
1
  6
Continuous
 62
     6
 48
0.75
100
AcDbVertex
100
AcDb2dVertex
 10
-1331.223906
 20
-116.867839
 30
0.0
 40
0.0
 41
0.0
  0
VERTEX
  5
554
100
AcDbEntity
  8
1
  6
Continuous
 62
     6
 48
0.75
100
AcDbVertex
100
AcDb2dVertex
 10
-1330.783906
 20
-125.797839
 30
0.0
 40
0.0
 41
0.0
  0
VERTEX
  5
555
100
AcDbEntity
  8
1
  6
Continuous
 62
     6
 48
0.75
100
AcDbVertex
100
AcDb2dVertex
 10
-1330.353906
 20
-135.737839
 30
0.0
 40
0.0
 41
0.0
  0
VERTEX
  5
556
100
AcDbEntity
  8
1
  6
Continuous
 62
     6
 48
0.75
100
AcDbVertex
100
AcDb2dVertex
 10
-1234.663906
 20
-159.817839
 30
0.0
 40
0.0
 41
0.0
  0
VERTEX
  5
557
100
AcDbEntity
  8
1
  6
Continuous
 62
     6
 48
0.75
100
AcDbVertex
100
AcDb2dVertex
 10
-1234.663906
 20
-164.857839
 30
0.0
 40
0.0
 41
0.0
  0
SEQEND
  5
558
100
AcDbEntity
  8
0
  0
POLYLINE
  5
559
100
AcDbEntity
  8
1
  6
Continuous
 62
     6
 48
0.75
100
AcDb2dPolyline
 66
     1
 10
0.0
 20
0.0
 30
0.0
 70
   128
  0
VERTEX
  5
55A
100
AcDbEntity
  8
1
  6
Continuous
 62
     6
 48
0.75
100
AcDbVertex
100
AcDb2dVertex
 10
-1335.433906
 20
-81.627839
 30
0.0
 40
0.0
 41
0.0
  0
VERTEX
  5
55B
100
AcDbEntity
  8
1
  6
Continuous
 62
     6
 48
0.75
100
AcDbVertex
100
AcDb2dVertex
 10
-1333.803906
 20
-86.757839
 30
0.0
 40
0.0
 41
0.0
  0
VERTEX
  5
55C
100
AcDbEntity
  8
1
  6
Continuous
 62
     6
 48
0.75
100
AcDbVertex
100
AcDb2dVertex
 10
-1333.063906
 20
-92.167839
 30
0.0
 40
0.0
 41
0.0
  0
VERTEX
  5
55D
100
AcDbEntity
  8
1
  6
Continuous
 62
     6
 48
0.75
100
AcDbVertex
100
AcDb2dVertex
 10
-1332.523906
 20
-97.597839
 30
0.0
 40
0.0
 41
0.0
  0
VERTEX
  5
55E
100
AcDbEntity
  8
1
  6
Continuous
 62
     6
 48
0.75
100
AcDbVertex
100
AcDb2dVertex
 10
-1332.083906
 20
-103.037839
 30
0.0
 40
0.0
 41
0.0
  0
VERTEX
  5
55F
100
AcDbEntity
  8
1
  6
Continuous
 62
     6
 48
0.75
100
AcDbVertex
100
AcDb2dVertex
 10
-1331.713906
 20
-108.487839
 30
0.0
 40
0.0
 41
0.0
  0
VERTEX
  5
560
100
AcDbEntity
  8
1
  6
Continuous
 62
     6
 48
0.75
100
AcDbVertex
100
AcDb2dVertex
 10
-1331.383906
 20
-113.927839
 30
0.0
 40
0.0
 41
0.0
  0
VERTEX
  5
561
100
AcDbEntity
  8
1
  6
Continuous
 62
     6
 48
0.75
100
AcDbVertex
100
AcDb2dVertex
 10
-1331.093906
 20
-119.377839
 30
0.0
 40
0.0
 41
0.0
  0
VERTEX
  5
562
100
AcDbEntity
  8
1
  6
Continuous
 62
     6
 48
0.75
100
AcDbVertex
100
AcDb2dVertex
 10
-1330.823906
 20
-124.827839
 30
0.0
 40
0.0
 41
0.0
  0
VERTEX
  5
563
100
AcDbEntity
  8
1
  6
Continuous
 62
     6
 48
0.75
100
AcDbVertex
100
AcDb2dVertex
 10
-1330.583906
 20
-130.287839
 30
0.0
 40
0.0
 41
0.0
  0
VERTEX
  5
564
100
AcDbEntity
  8
1
  6
Continuous
 62
     6
 48
0.75
100
AcDbVertex
100
AcDb2dVertex
 10
-1330.353906
 20
-135.737839
 30
0.0
 40
0.0
 41
0.0
  0
VERTEX
  5
565
100
AcDbEntity
  8
1
  6
Continuous
 62
     6
 48
0.75
100
AcDbVertex
100
AcDb2dVertex
 10
-1234.663906
 20
-159.817839
 30
0.0
 40
0.0
 41
0.0
  0
VERTEX
  5
566
100
AcDbEntity
  8
1
  6
Continuous
 62
     6
 48
0.75
100
AcDbVertex
100
AcDb2dVertex
 10
-1234.663906
 20
-164.857839
 30
0.0
 40
0.0
 41
0.0
  0
SEQEND
  5
567
100
AcDbEntity
  8
0
  0
POLYLINE
  5
568
100
AcDbEntity
  8
1
  6
Continuous
 62
     6
 48
0.75
100
AcDb2dPolyline
 66
     1
 10
0.0
 20
0.0
 30
0.0
 70
   128
  0
VERTEX
  5
569
100
AcDbEntity
  8
1
  6
Continuous
 62
     6
 48
0.75
100
AcDbVertex
100
AcDb2dVertex
 10
-1125.893906
 20
-78.627839
 30
0.0
 40
0.0
 41
0.0
  0
VERTEX
  5
56A
100
AcDbEntity
  8
1
  6
Continuous
 62
     6
 48
0.75
100
AcDbVertex
100
AcDb2dVertex
 10
-1125.893906
 20
-79.197839
 30
0.0
 40
0.0
 41
0.0
  0
VERTEX
  5
56B
100
AcDbEntity
  8
1
  6
Continuous
 62
     6
 48
0.75
100
AcDbVertex
100
AcDb2dVertex
 10
-1125.893906
 20
-79.707839
 30
0.0
 40
0.0
 41
0.0
  0
VERTEX
  5
56C
100
AcDbEntity
  8
1
  6
Continuous
 62
     6
 48
0.75
100
AcDbVertex
100
AcDb2dVertex
 10
-1125.893906
 20
-80.157839
 30
0.0
 40
0.0
 41
0.0
  0
VERTEX
  5
56D
100
AcDbEntity
  8
1
  6
Continuous
 62
     6
 48
0.75
100
AcDbVertex
100
AcDb2dVertex
 10
-1125.893906
 20
-80.547839
 30
0.0
 40
0.0
 41
0.0
  0
VERTEX
  5
56E
100
AcDbEntity
  8
1
  6
Continuous
 62
     6
 48
0.75
100
AcDbVertex
100
AcDb2dVertex
 10
-1125.893906
 20
-80.877839
 30
0.0
 40
0.0
 41
0.0
  0
VERTEX
  5
56F
100
AcDbEntity
  8
1
  6
Continuous
 62
     6
 48
0.75
100
AcDbVertex
100
AcDb2dVertex
 10
-1125.893906
 20
-81.147839
 30
0.0
 40
0.0
 41
0.0
  0
VERTEX
  5
570
100
AcDbEntity
  8
1
  6
Continuous
 62
     6
 48
0.75
100
AcDbVertex
100
AcDb2dVertex
 10
-1125.893906
 20
-81.357839
 30
0.0
 40
0.0
 41
0.0
  0
VERTEX
  5
571
100
AcDbEntity
  8
1
  6
Continuous
 62
     6
 48
0.75
100
AcDbVertex
100
AcDb2dVertex
 10
-1125.893906
 20
-81.507839
 30
0.0
 40
0.0
 41
0.0
  0
VERTEX
  5
572
100
AcDbEntity
  8
1
  6
Continuous
 62
     6
 48
0.75
100
AcDbVertex
100
AcDb2dVertex
 10
-1125.893906
 20
-81.597839
 30
0.0
 40
0.0
 41
0.0
  0
VERTEX
  5
573
100
AcDbEntity
  8
1
  6
Continuous
 62
     6
 48
0.75
100
AcDbVertex
100
AcDb2dVertex
 10
-1125.893906
 20
-81.627839
 30
0.0
 40
0.0
 41
0.0
  0
VERTEX
  5
574
100
AcDbEntity
  8
1
  6
Continuous
 62
     6
 48
0.75
100
AcDbVertex
100
AcDb2dVertex
 10
-1126.483906
 20
-82.507839
 30
0.0
 40
0.0
 41
0.0
  0
VERTEX
  5
575
100
AcDbEntity
  8
1
  6
Continuous
 62
     6
 48
0.75
100
AcDbVertex
100
AcDb2dVertex
 10
-1127.053906
 20
-84.397839
 30
0.0
 40
0.0
 41
0.0
  0
VERTEX
  5
576
100
AcDbEntity
  8
1
  6
Continuous
 62
     6
 48
0.75
100
AcDbVertex
100
AcDb2dVertex
 10
-1127.613906
 20
-87.297839
 30
0.0
 40
0.0
 41
0.0
  0
VERTEX
  5
577
100
AcDbEntity
  8
1
  6
Continuous
 62
     6
 48
0.75
100
AcDbVertex
100
AcDb2dVertex
 10
-1128.143906
 20
-91.197839
 30
0.0
 40
0.0
 41
0.0
  0
VERTEX
  5
578
100
AcDbEntity
  8
1
  6
Continuous
 62
     6
 48
0.75
100
AcDbVertex
100
AcDb2dVertex
 10
-1128.663906
 20
-96.107839
 30
0.0
 40
0.0
 41
0.0
  0
VERTEX
  5
579
100
AcDbEntity
  8
1
  6
Continuous
 62
     6
 48
0.75
100
AcDbVertex
100
AcDb2dVertex
 10
-1129.163906
 20
-102.017839
 30
0.0
 40
0.0
 41
0.0
  0
VERTEX
  5
57A
100
AcDbEntity
  8
1
  6
Continuous
 62
     6
 48
0.75
100
AcDbVertex
100
AcDb2dVertex
 10
-1129.643906
 20
-108.937839
 30
0.0
 40
0.0
 41
0.0
  0
VERTEX
  5
57B
100
AcDbEntity
  8
1
  6
Continuous
 62
     6
 48
0.75
100
AcDbVertex
100
AcDb2dVertex
 10
-1130.103906
 20
-116.867839
 30
0.0
 40
0.0
 41
0.0
  0
VERTEX
  5
57C
100
AcDbEntity
  8
1
  6
Continuous
 62
     6
 48
0.75
100
AcDbVertex
100
AcDb2dVertex
 10
-1130.543906
 20
-125.797839
 30
0.0
 40
0.0
 41
0.0
  0
VERTEX
  5
57D
100
AcDbEntity
  8
1
  6
Continuous
 62
     6
 48
0.75
100
AcDbVertex
100
AcDb2dVertex
 10
-1130.973906
 20
-135.737839
 30
0.0
 40
0.0
 41
0.0
  0
VERTEX
  5
57E
100
AcDbEntity
  8
1
  6
Continuous
 62
     6
 48
0.75
100
AcDbVertex
100
AcDb2dVertex
 10
-1226.663906
 20
-159.817839
 30
0.0
 40
0.0
 41
0.0
  0
VERTEX
  5
57F
100
AcDbEntity
  8
1
  6
Continuous
 62
     6
 48
0.75
100
AcDbVertex
100
AcDb2dVertex
 10
-1226.663906
 20
-164.857839
 30
0.0
 40
0.0
 41
0.0
  0
SEQEND
  5
580
100
AcDbEntity
  8
0
  0
POLYLINE
  5
581
100
AcDbEntity
  8
1
  6
Continuous
 62
     6
 48
0.75
100
AcDb2dPolyline
 66
     1
 10
0.0
 20
0.0
 30
0.0
 70
   128
  0
VERTEX
  5
582
100
AcDbEntity
  8
1
  6
Continuous
 62
     6
 48
0.75
100
AcDbVertex
100
AcDb2dVertex
 10
-1331.543906
 20
-78.877839
 30
0.0
 40
0.0
 41
0.0
  0
VERTEX
  5
583
100
AcDbEntity
  8
1
  6
Continuous
 62
     6
 48
0.75
100
AcDbVertex
100
AcDb2dVertex
 10
-1331.543906
 20
-79.447839
 30
0.0
 40
0.0
 41
0.0
  0
VERTEX
  5
584
100
AcDbEntity
  8
1
  6
Continuous
 62
     6
 48
0.75
100
AcDbVertex
100
AcDb2dVertex
 10
-1331.543906
 20
-79.957839
 30
0.0
 40
0.0
 41
0.0
  0
VERTEX
  5
585
100
AcDbEntity
  8
1
  6
Continuous
 62
     6
 48
0.75
100
AcDbVertex
100
AcDb2dVertex
 10
-1331.543906
 20
-80.407839
 30
0.0
 40
0.0
 41
0.0
  0
VERTEX
  5
586
100
AcDbEntity
  8
1
  6
Continuous
 62
     6
 48
0.75
100
AcDbVertex
100
AcDb2dVertex
 10
-1331.543906
 20
-80.797839
 30
0.0
 40
0.0
 41
0.0
  0
VERTEX
  5
587
100
AcDbEntity
  8
1
  6
Continuous
 62
     6
 48
0.75
100
AcDbVertex
100
AcDb2dVertex
 10
-1331.543906
 20
-81.127839
 30
0.0
 40
0.0
 41
0.0
  0
VERTEX
  5
588
100
AcDbEntity
  8
1
  6
Continuous
 62
     6
 48
0.75
100
AcDbVertex
100
AcDb2dVertex
 10
-1331.543906
 20
-81.397839
 30
0.0
 40
0.0
 41
0.0
  0
VERTEX
  5
589
100
AcDbEntity
  8
1
  6
Continuous
 62
     6
 48
0.75
100
AcDbVertex
100
AcDb2dVertex
 10
-1331.543906
 20
-81.607839
 30
0.0
 40
0.0
 41
0.0
  0
VERTEX
  5
58A
100
AcDbEntity
  8
1
  6
Continuous
 62
     6
 48
0.75
100
AcDbVertex
100
AcDb2dVertex
 10
-1331.543906
 20
-81.757839
 30
0.0
 40
0.0
 41
0.0
  0
VERTEX
  5
58B
100
AcDbEntity
  8
1
  6
Continuous
 62
     6
 48
0.75
100
AcDbVertex
100
AcDb2dVertex
 10
-1331.543906
 20
-81.847839
 30
0.0
 40
0.0
 41
0.0
  0
VERTEX
  5
58C
100
AcDbEntity
  8
1
  6
Continuous
 62
     6
 48
0.75
100
AcDbVertex
100
AcDb2dVertex
 10
-1331.543906
 20
-81.877839
 30
0.0
 40
0.0
 41
0.0
  0
VERTEX
  5
58D
100
AcDbEntity
  8
1
  6
Continuous
 62
     6
 48
0.75
100
AcDbVertex
100
AcDb2dVertex
 10
-1330.923906
 20
-83.037839
 30
0.0
 40
0.0
 41
0.0
  0
VERTEX
  5
58E
100
AcDbEntity
  8
1
  6
Continuous
 62
     6
 48
0.75
100
AcDbVertex
100
AcDb2dVertex
 10
-1330.363906
 20
-85.157839
 30
0.0
 40
0.0
 41
0.0
  0
VERTEX
  5
58F
100
AcDbEntity
  8
1
  6
Continuous
 62
     6
 48
0.75
100
AcDbVertex
100
AcDb2dVertex
 10
-1329.873906
 20
-88.217839
 30
0.0
 40
0.0
 41
0.0
  0
VERTEX
  5
590
100
AcDbEntity
  8
1
  6
Continuous
 62
     6
 48
0.75
100
AcDbVertex
100
AcDb2dVertex
 10
-1329.443906
 20
-92.217839
 30
0.0
 40
0.0
 41
0.0
  0
VERTEX
  5
591
100
AcDbEntity
  8
1
  6
Continuous
 62
     6
 48
0.75
100
AcDbVertex
100
AcDb2dVertex
 10
-1329.073906
 20
-97.167839
 30
0.0
 40
0.0
 41
0.0
  0
VERTEX
  5
592
100
AcDbEntity
  8
1
  6
Continuous
 62
     6
 48
0.75
100
AcDbVertex
100
AcDb2dVertex
 10
-1328.763906
 20
-103.067839
 30
0.0
 40
0.0
 41
0.0
  0
VERTEX
  5
593
100
AcDbEntity
  8
1
  6
Continuous
 62
     6
 48
0.75
100
AcDbVertex
100
AcDb2dVertex
 10
-1328.513906
 20
-109.917839
 30
0.0
 40
0.0
 41
0.0
  0
VERTEX
  5
594
100
AcDbEntity
  8
1
  6
Continuous
 62
     6
 48
0.75
100
AcDbVertex
100
AcDb2dVertex
 10
-1328.333906
 20
-117.707839
 30
0.0
 40
0.0
 41
0.0
  0
VERTEX
  5
595
100
AcDbEntity
  8
1
  6
Continuous
 62
     6
 48
0.75
100
AcDbVertex
100
AcDb2dVertex
 10
-1328.213906
 20
-126.447839
 30
0.0
 40
0.0
 41
0.0
  0
VERTEX
  5
596
100
AcDbEntity
  8
1
  6
Continuous
 62
     6
 48
0.75
100
AcDbVertex
100
AcDb2dVertex
 10
-1328.153906
 20
-136.137839
 30
0.0
 40
0.0
 41
0.0
  0
VERTEX
  5
597
100
AcDbEntity
  8
1
  6
Continuous
 62
     6
 48
0.75
100
AcDbVertex
100
AcDb2dVertex
 10
-1234.663906
 20
-156.707839
 30
0.0
 40
0.0
 41
0.0
  0
VERTEX
  5
598
100
AcDbEntity
  8
1
  6
Continuous
 62
     6
 48
0.75
100
AcDbVertex
100
AcDb2dVertex
 10
-1234.663906
 20
-164.857839
 30
0.0
 40
0.0
 41
0.0
  0
SEQEND
  5
599
100
AcDbEntity
  8
0
  0
POLYLINE
  5
59A
100
AcDbEntity
  8
1
  6
Continuous
 62
     6
 48
0.75
100
AcDb2dPolyline
 66
     1
 10
0.0
 20
0.0
 30
0.0
 70
   128
  0
VERTEX
  5
59B
100
AcDbEntity
  8
1
  6
Continuous
 62
     6
 48
0.75
100
AcDbVertex
100
AcDb2dVertex
 10
-1331.543906
 20
-81.877839
 30
0.0
 40
0.0
 41
0.0
  0
VERTEX
  5
59C
100
AcDbEntity
  8
1
  6
Continuous
 62
     6
 48
0.75
100
AcDbVertex
100
AcDb2dVertex
 10
-1330.033906
 20
-87.067839
 30
0.0
 40
0.0
 41
0.0
  0
VERTEX
  5
59D
100
AcDbEntity
  8
1
  6
Continuous
 62
     6
 48
0.75
100
AcDbVertex
100
AcDb2dVertex
 10
-1329.413906
 20
-92.497839
 30
0.0
 40
0.0
 41
0.0
  0
VERTEX
  5
59E
100
AcDbEntity
  8
1
  6
Continuous
 62
     6
 48
0.75
100
AcDbVertex
100
AcDb2dVertex
 10
-1329.023906
 20
-97.937839
 30
0.0
 40
0.0
 41
0.0
  0
VERTEX
  5
59F
100
AcDbEntity
  8
1
  6
Continuous
 62
     6
 48
0.75
100
AcDbVertex
100
AcDb2dVertex
 10
-1328.753906
 20
-103.387839
 30
0.0
 40
0.0
 41
0.0
  0
VERTEX
  5
5A0
100
AcDbEntity
  8
1
  6
Continuous
 62
     6
 48
0.75
100
AcDbVertex
100
AcDb2dVertex
 10
-1328.553906
 20
-108.847839
 30
0.0
 40
0.0
 41
0.0
  0
VERTEX
  5
5A1
100
AcDbEntity
  8
1
  6
Continuous
 62
     6
 48
0.75
100
AcDbVertex
100
AcDb2dVertex
 10
-1328.403906
 20
-114.307839
 30
0.0
 40
0.0
 41
0.0
  0
VERTEX
  5
5A2
100
AcDbEntity
  8
1
  6
Continuous
 62
     6
 48
0.75
100
AcDbVertex
100
AcDb2dVertex
 10
-1328.293906
 20
-119.757839
 30
0.0
 40
0.0
 41
0.0
  0
VERTEX
  5
5A3
100
AcDbEntity
  8
1
  6
Continuous
 62
     6
 48
0.75
100
AcDbVertex
100
AcDb2dVertex
 10
-1328.223906
 20
-125.217839
 30
0.0
 40
0.0
 41
0.0
  0
VERTEX
  5
5A4
100
AcDbEntity
  8
1
  6
Continuous
 62
     6
 48
0.75
100
AcDbVertex
100
AcDb2dVertex
 10
-1328.173906
 20
-130.677839
 30
0.0
 40
0.0
 41
0.0
  0
VERTEX
  5
5A5
100
AcDbEntity
  8
1
  6
Continuous
 62
     6
 48
0.75
100
AcDbVertex
100
AcDb2dVertex
 10
-1328.153906
 20
-136.137839
 30
0.0
 40
0.0
 41
0.0
  0
VERTEX
  5
5A6
100
AcDbEntity
  8
1
  6
Continuous
 62
     6
 48
0.75
100
AcDbVertex
100
AcDb2dVertex
 10
-1234.663906
 20
-156.707839
 30
0.0
 40
0.0
 41
0.0
  0
VERTEX
  5
5A7
100
AcDbEntity
  8
1
  6
Continuous
 62
     6
 48
0.75
100
AcDbVertex
100
AcDb2dVertex
 10
-1234.663906
 20
-164.857839
 30
0.0
 40
0.0
 41
0.0
  0
SEQEND
  5
5A8
100
AcDbEntity
  8
0
  0
POLYLINE
  5
5A9
100
AcDbEntity
  8
1
  6
Continuous
 62
     6
 48
0.75
100
AcDb2dPolyline
 66
     1
 10
0.0
 20
0.0
 30
0.0
 70
   128
  0
VERTEX
  5
5AA
100
AcDbEntity
  8
1
  6
Continuous
 62
     6
 48
0.75
100
AcDbVertex
100
AcDb2dVertex
 10
-1129.783906
 20
-78.877839
 30
0.0
 40
0.0
 41
0.0
  0
VERTEX
  5
5AB
100
AcDbEntity
  8
1
  6
Continuous
 62
     6
 48
0.75
100
AcDbVertex
100
AcDb2dVertex
 10
-1129.783906
 20
-79.447839
 30
0.0
 40
0.0
 41
0.0
  0
VERTEX
  5
5AC
100
AcDbEntity
  8
1
  6
Continuous
 62
     6
 48
0.75
100
AcDbVertex
100
AcDb2dVertex
 10
-1129.783906
 20
-79.957839
 30
0.0
 40
0.0
 41
0.0
  0
VERTEX
  5
5AD
100
AcDbEntity
  8
1
  6
Continuous
 62
     6
 48
0.75
100
AcDbVertex
100
AcDb2dVertex
 10
-1129.783906
 20
-80.407839
 30
0.0
 40
0.0
 41
0.0
  0
VERTEX
  5
5AE
100
AcDbEntity
  8
1
  6
Continuous
 62
     6
 48
0.75
100
AcDbVertex
100
AcDb2dVertex
 10
-1129.783906
 20
-80.797839
 30
0.0
 40
0.0
 41
0.0
  0
VERTEX
  5
5AF
100
AcDbEntity
  8
1
  6
Continuous
 62
     6
 48
0.75
100
AcDbVertex
100
AcDb2dVertex
 10
-1129.783906
 20
-81.127839
 30
0.0
 40
0.0
 41
0.0
  0
VERTEX
  5
5B0
100
AcDbEntity
  8
1
  6
Continuous
 62
     6
 48
0.75
100
AcDbVertex
100
AcDb2dVertex
 10
-1129.783906
 20
-81.397839
 30
0.0
 40
0.0
 41
0.0
  0
VERTEX
  5
5B1
100
AcDbEntity
  8
1
  6
Continuous
 62
     6
 48
0.75
100
AcDbVertex
100
AcDb2dVertex
 10
-1129.783906
 20
-81.607839
 30
0.0
 40
0.0
 41
0.0
  0
VERTEX
  5
5B2
100
AcDbEntity
  8
1
  6
Continuous
 62
     6
 48
0.75
100
AcDbVertex
100
AcDb2dVertex
 10
-1129.783906
 20
-81.757839
 30
0.0
 40
0.0
 41
0.0
  0
VERTEX
  5
5B3
100
AcDbEntity
  8
1
  6
Continuous
 62
     6
 48
0.75
100
AcDbVertex
100
AcDb2dVertex
 10
-1129.783906
 20
-81.847839
 30
0.0
 40
0.0
 41
0.0
  0
VERTEX
  5
5B4
100
AcDbEntity
  8
1
  6
Continuous
 62
     6
 48
0.75
100
AcDbVertex
100
AcDb2dVertex
 10
-1129.783906
 20
-81.877839
 30
0.0
 40
0.0
 41
0.0
  0
VERTEX
  5
5B5
100
AcDbEntity
  8
1
  6
Continuous
 62
     6
 48
0.75
100
AcDbVertex
100
AcDb2dVertex
 10
-1130.403906
 20
-83.037839
 30
0.0
 40
0.0
 41
0.0
  0
VERTEX
  5
5B6
100
AcDbEntity
  8
1
  6
Continuous
 62
     6
 48
0.75
100
AcDbVertex
100
AcDb2dVertex
 10
-1130.963906
 20
-85.157839
 30
0.0
 40
0.0
 41
0.0
  0
VERTEX
  5
5B7
100
AcDbEntity
  8
1
  6
Continuous
 62
     6
 48
0.75
100
AcDbVertex
100
AcDb2dVertex
 10
-1131.453906
 20
-88.217839
 30
0.0
 40
0.0
 41
0.0
  0
VERTEX
  5
5B8
100
AcDbEntity
  8
1
  6
Continuous
 62
     6
 48
0.75
100
AcDbVertex
100
AcDb2dVertex
 10
-1131.883906
 20
-92.217839
 30
0.0
 40
0.0
 41
0.0
  0
VERTEX
  5
5B9
100
AcDbEntity
  8
1
  6
Continuous
 62
     6
 48
0.75
100
AcDbVertex
100
AcDb2dVertex
 10
-1132.253906
 20
-97.167839
 30
0.0
 40
0.0
 41
0.0
  0
VERTEX
  5
5BA
100
AcDbEntity
  8
1
  6
Continuous
 62
     6
 48
0.75
100
AcDbVertex
100
AcDb2dVertex
 10
-1132.563906
 20
-103.067839
 30
0.0
 40
0.0
 41
0.0
  0
VERTEX
  5
5BB
100
AcDbEntity
  8
1
  6
Continuous
 62
     6
 48
0.75
100
AcDbVertex
100
AcDb2dVertex
 10
-1132.813906
 20
-109.917839
 30
0.0
 40
0.0
 41
0.0
  0
VERTEX
  5
5BC
100
AcDbEntity
  8
1
  6
Continuous
 62
     6
 48
0.75
100
AcDbVertex
100
AcDb2dVertex
 10
-1132.993906
 20
-117.707839
 30
0.0
 40
0.0
 41
0.0
  0
VERTEX
  5
5BD
100
AcDbEntity
  8
1
  6
Continuous
 62
     6
 48
0.75
100
AcDbVertex
100
AcDb2dVertex
 10
-1133.113906
 20
-126.447839
 30
0.0
 40
0.0
 41
0.0
  0
VERTEX
  5
5BE
100
AcDbEntity
  8
1
  6
Continuous
 62
     6
 48
0.75
100
AcDbVertex
100
AcDb2dVertex
 10
-1133.173906
 20
-136.137839
 30
0.0
 40
0.0
 41
0.0
  0
VERTEX
  5
5BF
100
AcDbEntity
  8
1
  6
Continuous
 62
     6
 48
0.75
100
AcDbVertex
100
AcDb2dVertex
 10
-1226.663906
 20
-156.707839
 30
0.0
 40
0.0
 41
0.0
  0
VERTEX
  5
5C0
100
AcDbEntity
  8
1
  6
Continuous
 62
     6
 48
0.75
100
AcDbVertex
100
AcDb2dVertex
 10
-1226.663906
 20
-164.857839
 30
0.0
 40
0.0
 41
0.0
  0
SEQEND
  5
5C1
100
AcDbEntity
  8
0
  0
POLYLINE
  5
5C2
100
AcDbEntity
  8
1
  6
Continuous
 62
     6
 48
0.75
100
AcDb2dPolyline
 66
     1
 10
0.0
 20
0.0
 30
0.0
 70
   128
  0
VERTEX
  5
5C3
100
AcDbEntity
  8
1
  6
Continuous
 62
     6
 48
0.75
100
AcDbVertex
100
AcDb2dVertex
 10
-1326.683906
 20
-79.077839
 30
0.0
 40
0.0
 41
0.0
  0
VERTEX
  5
5C4
100
AcDbEntity
  8
1
  6
Continuous
 62
     6
 48
0.75
100
AcDbVertex
100
AcDb2dVertex
 10
-1326.683906
 20
-79.647839
 30
0.0
 40
0.0
 41
0.0
  0
VERTEX
  5
5C5
100
AcDbEntity
  8
1
  6
Continuous
 62
     6
 48
0.75
100
AcDbVertex
100
AcDb2dVertex
 10
-1326.683906
 20
-80.157839
 30
0.0
 40
0.0
 41
0.0
  0
VERTEX
  5
5C6
100
AcDbEntity
  8
1
  6
Continuous
 62
     6
 48
0.75
100
AcDbVertex
100
AcDb2dVertex
 10
-1326.683906
 20
-80.607839
 30
0.0
 40
0.0
 41
0.0
  0
VERTEX
  5
5C7
100
AcDbEntity
  8
1
  6
Continuous
 62
     6
 48
0.75
100
AcDbVertex
100
AcDb2dVertex
 10
-1326.683906
 20
-80.997839
 30
0.0
 40
0.0
 41
0.0
  0
VERTEX
  5
5C8
100
AcDbEntity
  8
1
  6
Continuous
 62
     6
 48
0.75
100
AcDbVertex
100
AcDb2dVertex
 10
-1326.683906
 20
-81.327839
 30
0.0
 40
0.0
 41
0.0
  0
VERTEX
  5
5C9
100
AcDbEntity
  8
1
  6
Continuous
 62
     6
 48
0.75
100
AcDbVertex
100
AcDb2dVertex
 10
-1326.683906
 20
-81.597839
 30
0.0
 40
0.0
 41
0.0
  0
VERTEX
  5
5CA
100
AcDbEntity
  8
1
  6
Continuous
 62
     6
 48
0.75
100
AcDbVertex
100
AcDb2dVertex
 10
-1326.683906
 20
-81.807839
 30
0.0
 40
0.0
 41
0.0
  0
VERTEX
  5
5CB
100
AcDbEntity
  8
1
  6
Continuous
 62
     6
 48
0.75
100
AcDbVertex
100
AcDb2dVertex
 10
-1326.683906
 20
-81.957839
 30
0.0
 40
0.0
 41
0.0
  0
VERTEX
  5
5CC
100
AcDbEntity
  8
1
  6
Continuous
 62
     6
 48
0.75
100
AcDbVertex
100
AcDb2dVertex
 10
-1326.683906
 20
-82.047839
 30
0.0
 40
0.0
 41
0.0
  0
VERTEX
  5
5CD
100
AcDbEntity
  8
1
  6
Continuous
 62
     6
 48
0.75
100
AcDbVertex
100
AcDb2dVertex
 10
-1326.683906
 20
-82.077839
 30
0.0
 40
0.0
 41
0.0
  0
VERTEX
  5
5CE
100
AcDbEntity
  8
1
  6
Continuous
 62
     6
 48
0.75
100
AcDbVertex
100
AcDb2dVertex
 10
-1325.953906
 20
-83.617839
 30
0.0
 40
0.0
 41
0.0
  0
VERTEX
  5
5CF
100
AcDbEntity
  8
1
  6
Continuous
 62
     6
 48
0.75
100
AcDbVertex
100
AcDb2dVertex
 10
-1325.343906
 20
-86.017839
 30
0.0
 40
0.0
 41
0.0
  0
VERTEX
  5
5D0
100
AcDbEntity
  8
1
  6
Continuous
 62
     6
 48
0.75
100
AcDbVertex
100
AcDb2dVertex
 10
-1324.873906
 20
-89.297839
 30
0.0
 40
0.0
 41
0.0
  0
VERTEX
  5
5D1
100
AcDbEntity
  8
1
  6
Continuous
 62
     6
 48
0.75
100
AcDbVertex
100
AcDb2dVertex
 10
-1324.533906
 20
-93.437839
 30
0.0
 40
0.0
 41
0.0
  0
VERTEX
  5
5D2
100
AcDbEntity
  8
1
  6
Continuous
 62
     6
 48
0.75
100
AcDbVertex
100
AcDb2dVertex
 10
-1324.333906
 20
-98.457839
 30
0.0
 40
0.0
 41
0.0
  0
VERTEX
  5
5D3
100
AcDbEntity
  8
1
  6
Continuous
 62
     6
 48
0.75
100
AcDbVertex
100
AcDb2dVertex
 10
-1324.253906
 20
-104.347839
 30
0.0
 40
0.0
 41
0.0
  0
VERTEX
  5
5D4
100
AcDbEntity
  8
1
  6
Continuous
 62
     6
 48
0.75
100
AcDbVertex
100
AcDb2dVertex
 10
-1324.313906
 20
-111.107839
 30
0.0
 40
0.0
 41
0.0
  0
VERTEX
  5
5D5
100
AcDbEntity
  8
1
  6
Continuous
 62
     6
 48
0.75
100
AcDbVertex
100
AcDb2dVertex
 10
-1324.503906
 20
-118.727839
 30
0.0
 40
0.0
 41
0.0
  0
VERTEX
  5
5D6
100
AcDbEntity
  8
1
  6
Continuous
 62
     6
 48
0.75
100
AcDbVertex
100
AcDb2dVertex
 10
-1324.823906
 20
-127.227839
 30
0.0
 40
0.0
 41
0.0
  0
VERTEX
  5
5D7
100
AcDbEntity
  8
1
  6
Continuous
 62
     6
 48
0.75
100
AcDbVertex
100
AcDb2dVertex
 10
-1325.273906
 20
-136.597839
 30
0.0
 40
0.0
 41
0.0
  0
VERTEX
  5
5D8
100
AcDbEntity
  8
1
  6
Continuous
 62
     6
 48
0.75
100
AcDbVertex
100
AcDb2dVertex
 10
-1234.663906
 20
-153.527839
 30
0.0
 40
0.0
 41
0.0
  0
VERTEX
  5
5D9
100
AcDbEntity
  8
1
  6
Continuous
 62
     6
 48
0.75
100
AcDbVertex
100
AcDb2dVertex
 10
-1234.663906
 20
-164.857839
 30
0.0
 40
0.0
 41
0.0
  0
SEQEND
  5
5DA
100
AcDbEntity
  8
0
  0
POLYLINE
  5
5DB
100
AcDbEntity
  8
1
  6
Continuous
 62
     6
 48
0.75
100
AcDb2dPolyline
 66
     1
 10
0.0
 20
0.0
 30
0.0
 70
   128
  0
VERTEX
  5
5DC
100
AcDbEntity
  8
1
  6
Continuous
 62
     6
 48
0.75
100
AcDbVertex
100
AcDb2dVertex
 10
-1326.683906
 20
-82.077839
 30
0.0
 40
0.0
 41
0.0
  0
VERTEX
  5
5DD
100
AcDbEntity
  8
1
  6
Continuous
 62
     6
 48
0.75
100
AcDbVertex
100
AcDb2dVertex
 10
-1325.133906
 20
-87.297839
 30
0.0
 40
0.0
 41
0.0
  0
VERTEX
  5
5DE
100
AcDbEntity
  8
1
  6
Continuous
 62
     6
 48
0.75
100
AcDbVertex
100
AcDb2dVertex
 10
-1324.583906
 20
-92.747839
 30
0.0
 40
0.0
 41
0.0
  0
VERTEX
  5
5DF
100
AcDbEntity
  8
1
  6
Continuous
 62
     6
 48
0.75
100
AcDbVertex
100
AcDb2dVertex
 10
-1324.333906
 20
-98.227839
 30
0.0
 40
0.0
 41
0.0
  0
VERTEX
  5
5E0
100
AcDbEntity
  8
1
  6
Continuous
 62
     6
 48
0.75
100
AcDbVertex
100
AcDb2dVertex
 10
-1324.253906
 20
-103.707839
 30
0.0
 40
0.0
 41
0.0
  0
VERTEX
  5
5E1
100
AcDbEntity
  8
1
  6
Continuous
 62
     6
 48
0.75
100
AcDbVertex
100
AcDb2dVertex
 10
-1324.283906
 20
-109.197839
 30
0.0
 40
0.0
 41
0.0
  0
VERTEX
  5
5E2
100
AcDbEntity
  8
1
  6
Continuous
 62
     6
 48
0.75
100
AcDbVertex
100
AcDb2dVertex
 10
-1324.383906
 20
-114.677839
 30
0.0
 40
0.0
 41
0.0
  0
VERTEX
  5
5E3
100
AcDbEntity
  8
1
  6
Continuous
 62
     6
 48
0.75
100
AcDbVertex
100
AcDb2dVertex
 10
-1324.543906
 20
-120.157839
 30
0.0
 40
0.0
 41
0.0
  0
VERTEX
  5
5E4
100
AcDbEntity
  8
1
  6
Continuous
 62
     6
 48
0.75
100
AcDbVertex
100
AcDb2dVertex
 10
-1324.753906
 20
-125.637839
 30
0.0
 40
0.0
 41
0.0
  0
VERTEX
  5
5E5
100
AcDbEntity
  8
1
  6
Continuous
 62
     6
 48
0.75
100
AcDbVertex
100
AcDb2dVertex
 10
-1324.993906
 20
-131.117839
 30
0.0
 40
0.0
 41
0.0
  0
VERTEX
  5
5E6
100
AcDbEntity
  8
1
  6
Continuous
 62
     6
 48
0.75
100
AcDbVertex
100
AcDb2dVertex
 10
-1325.273906
 20
-136.597839
 30
0.0
 40
0.0
 41
0.0
  0
VERTEX
  5
5E7
100
AcDbEntity
  8
1
  6
Continuous
 62
     6
 48
0.75
100
AcDbVertex
100
AcDb2dVertex
 10
-1234.663906
 20
-153.527839
 30
0.0
 40
0.0
 41
0.0
  0
VERTEX
  5
5E8
100
AcDbEntity
  8
1
  6
Continuous
 62
     6
 48
0.75
100
AcDbVertex
100
AcDb2dVertex
 10
-1234.663906
 20
-164.857839
 30
0.0
 40
0.0
 41
0.0
  0
SEQEND
  5
5E9
100
AcDbEntity
  8
0
  0
POLYLINE
  5
5EA
100
AcDbEntity
  8
1
  6
Continuous
 62
     6
 48
0.75
100
AcDb2dPolyline
 66
     1
 10
0.0
 20
0.0
 30
0.0
 70
   128
  0
VERTEX
  5
5EB
100
AcDbEntity
  8
1
  6
Continuous
 62
     6
 48
0.75
100
AcDbVertex
100
AcDb2dVertex
 10
-1134.643906
 20
-79.077839
 30
0.0
 40
0.0
 41
0.0
  0
VERTEX
  5
5EC
100
AcDbEntity
  8
1
  6
Continuous
 62
     6
 48
0.75
100
AcDbVertex
100
AcDb2dVertex
 10
-1134.643906
 20
-79.647839
 30
0.0
 40
0.0
 41
0.0
  0
VERTEX
  5
5ED
100
AcDbEntity
  8
1
  6
Continuous
 62
     6
 48
0.75
100
AcDbVertex
100
AcDb2dVertex
 10
-1134.643906
 20
-80.157839
 30
0.0
 40
0.0
 41
0.0
  0
VERTEX
  5
5EE
100
AcDbEntity
  8
1
  6
Continuous
 62
     6
 48
0.75
100
AcDbVertex
100
AcDb2dVertex
 10
-1134.643906
 20
-80.607839
 30
0.0
 40
0.0
 41
0.0
  0
VERTEX
  5
5EF
100
AcDbEntity
  8
1
  6
Continuous
 62
     6
 48
0.75
100
AcDbVertex
100
AcDb2dVertex
 10
-1134.643906
 20
-80.997839
 30
0.0
 40
0.0
 41
0.0
  0
VERTEX
  5
5F0
100
AcDbEntity
  8
1
  6
Continuous
 62
     6
 48
0.75
100
AcDbVertex
100
AcDb2dVertex
 10
-1134.643906
 20
-81.327839
 30
0.0
 40
0.0
 41
0.0
  0
VERTEX
  5
5F1
100
AcDbEntity
  8
1
  6
Continuous
 62
     6
 48
0.75
100
AcDbVertex
100
AcDb2dVertex
 10
-1134.643906
 20
-81.597839
 30
0.0
 40
0.0
 41
0.0
  0
VERTEX
  5
5F2
100
AcDbEntity
  8
1
  6
Continuous
 62
     6
 48
0.75
100
AcDbVertex
100
AcDb2dVertex
 10
-1134.643906
 20
-81.807839
 30
0.0
 40
0.0
 41
0.0
  0
VERTEX
  5
5F3
100
AcDbEntity
  8
1
  6
Continuous
 62
     6
 48
0.75
100
AcDbVertex
100
AcDb2dVertex
 10
-1134.643906
 20
-81.957839
 30
0.0
 40
0.0
 41
0.0
  0
VERTEX
  5
5F4
100
AcDbEntity
  8
1
  6
Continuous
 62
     6
 48
0.75
100
AcDbVertex
100
AcDb2dVertex
 10
-1134.643906
 20
-82.047839
 30
0.0
 40
0.0
 41
0.0
  0
VERTEX
  5
5F5
100
AcDbEntity
  8
1
  6
Continuous
 62
     6
 48
0.75
100
AcDbVertex
100
AcDb2dVertex
 10
-1134.643906
 20
-82.077839
 30
0.0
 40
0.0
 41
0.0
  0
VERTEX
  5
5F6
100
AcDbEntity
  8
1
  6
Continuous
 62
     6
 48
0.75
100
AcDbVertex
100
AcDb2dVertex
 10
-1135.373906
 20
-83.617839
 30
0.0
 40
0.0
 41
0.0
  0
VERTEX
  5
5F7
100
AcDbEntity
  8
1
  6
Continuous
 62
     6
 48
0.75
100
AcDbVertex
100
AcDb2dVertex
 10
-1135.983906
 20
-86.017839
 30
0.0
 40
0.0
 41
0.0
  0
VERTEX
  5
5F8
100
AcDbEntity
  8
1
  6
Continuous
 62
     6
 48
0.75
100
AcDbVertex
100
AcDb2dVertex
 10
-1136.453906
 20
-89.297839
 30
0.0
 40
0.0
 41
0.0
  0
VERTEX
  5
5F9
100
AcDbEntity
  8
1
  6
Continuous
 62
     6
 48
0.75
100
AcDbVertex
100
AcDb2dVertex
 10
-1136.793906
 20
-93.437839
 30
0.0
 40
0.0
 41
0.0
  0
VERTEX
  5
5FA
100
AcDbEntity
  8
1
  6
Continuous
 62
     6
 48
0.75
100
AcDbVertex
100
AcDb2dVertex
 10
-1136.993906
 20
-98.457839
 30
0.0
 40
0.0
 41
0.0
  0
VERTEX
  5
5FB
100
AcDbEntity
  8
1
  6
Continuous
 62
     6
 48
0.75
100
AcDbVertex
100
AcDb2dVertex
 10
-1137.073906
 20
-104.347839
 30
0.0
 40
0.0
 41
0.0
  0
VERTEX
  5
5FC
100
AcDbEntity
  8
1
  6
Continuous
 62
     6
 48
0.75
100
AcDbVertex
100
AcDb2dVertex
 10
-1137.013906
 20
-111.107839
 30
0.0
 40
0.0
 41
0.0
  0
VERTEX
  5
5FD
100
AcDbEntity
  8
1
  6
Continuous
 62
     6
 48
0.75
100
AcDbVertex
100
AcDb2dVertex
 10
-1136.823906
 20
-118.727839
 30
0.0
 40
0.0
 41
0.0
  0
VERTEX
  5
5FE
100
AcDbEntity
  8
1
  6
Continuous
 62
     6
 48
0.75
100
AcDbVertex
100
AcDb2dVertex
 10
-1136.503906
 20
-127.227839
 30
0.0
 40
0.0
 41
0.0
  0
VERTEX
  5
5FF
100
AcDbEntity
  8
1
  6
Continuous
 62
     6
 48
0.75
100
AcDbVertex
100
AcDb2dVertex
 10
-1136.053906
 20
-136.597839
 30
0.0
 40
0.0
 41
0.0
  0
VERTEX
  5
600
100
AcDbEntity
  8
1
  6
Continuous
 62
     6
 48
0.75
100
AcDbVertex
100
AcDb2dVertex
 10
-1226.663906
 20
-153.527839
 30
0.0
 40
0.0
 41
0.0
  0
VERTEX
  5
601
100
AcDbEntity
  8
1
  6
Continuous
 62
     6
 48
0.75
100
AcDbVertex
100
AcDb2dVertex
 10
-1226.663906
 20
-164.857839
 30
0.0
 40
0.0
 41
0.0
  0
SEQEND
  5
602
100
AcDbEntity
  8
0
  0
POLYLINE
  5
603
100
AcDbEntity
  8
1
  6
Continuous
 62
     6
 48
0.75
100
AcDb2dPolyline
 66
     1
 10
0.0
 20
0.0
 30
0.0
 70
   128
  0
VERTEX
  5
604
100
AcDbEntity
  8
1
  6
Continuous
 62
     6
 48
0.75
100
AcDbVertex
100
AcDb2dVertex
 10
-1320.933906
 20
-78.187839
 30
0.0
 40
0.0
 41
0.0
  0
VERTEX
  5
605
100
AcDbEntity
  8
1
  6
Continuous
 62
     6
 48
0.75
100
AcDbVertex
100
AcDb2dVertex
 10
-1320.933906
 20
-78.757839
 30
0.0
 40
0.0
 41
0.0
  0
VERTEX
  5
606
100
AcDbEntity
  8
1
  6
Continuous
 62
     6
 48
0.75
100
AcDbVertex
100
AcDb2dVertex
 10
-1320.933906
 20
-79.267839
 30
0.0
 40
0.0
 41
0.0
  0
VERTEX
  5
607
100
AcDbEntity
  8
1
  6
Continuous
 62
     6
 48
0.75
100
AcDbVertex
100
AcDb2dVertex
 10
-1320.933906
 20
-79.717839
 30
0.0
 40
0.0
 41
0.0
  0
VERTEX
  5
608
100
AcDbEntity
  8
1
  6
Continuous
 62
     6
 48
0.75
100
AcDbVertex
100
AcDb2dVertex
 10
-1320.933906
 20
-80.107839
 30
0.0
 40
0.0
 41
0.0
  0
VERTEX
  5
609
100
AcDbEntity
  8
1
  6
Continuous
 62
     6
 48
0.75
100
AcDbVertex
100
AcDb2dVertex
 10
-1320.933906
 20
-80.437839
 30
0.0
 40
0.0
 41
0.0
  0
VERTEX
  5
60A
100
AcDbEntity
  8
1
  6
Continuous
 62
     6
 48
0.75
100
AcDbVertex
100
AcDb2dVertex
 10
-1320.933906
 20
-80.707839
 30
0.0
 40
0.0
 41
0.0
  0
VERTEX
  5
60B
100
AcDbEntity
  8
1
  6
Continuous
 62
     6
 48
0.75
100
AcDbVertex
100
AcDb2dVertex
 10
-1320.933906
 20
-80.917839
 30
0.0
 40
0.0
 41
0.0
  0
VERTEX
  5
60C
100
AcDbEntity
  8
1
  6
Continuous
 62
     6
 48
0.75
100
AcDbVertex
100
AcDb2dVertex
 10
-1320.933906
 20
-81.067839
 30
0.0
 40
0.0
 41
0.0
  0
VERTEX
  5
60D
100
AcDbEntity
  8
1
  6
Continuous
 62
     6
 48
0.75
100
AcDbVertex
100
AcDb2dVertex
 10
-1320.933906
 20
-81.157839
 30
0.0
 40
0.0
 41
0.0
  0
VERTEX
  5
60E
100
AcDbEntity
  8
1
  6
Continuous
 62
     6
 48
0.75
100
AcDbVertex
100
AcDb2dVertex
 10
-1320.933906
 20
-81.187839
 30
0.0
 40
0.0
 41
0.0
  0
VERTEX
  5
60F
100
AcDbEntity
  8
1
  6
Continuous
 62
     6
 48
0.75
100
AcDbVertex
100
AcDb2dVertex
 10
-1320.213906
 20
-83.187839
 30
0.0
 40
0.0
 41
0.0
  0
VERTEX
  5
610
100
AcDbEntity
  8
1
  6
Continuous
 62
     6
 48
0.75
100
AcDbVertex
100
AcDb2dVertex
 10
-1319.663906
 20
-85.977839
 30
0.0
 40
0.0
 41
0.0
  0
VERTEX
  5
611
100
AcDbEntity
  8
1
  6
Continuous
 62
     6
 48
0.75
100
AcDbVertex
100
AcDb2dVertex
 10
-1319.273906
 20
-89.567839
 30
0.0
 40
0.0
 41
0.0
  0
VERTEX
  5
612
100
AcDbEntity
  8
1
  6
Continuous
 62
     6
 48
0.75
100
AcDbVertex
100
AcDb2dVertex
 10
-1319.053906
 20
-93.947839
 30
0.0
 40
0.0
 41
0.0
  0
VERTEX
  5
613
100
AcDbEntity
  8
1
  6
Continuous
 62
     6
 48
0.75
100
AcDbVertex
100
AcDb2dVertex
 10
-1318.993906
 20
-99.127839
 30
0.0
 40
0.0
 41
0.0
  0
VERTEX
  5
614
100
AcDbEntity
  8
1
  6
Continuous
 62
     6
 48
0.75
100
AcDbVertex
100
AcDb2dVertex
 10
-1319.103906
 20
-105.097839
 30
0.0
 40
0.0
 41
0.0
  0
VERTEX
  5
615
100
AcDbEntity
  8
1
  6
Continuous
 62
     6
 48
0.75
100
AcDbVertex
100
AcDb2dVertex
 10
-1319.373906
 20
-111.867839
 30
0.0
 40
0.0
 41
0.0
  0
VERTEX
  5
616
100
AcDbEntity
  8
1
  6
Continuous
 62
     6
 48
0.75
100
AcDbVertex
100
AcDb2dVertex
 10
-1319.803906
 20
-119.427839
 30
0.0
 40
0.0
 41
0.0
  0
VERTEX
  5
617
100
AcDbEntity
  8
1
  6
Continuous
 62
     6
 48
0.75
100
AcDbVertex
100
AcDb2dVertex
 10
-1320.403906
 20
-127.787839
 30
0.0
 40
0.0
 41
0.0
  0
VERTEX
  5
618
100
AcDbEntity
  8
1
  6
Continuous
 62
     6
 48
0.75
100
AcDbVertex
100
AcDb2dVertex
 10
-1321.173906
 20
-136.937839
 30
0.0
 40
0.0
 41
0.0
  0
VERTEX
  5
619
100
AcDbEntity
  8
1
  6
Continuous
 62
     6
 48
0.75
100
AcDbVertex
100
AcDb2dVertex
 10
-1234.663906
 20
-150.197839
 30
0.0
 40
0.0
 41
0.0
  0
VERTEX
  5
61A
100
AcDbEntity
  8
1
  6
Continuous
 62
     6
 48
0.75
100
AcDbVertex
100
AcDb2dVertex
 10
-1234.663906
 20
-164.857839
 30
0.0
 40
0.0
 41
0.0
  0
SEQEND
  5
61B
100
AcDbEntity
  8
0
  0
POLYLINE
  5
61C
100
AcDbEntity
  8
1
  6
Continuous
 62
     6
 48
0.75
100
AcDb2dPolyline
 66
     1
 10
0.0
 20
0.0
 30
0.0
 70
   128
  0
VERTEX
  5
61D
100
AcDbEntity
  8
1
  6
Continuous
 62
     6
 48
0.75
100
AcDbVertex
100
AcDb2dVertex
 10
-1320.933906
 20
-81.187839
 30
0.0
 40
0.0
 41
0.0
  0
VERTEX
  5
61E
100
AcDbEntity
  8
1
  6
Continuous
 62
     6
 48
0.75
100
AcDbVertex
100
AcDb2dVertex
 10
-1319.573906
 20
-86.597839
 30
0.0
 40
0.0
 41
0.0
  0
VERTEX
  5
61F
100
AcDbEntity
  8
1
  6
Continuous
 62
     6
 48
0.75
100
AcDbVertex
100
AcDb2dVertex
 10
-1319.113906
 20
-92.187839
 30
0.0
 40
0.0
 41
0.0
  0
VERTEX
  5
620
100
AcDbEntity
  8
1
  6
Continuous
 62
     6
 48
0.75
100
AcDbVertex
100
AcDb2dVertex
 10
-1318.993906
 20
-97.787839
 30
0.0
 40
0.0
 41
0.0
  0
VERTEX
  5
621
100
AcDbEntity
  8
1
  6
Continuous
 62
     6
 48
0.75
100
AcDbVertex
100
AcDb2dVertex
 10
-1319.053906
 20
-103.387839
 30
0.0
 40
0.0
 41
0.0
  0
VERTEX
  5
622
100
AcDbEntity
  8
1
  6
Continuous
 62
     6
 48
0.75
100
AcDbVertex
100
AcDb2dVertex
 10
-1319.243906
 20
-108.987839
 30
0.0
 40
0.0
 41
0.0
  0
VERTEX
  5
623
100
AcDbEntity
  8
1
  6
Continuous
 62
     6
 48
0.75
100
AcDbVertex
100
AcDb2dVertex
 10
-1319.513906
 20
-114.587839
 30
0.0
 40
0.0
 41
0.0
  0
VERTEX
  5
624
100
AcDbEntity
  8
1
  6
Continuous
 62
     6
 48
0.75
100
AcDbVertex
100
AcDb2dVertex
 10
-1319.853906
 20
-120.177839
 30
0.0
 40
0.0
 41
0.0
  0
VERTEX
  5
625
100
AcDbEntity
  8
1
  6
Continuous
 62
     6
 48
0.75
100
AcDbVertex
100
AcDb2dVertex
 10
-1320.253906
 20
-125.767839
 30
0.0
 40
0.0
 41
0.0
  0
VERTEX
  5
626
100
AcDbEntity
  8
1
  6
Continuous
 62
     6
 48
0.75
100
AcDbVertex
100
AcDb2dVertex
 10
-1320.693906
 20
-131.357839
 30
0.0
 40
0.0
 41
0.0
  0
VERTEX
  5
627
100
AcDbEntity
  8
1
  6
Continuous
 62
     6
 48
0.75
100
AcDbVertex
100
AcDb2dVertex
 10
-1321.173906
 20
-136.937839
 30
0.0
 40
0.0
 41
0.0
  0
VERTEX
  5
628
100
AcDbEntity
  8
1
  6
Continuous
 62
     6
 48
0.75
100
AcDbVertex
100
AcDb2dVertex
 10
-1234.663906
 20
-150.197839
 30
0.0
 40
0.0
 41
0.0
  0
VERTEX
  5
629
100
AcDbEntity
  8
1
  6
Continuous
 62
     6
 48
0.75
100
AcDbVertex
100
AcDb2dVertex
 10
-1234.663906
 20
-164.857839
 30
0.0
 40
0.0
 41
0.0
  0
SEQEND
  5
62A
100
AcDbEntity
  8
0
  0
POLYLINE
  5
62B
100
AcDbEntity
  8
1
  6
Continuous
 62
     6
 48
0.75
100
AcDb2dPolyline
 66
     1
 10
0.0
 20
0.0
 30
0.0
 70
   128
  0
VERTEX
  5
62C
100
AcDbEntity
  8
1
  6
Continuous
 62
     6
 48
0.75
100
AcDbVertex
100
AcDb2dVertex
 10
-1140.393906
 20
-78.187839
 30
0.0
 40
0.0
 41
0.0
  0
VERTEX
  5
62D
100
AcDbEntity
  8
1
  6
Continuous
 62
     6
 48
0.75
100
AcDbVertex
100
AcDb2dVertex
 10
-1140.393906
 20
-78.757839
 30
0.0
 40
0.0
 41
0.0
  0
VERTEX
  5
62E
100
AcDbEntity
  8
1
  6
Continuous
 62
     6
 48
0.75
100
AcDbVertex
100
AcDb2dVertex
 10
-1140.393906
 20
-79.267839
 30
0.0
 40
0.0
 41
0.0
  0
VERTEX
  5
62F
100
AcDbEntity
  8
1
  6
Continuous
 62
     6
 48
0.75
100
AcDbVertex
100
AcDb2dVertex
 10
-1140.393906
 20
-79.717839
 30
0.0
 40
0.0
 41
0.0
  0
VERTEX
  5
630
100
AcDbEntity
  8
1
  6
Continuous
 62
     6
 48
0.75
100
AcDbVertex
100
AcDb2dVertex
 10
-1140.393906
 20
-80.107839
 30
0.0
 40
0.0
 41
0.0
  0
VERTEX
  5
631
100
AcDbEntity
  8
1
  6
Continuous
 62
     6
 48
0.75
100
AcDbVertex
100
AcDb2dVertex
 10
-1140.393906
 20
-80.437839
 30
0.0
 40
0.0
 41
0.0
  0
VERTEX
  5
632
100
AcDbEntity
  8
1
  6
Continuous
 62
     6
 48
0.75
100
AcDbVertex
100
AcDb2dVertex
 10
-1140.393906
 20
-80.707839
 30
0.0
 40
0.0
 41
0.0
  0
VERTEX
  5
633
100
AcDbEntity
  8
1
  6
Continuous
 62
     6
 48
0.75
100
AcDbVertex
100
AcDb2dVertex
 10
-1140.393906
 20
-80.917839
 30
0.0
 40
0.0
 41
0.0
  0
VERTEX
  5
634
100
AcDbEntity
  8
1
  6
Continuous
 62
     6
 48
0.75
100
AcDbVertex
100
AcDb2dVertex
 10
-1140.393906
 20
-81.067839
 30
0.0
 40
0.0
 41
0.0
  0
VERTEX
  5
635
100
AcDbEntity
  8
1
  6
Continuous
 62
     6
 48
0.75
100
AcDbVertex
100
AcDb2dVertex
 10
-1140.393906
 20
-81.157839
 30
0.0
 40
0.0
 41
0.0
  0
VERTEX
  5
636
100
AcDbEntity
  8
1
  6
Continuous
 62
     6
 48
0.75
100
AcDbVertex
100
AcDb2dVertex
 10
-1140.393906
 20
-81.187839
 30
0.0
 40
0.0
 41
0.0
  0
VERTEX
  5
637
100
AcDbEntity
  8
1
  6
Continuous
 62
     6
 48
0.75
100
AcDbVertex
100
AcDb2dVertex
 10
-1141.113906
 20
-83.187839
 30
0.0
 40
0.0
 41
0.0
  0
VERTEX
  5
638
100
AcDbEntity
  8
1
  6
Continuous
 62
     6
 48
0.75
100
AcDbVertex
100
AcDb2dVertex
 10
-1141.663906
 20
-85.977839
 30
0.0
 40
0.0
 41
0.0
  0
VERTEX
  5
639
100
AcDbEntity
  8
1
  6
Continuous
 62
     6
 48
0.75
100
AcDbVertex
100
AcDb2dVertex
 10
-1142.053906
 20
-89.567839
 30
0.0
 40
0.0
 41
0.0
  0
VERTEX
  5
63A
100
AcDbEntity
  8
1
  6
Continuous
 62
     6
 48
0.75
100
AcDbVertex
100
AcDb2dVertex
 10
-1142.273906
 20
-93.947839
 30
0.0
 40
0.0
 41
0.0
  0
VERTEX
  5
63B
100
AcDbEntity
  8
1
  6
Continuous
 62
     6
 48
0.75
100
AcDbVertex
100
AcDb2dVertex
 10
-1142.333906
 20
-99.127839
 30
0.0
 40
0.0
 41
0.0
  0
VERTEX
  5
63C
100
AcDbEntity
  8
1
  6
Continuous
 62
     6
 48
0.75
100
AcDbVertex
100
AcDb2dVertex
 10
-1142.223906
 20
-105.097839
 30
0.0
 40
0.0
 41
0.0
  0
VERTEX
  5
63D
100
AcDbEntity
  8
1
  6
Continuous
 62
     6
 48
0.75
100
AcDbVertex
100
AcDb2dVertex
 10
-1141.953906
 20
-111.867839
 30
0.0
 40
0.0
 41
0.0
  0
VERTEX
  5
63E
100
AcDbEntity
  8
1
  6
Continuous
 62
     6
 48
0.75
100
AcDbVertex
100
AcDb2dVertex
 10
-1141.523906
 20
-119.427839
 30
0.0
 40
0.0
 41
0.0
  0
VERTEX
  5
63F
100
AcDbEntity
  8
1
  6
Continuous
 62
     6
 48
0.75
100
AcDbVertex
100
AcDb2dVertex
 10
-1140.923906
 20
-127.787839
 30
0.0
 40
0.0
 41
0.0
  0
VERTEX
  5
640
100
AcDbEntity
  8
1
  6
Continuous
 62
     6
 48
0.75
100
AcDbVertex
100
AcDb2dVertex
 10
-1140.153906
 20
-136.937839
 30
0.0
 40
0.0
 41
0.0
  0
VERTEX
  5
641
100
AcDbEntity
  8
1
  6
Continuous
 62
     6
 48
0.75
100
AcDbVertex
100
AcDb2dVertex
 10
-1226.663906
 20
-150.197839
 30
0.0
 40
0.0
 41
0.0
  0
VERTEX
  5
642
100
AcDbEntity
  8
1
  6
Continuous
 62
     6
 48
0.75
100
AcDbVertex
100
AcDb2dVertex
 10
-1226.663906
 20
-164.857839
 30
0.0
 40
0.0
 41
0.0
  0
SEQEND
  5
643
100
AcDbEntity
  8
0
  0
POLYLINE
  5
644
100
AcDbEntity
  8
1
  6
Continuous
 62
     6
 48
0.75
100
AcDb2dPolyline
 66
     1
 10
0.0
 20
0.0
 30
0.0
 70
   128
  0
VERTEX
  5
645
100
AcDbEntity
  8
1
  6
Continuous
 62
     6
 48
0.75
100
AcDbVertex
100
AcDb2dVertex
 10
-1314.293906
 20
-76.907839
 30
0.0
 40
0.0
 41
0.0
  0
VERTEX
  5
646
100
AcDbEntity
  8
1
  6
Continuous
 62
     6
 48
0.75
100
AcDbVertex
100
AcDb2dVertex
 10
-1314.293906
 20
-77.477839
 30
0.0
 40
0.0
 41
0.0
  0
VERTEX
  5
647
100
AcDbEntity
  8
1
  6
Continuous
 62
     6
 48
0.75
100
AcDbVertex
100
AcDb2dVertex
 10
-1314.293906
 20
-77.987839
 30
0.0
 40
0.0
 41
0.0
  0
VERTEX
  5
648
100
AcDbEntity
  8
1
  6
Continuous
 62
     6
 48
0.75
100
AcDbVertex
100
AcDb2dVertex
 10
-1314.293906
 20
-78.437839
 30
0.0
 40
0.0
 41
0.0
  0
VERTEX
  5
649
100
AcDbEntity
  8
1
  6
Continuous
 62
     6
 48
0.75
100
AcDbVertex
100
AcDb2dVertex
 10
-1314.293906
 20
-78.827839
 30
0.0
 40
0.0
 41
0.0
  0
VERTEX
  5
64A
100
AcDbEntity
  8
1
  6
Continuous
 62
     6
 48
0.75
100
AcDbVertex
100
AcDb2dVertex
 10
-1314.293906
 20
-79.157839
 30
0.0
 40
0.0
 41
0.0
  0
VERTEX
  5
64B
100
AcDbEntity
  8
1
  6
Continuous
 62
     6
 48
0.75
100
AcDbVertex
100
AcDb2dVertex
 10
-1314.293906
 20
-79.427839
 30
0.0
 40
0.0
 41
0.0
  0
VERTEX
  5
64C
100
AcDbEntity
  8
1
  6
Continuous
 62
     6
 48
0.75
100
AcDbVertex
100
AcDb2dVertex
 10
-1314.293906
 20
-79.637839
 30
0.0
 40
0.0
 41
0.0
  0
VERTEX
  5
64D
100
AcDbEntity
  8
1
  6
Continuous
 62
     6
 48
0.75
100
AcDbVertex
100
AcDb2dVertex
 10
-1314.293906
 20
-79.787839
 30
0.0
 40
0.0
 41
0.0
  0
VERTEX
  5
64E
100
AcDbEntity
  8
1
  6
Continuous
 62
     6
 48
0.75
100
AcDbVertex
100
AcDb2dVertex
 10
-1314.293906
 20
-79.877839
 30
0.0
 40
0.0
 41
0.0
  0
VERTEX
  5
64F
100
AcDbEntity
  8
1
  6
Continuous
 62
     6
 48
0.75
100
AcDbVertex
100
AcDb2dVertex
 10
-1314.293906
 20
-79.907839
 30
0.0
 40
0.0
 41
0.0
  0
VERTEX
  5
650
100
AcDbEntity
  8
1
  6
Continuous
 62
     6
 48
0.75
100
AcDbVertex
100
AcDb2dVertex
 10
-1313.773906
 20
-82.467839
 30
0.0
 40
0.0
 41
0.0
  0
VERTEX
  5
651
100
AcDbEntity
  8
1
  6
Continuous
 62
     6
 48
0.75
100
AcDbVertex
100
AcDb2dVertex
 10
-1313.423906
 20
-85.737839
 30
0.0
 40
0.0
 41
0.0
  0
VERTEX
  5
652
100
AcDbEntity
  8
1
  6
Continuous
 62
     6
 48
0.75
100
AcDbVertex
100
AcDb2dVertex
 10
-1313.233906
 20
-89.717839
 30
0.0
 40
0.0
 41
0.0
  0
VERTEX
  5
653
100
AcDbEntity
  8
1
  6
Continuous
 62
     6
 48
0.75
100
AcDbVertex
100
AcDb2dVertex
 10
-1313.203906
 20
-94.407839
 30
0.0
 40
0.0
 41
0.0
  0
VERTEX
  5
654
100
AcDbEntity
  8
1
  6
Continuous
 62
     6
 48
0.75
100
AcDbVertex
100
AcDb2dVertex
 10
-1313.343906
 20
-99.817839
 30
0.0
 40
0.0
 41
0.0
  0
VERTEX
  5
655
100
AcDbEntity
  8
1
  6
Continuous
 62
     6
 48
0.75
100
AcDbVertex
100
AcDb2dVertex
 10
-1313.653906
 20
-105.937839
 30
0.0
 40
0.0
 41
0.0
  0
VERTEX
  5
656
100
AcDbEntity
  8
1
  6
Continuous
 62
     6
 48
0.75
100
AcDbVertex
100
AcDb2dVertex
 10
-1314.113906
 20
-112.777839
 30
0.0
 40
0.0
 41
0.0
  0
VERTEX
  5
657
100
AcDbEntity
  8
1
  6
Continuous
 62
     6
 48
0.75
100
AcDbVertex
100
AcDb2dVertex
 10
-1314.743906
 20
-120.327839
 30
0.0
 40
0.0
 41
0.0
  0
VERTEX
  5
658
100
AcDbEntity
  8
1
  6
Continuous
 62
     6
 48
0.75
100
AcDbVertex
100
AcDb2dVertex
 10
-1315.543906
 20
-128.587839
 30
0.0
 40
0.0
 41
0.0
  0
VERTEX
  5
659
100
AcDbEntity
  8
1
  6
Continuous
 62
     6
 48
0.75
100
AcDbVertex
100
AcDb2dVertex
 10
-1316.503906
 20
-137.557839
 30
0.0
 40
0.0
 41
0.0
  0
VERTEX
  5
65A
100
AcDbEntity
  8
1
  6
Continuous
 62
     6
 48
0.75
100
AcDbVertex
100
AcDb2dVertex
 10
-1234.663906
 20
-146.167839
 30
0.0
 40
0.0
 41
0.0
  0
VERTEX
  5
65B
100
AcDbEntity
  8
1
  6
Continuous
 62
     6
 48
0.75
100
AcDbVertex
100
AcDb2dVertex
 10
-1234.663906
 20
-164.857839
 30
0.0
 40
0.0
 41
0.0
  0
SEQEND
  5
65C
100
AcDbEntity
  8
0
  0
POLYLINE
  5
65D
100
AcDbEntity
  8
1
  6
Continuous
 62
     6
 48
0.75
100
AcDb2dPolyline
 66
     1
 10
0.0
 20
0.0
 30
0.0
 70
   128
  0
VERTEX
  5
65E
100
AcDbEntity
  8
1
  6
Continuous
 62
     6
 48
0.75
100
AcDbVertex
100
AcDb2dVertex
 10
-1314.293906
 20
-79.907839
 30
0.0
 40
0.0
 41
0.0
  0
VERTEX
  5
65F
100
AcDbEntity
  8
1
  6
Continuous
 62
     6
 48
0.75
100
AcDbVertex
100
AcDb2dVertex
 10
-1313.433906
 20
-85.617839
 30
0.0
 40
0.0
 41
0.0
  0
VERTEX
  5
660
100
AcDbEntity
  8
1
  6
Continuous
 62
     6
 48
0.75
100
AcDbVertex
100
AcDb2dVertex
 10
-1313.203906
 20
-91.407839
 30
0.0
 40
0.0
 41
0.0
  0
VERTEX
  5
661
100
AcDbEntity
  8
1
  6
Continuous
 62
     6
 48
0.75
100
AcDbVertex
100
AcDb2dVertex
 10
-1313.263906
 20
-97.187839
 30
0.0
 40
0.0
 41
0.0
  0
VERTEX
  5
662
100
AcDbEntity
  8
1
  6
Continuous
 62
     6
 48
0.75
100
AcDbVertex
100
AcDb2dVertex
 10
-1313.483906
 20
-102.967839
 30
0.0
 40
0.0
 41
0.0
  0
VERTEX
  5
663
100
AcDbEntity
  8
1
  6
Continuous
 62
     6
 48
0.75
100
AcDbVertex
100
AcDb2dVertex
 10
-1313.823906
 20
-108.747839
 30
0.0
 40
0.0
 41
0.0
  0
VERTEX
  5
664
100
AcDbEntity
  8
1
  6
Continuous
 62
     6
 48
0.75
100
AcDbVertex
100
AcDb2dVertex
 10
-1314.253906
 20
-114.517839
 30
0.0
 40
0.0
 41
0.0
  0
VERTEX
  5
665
100
AcDbEntity
  8
1
  6
Continuous
 62
     6
 48
0.75
100
AcDbVertex
100
AcDb2dVertex
 10
-1314.743906
 20
-120.287839
 30
0.0
 40
0.0
 41
0.0
  0
VERTEX
  5
666
100
AcDbEntity
  8
1
  6
Continuous
 62
     6
 48
0.75
100
AcDbVertex
100
AcDb2dVertex
 10
-1315.293906
 20
-126.047839
 30
0.0
 40
0.0
 41
0.0
  0
VERTEX
  5
667
100
AcDbEntity
  8
1
  6
Continuous
 62
     6
 48
0.75
100
AcDbVertex
100
AcDb2dVertex
 10
-1315.873906
 20
-131.807839
 30
0.0
 40
0.0
 41
0.0
  0
VERTEX
  5
668
100
AcDbEntity
  8
1
  6
Continuous
 62
     6
 48
0.75
100
AcDbVertex
100
AcDb2dVertex
 10
-1316.503906
 20
-137.557839
 30
0.0
 40
0.0
 41
0.0
  0
VERTEX
  5
669
100
AcDbEntity
  8
1
  6
Continuous
 62
     6
 48
0.75
100
AcDbVertex
100
AcDb2dVertex
 10
-1234.663906
 20
-146.167839
 30
0.0
 40
0.0
 41
0.0
  0
VERTEX
  5
66A
100
AcDbEntity
  8
1
  6
Continuous
 62
     6
 48
0.75
100
AcDbVertex
100
AcDb2dVertex
 10
-1234.663906
 20
-164.857839
 30
0.0
 40
0.0
 41
0.0
  0
SEQEND
  5
66B
100
AcDbEntity
  8
0
  0
POLYLINE
  5
66C
100
AcDbEntity
  8
1
  6
Continuous
 62
     6
 48
0.75
100
AcDb2dPolyline
 66
     1
 10
0.0
 20
0.0
 30
0.0
 70
   128
  0
VERTEX
  5
66D
100
AcDbEntity
  8
1
  6
Continuous
 62
     6
 48
0.75
100
AcDbVertex
100
AcDb2dVertex
 10
-1147.033906
 20
-76.907839
 30
0.0
 40
0.0
 41
0.0
  0
VERTEX
  5
66E
100
AcDbEntity
  8
1
  6
Continuous
 62
     6
 48
0.75
100
AcDbVertex
100
AcDb2dVertex
 10
-1147.033906
 20
-77.477839
 30
0.0
 40
0.0
 41
0.0
  0
VERTEX
  5
66F
100
AcDbEntity
  8
1
  6
Continuous
 62
     6
 48
0.75
100
AcDbVertex
100
AcDb2dVertex
 10
-1147.033906
 20
-77.987839
 30
0.0
 40
0.0
 41
0.0
  0
VERTEX
  5
670
100
AcDbEntity
  8
1
  6
Continuous
 62
     6
 48
0.75
100
AcDbVertex
100
AcDb2dVertex
 10
-1147.033906
 20
-78.437839
 30
0.0
 40
0.0
 41
0.0
  0
VERTEX
  5
671
100
AcDbEntity
  8
1
  6
Continuous
 62
     6
 48
0.75
100
AcDbVertex
100
AcDb2dVertex
 10
-1147.033906
 20
-78.827839
 30
0.0
 40
0.0
 41
0.0
  0
VERTEX
  5
672
100
AcDbEntity
  8
1
  6
Continuous
 62
     6
 48
0.75
100
AcDbVertex
100
AcDb2dVertex
 10
-1147.033906
 20
-79.157839
 30
0.0
 40
0.0
 41
0.0
  0
VERTEX
  5
673
100
AcDbEntity
  8
1
  6
Continuous
 62
     6
 48
0.75
100
AcDbVertex
100
AcDb2dVertex
 10
-1147.033906
 20
-79.427839
 30
0.0
 40
0.0
 41
0.0
  0
VERTEX
  5
674
100
AcDbEntity
  8
1
  6
Continuous
 62
     6
 48
0.75
100
AcDbVertex
100
AcDb2dVertex
 10
-1147.033906
 20
-79.637839
 30
0.0
 40
0.0
 41
0.0
  0
VERTEX
  5
675
100
AcDbEntity
  8
1
  6
Continuous
 62
     6
 48
0.75
100
AcDbVertex
100
AcDb2dVertex
 10
-1147.033906
 20
-79.787839
 30
0.0
 40
0.0
 41
0.0
  0
VERTEX
  5
676
100
AcDbEntity
  8
1
  6
Continuous
 62
     6
 48
0.75
100
AcDbVertex
100
AcDb2dVertex
 10
-1147.033906
 20
-79.877839
 30
0.0
 40
0.0
 41
0.0
  0
VERTEX
  5
677
100
AcDbEntity
  8
1
  6
Continuous
 62
     6
 48
0.75
100
AcDbVertex
100
AcDb2dVertex
 10
-1147.033906
 20
-79.907839
 30
0.0
 40
0.0
 41
0.0
  0
VERTEX
  5
678
100
AcDbEntity
  8
1
  6
Continuous
 62
     6
 48
0.75
100
AcDbVertex
100
AcDb2dVertex
 10
-1147.553906
 20
-82.467839
 30
0.0
 40
0.0
 41
0.0
  0
VERTEX
  5
679
100
AcDbEntity
  8
1
  6
Continuous
 62
     6
 48
0.75
100
AcDbVertex
100
AcDb2dVertex
 10
-1147.903906
 20
-85.737839
 30
0.0
 40
0.0
 41
0.0
  0
VERTEX
  5
67A
100
AcDbEntity
  8
1
  6
Continuous
 62
     6
 48
0.75
100
AcDbVertex
100
AcDb2dVertex
 10
-1148.093906
 20
-89.717839
 30
0.0
 40
0.0
 41
0.0
  0
VERTEX
  5
67B
100
AcDbEntity
  8
1
  6
Continuous
 62
     6
 48
0.75
100
AcDbVertex
100
AcDb2dVertex
 10
-1148.123906
 20
-94.407839
 30
0.0
 40
0.0
 41
0.0
  0
VERTEX
  5
67C
100
AcDbEntity
  8
1
  6
Continuous
 62
     6
 48
0.75
100
AcDbVertex
100
AcDb2dVertex
 10
-1147.983906
 20
-99.817839
 30
0.0
 40
0.0
 41
0.0
  0
VERTEX
  5
67D
100
AcDbEntity
  8
1
  6
Continuous
 62
     6
 48
0.75
100
AcDbVertex
100
AcDb2dVertex
 10
-1147.673906
 20
-105.937839
 30
0.0
 40
0.0
 41
0.0
  0
VERTEX
  5
67E
100
AcDbEntity
  8
1
  6
Continuous
 62
     6
 48
0.75
100
AcDbVertex
100
AcDb2dVertex
 10
-1147.213906
 20
-112.777839
 30
0.0
 40
0.0
 41
0.0
  0
VERTEX
  5
67F
100
AcDbEntity
  8
1
  6
Continuous
 62
     6
 48
0.75
100
AcDbVertex
100
AcDb2dVertex
 10
-1146.583906
 20
-120.327839
 30
0.0
 40
0.0
 41
0.0
  0
VERTEX
  5
680
100
AcDbEntity
  8
1
  6
Continuous
 62
     6
 48
0.75
100
AcDbVertex
100
AcDb2dVertex
 10
-1145.783906
 20
-128.587839
 30
0.0
 40
0.0
 41
0.0
  0
VERTEX
  5
681
100
AcDbEntity
  8
1
  6
Continuous
 62
     6
 48
0.75
100
AcDbVertex
100
AcDb2dVertex
 10
-1144.823906
 20
-137.557839
 30
0.0
 40
0.0
 41
0.0
  0
VERTEX
  5
682
100
AcDbEntity
  8
1
  6
Continuous
 62
     6
 48
0.75
100
AcDbVertex
100
AcDb2dVertex
 10
-1226.663906
 20
-146.167839
 30
0.0
 40
0.0
 41
0.0
  0
VERTEX
  5
683
100
AcDbEntity
  8
1
  6
Continuous
 62
     6
 48
0.75
100
AcDbVertex
100
AcDb2dVertex
 10
-1226.663906
 20
-164.857839
 30
0.0
 40
0.0
 41
0.0
  0
SEQEND
  5
684
100
AcDbEntity
  8
0
  0
POLYLINE
  5
685
100
AcDbEntity
  8
1
  6
Continuous
 62
     6
 48
0.75
100
AcDb2dPolyline
 66
     1
 10
0.0
 20
0.0
 30
0.0
 70
   128
  0
VERTEX
  5
686
100
AcDbEntity
  8
1
  6
Continuous
 62
     6
 48
0.75
100
AcDbVertex
100
AcDb2dVertex
 10
-1306.783906
 20
-75.547839
 30
0.0
 40
0.0
 41
0.0
  0
VERTEX
  5
687
100
AcDbEntity
  8
1
  6
Continuous
 62
     6
 48
0.75
100
AcDbVertex
100
AcDb2dVertex
 10
-1306.783906
 20
-76.117839
 30
0.0
 40
0.0
 41
0.0
  0
VERTEX
  5
688
100
AcDbEntity
  8
1
  6
Continuous
 62
     6
 48
0.75
100
AcDbVertex
100
AcDb2dVertex
 10
-1306.783906
 20
-76.627839
 30
0.0
 40
0.0
 41
0.0
  0
VERTEX
  5
689
100
AcDbEntity
  8
1
  6
Continuous
 62
     6
 48
0.75
100
AcDbVertex
100
AcDb2dVertex
 10
-1306.783906
 20
-77.077839
 30
0.0
 40
0.0
 41
0.0
  0
VERTEX
  5
68A
100
AcDbEntity
  8
1
  6
Continuous
 62
     6
 48
0.75
100
AcDbVertex
100
AcDb2dVertex
 10
-1306.783906
 20
-77.467839
 30
0.0
 40
0.0
 41
0.0
  0
VERTEX
  5
68B
100
AcDbEntity
  8
1
  6
Continuous
 62
     6
 48
0.75
100
AcDbVertex
100
AcDb2dVertex
 10
-1306.783906
 20
-77.797839
 30
0.0
 40
0.0
 41
0.0
  0
VERTEX
  5
68C
100
AcDbEntity
  8
1
  6
Continuous
 62
     6
 48
0.75
100
AcDbVertex
100
AcDb2dVertex
 10
-1306.783906
 20
-78.067839
 30
0.0
 40
0.0
 41
0.0
  0
VERTEX
  5
68D
100
AcDbEntity
  8
1
  6
Continuous
 62
     6
 48
0.75
100
AcDbVertex
100
AcDb2dVertex
 10
-1306.783906
 20
-78.277839
 30
0.0
 40
0.0
 41
0.0
  0
VERTEX
  5
68E
100
AcDbEntity
  8
1
  6
Continuous
 62
     6
 48
0.75
100
AcDbVertex
100
AcDb2dVertex
 10
-1306.783906
 20
-78.427839
 30
0.0
 40
0.0
 41
0.0
  0
VERTEX
  5
68F
100
AcDbEntity
  8
1
  6
Continuous
 62
     6
 48
0.75
100
AcDbVertex
100
AcDb2dVertex
 10
-1306.783906
 20
-78.517839
 30
0.0
 40
0.0
 41
0.0
  0
VERTEX
  5
690
100
AcDbEntity
  8
1
  6
Continuous
 62
     6
 48
0.75
100
AcDbVertex
100
AcDb2dVertex
 10
-1306.783906
 20
-78.547839
 30
0.0
 40
0.0
 41
0.0
  0
VERTEX
  5
691
100
AcDbEntity
  8
1
  6
Continuous
 62
     6
 48
0.75
100
AcDbVertex
100
AcDb2dVertex
 10
-1306.653906
 20
-81.657839
 30
0.0
 40
0.0
 41
0.0
  0
VERTEX
  5
692
100
AcDbEntity
  8
1
  6
Continuous
 62
     6
 48
0.75
100
AcDbVertex
100
AcDb2dVertex
 10
-1306.673906
 20
-85.397839
 30
0.0
 40
0.0
 41
0.0
  0
VERTEX
  5
693
100
AcDbEntity
  8
1
  6
Continuous
 62
     6
 48
0.75
100
AcDbVertex
100
AcDb2dVertex
 10
-1306.823906
 20
-89.767839
 30
0.0
 40
0.0
 41
0.0
  0
VERTEX
  5
694
100
AcDbEntity
  8
1
  6
Continuous
 62
     6
 48
0.75
100
AcDbVertex
100
AcDb2dVertex
 10
-1307.123906
 20
-94.757839
 30
0.0
 40
0.0
 41
0.0
  0
VERTEX
  5
695
100
AcDbEntity
  8
1
  6
Continuous
 62
     6
 48
0.75
100
AcDbVertex
100
AcDb2dVertex
 10
-1307.563906
 20
-100.377839
 30
0.0
 40
0.0
 41
0.0
  0
VERTEX
  5
696
100
AcDbEntity
  8
1
  6
Continuous
 62
     6
 48
0.75
100
AcDbVertex
100
AcDb2dVertex
 10
-1308.153906
 20
-106.627839
 30
0.0
 40
0.0
 41
0.0
  0
VERTEX
  5
697
100
AcDbEntity
  8
1
  6
Continuous
 62
     6
 48
0.75
100
AcDbVertex
100
AcDb2dVertex
 10
-1308.873906
 20
-113.507839
 30
0.0
 40
0.0
 41
0.0
  0
VERTEX
  5
698
100
AcDbEntity
  8
1
  6
Continuous
 62
     6
 48
0.75
100
AcDbVertex
100
AcDb2dVertex
 10
-1309.743906
 20
-121.007839
 30
0.0
 40
0.0
 41
0.0
  0
VERTEX
  5
699
100
AcDbEntity
  8
1
  6
Continuous
 62
     6
 48
0.75
100
AcDbVertex
100
AcDb2dVertex
 10
-1310.763906
 20
-129.137839
 30
0.0
 40
0.0
 41
0.0
  0
VERTEX
  5
69A
100
AcDbEntity
  8
1
  6
Continuous
 62
     6
 48
0.75
100
AcDbVertex
100
AcDb2dVertex
 10
-1311.913906
 20
-137.887839
 30
0.0
 40
0.0
 41
0.0
  0
VERTEX
  5
69B
100
AcDbEntity
  8
1
  6
Continuous
 62
     6
 48
0.75
100
AcDbVertex
100
AcDb2dVertex
 10
-1234.663906
 20
-142.797839
 30
0.0
 40
0.0
 41
0.0
  0
VERTEX
  5
69C
100
AcDbEntity
  8
1
  6
Continuous
 62
     6
 48
0.75
100
AcDbVertex
100
AcDb2dVertex
 10
-1234.663906
 20
-164.857839
 30
0.0
 40
0.0
 41
0.0
  0
SEQEND
  5
69D
100
AcDbEntity
  8
0
  0
POLYLINE
  5
69E
100
AcDbEntity
  8
1
  6
Continuous
 62
     6
 48
0.75
100
AcDb2dPolyline
 66
     1
 10
0.0
 20
0.0
 30
0.0
 70
   128
  0
VERTEX
  5
69F
100
AcDbEntity
  8
1
  6
Continuous
 62
     6
 48
0.75
100
AcDbVertex
100
AcDb2dVertex
 10
-1306.783906
 20
-78.547839
 30
0.0
 40
0.0
 41
0.0
  0
VERTEX
  5
6A0
100
AcDbEntity
  8
1
  6
Continuous
 62
     6
 48
0.75
100
AcDbVertex
100
AcDb2dVertex
 10
-1306.653906
 20
-84.507839
 30
0.0
 40
0.0
 41
0.0
  0
VERTEX
  5
6A1
100
AcDbEntity
  8
1
  6
Continuous
 62
     6
 48
0.75
100
AcDbVertex
100
AcDb2dVertex
 10
-1306.863906
 20
-90.467839
 30
0.0
 40
0.0
 41
0.0
  0
VERTEX
  5
6A2
100
AcDbEntity
  8
1
  6
Continuous
 62
     6
 48
0.75
100
AcDbVertex
100
AcDb2dVertex
 10
-1307.243906
 20
-96.417839
 30
0.0
 40
0.0
 41
0.0
  0
VERTEX
  5
6A3
100
AcDbEntity
  8
1
  6
Continuous
 62
     6
 48
0.75
100
AcDbVertex
100
AcDb2dVertex
 10
-1307.743906
 20
-102.357839
 30
0.0
 40
0.0
 41
0.0
  0
VERTEX
  5
6A4
100
AcDbEntity
  8
1
  6
Continuous
 62
     6
 48
0.75
100
AcDbVertex
100
AcDb2dVertex
 10
-1308.323906
 20
-108.297839
 30
0.0
 40
0.0
 41
0.0
  0
VERTEX
  5
6A5
100
AcDbEntity
  8
1
  6
Continuous
 62
     6
 48
0.75
100
AcDbVertex
100
AcDb2dVertex
 10
-1308.953906
 20
-114.217839
 30
0.0
 40
0.0
 41
0.0
  0
VERTEX
  5
6A6
100
AcDbEntity
  8
1
  6
Continuous
 62
     6
 48
0.75
100
AcDbVertex
100
AcDb2dVertex
 10
-1309.643906
 20
-120.147839
 30
0.0
 40
0.0
 41
0.0
  0
VERTEX
  5
6A7
100
AcDbEntity
  8
1
  6
Continuous
 62
     6
 48
0.75
100
AcDbVertex
100
AcDb2dVertex
 10
-1310.373906
 20
-126.067839
 30
0.0
 40
0.0
 41
0.0
  0
VERTEX
  5
6A8
100
AcDbEntity
  8
1
  6
Continuous
 62
     6
 48
0.75
100
AcDbVertex
100
AcDb2dVertex
 10
-1311.123906
 20
-131.977839
 30
0.0
 40
0.0
 41
0.0
  0
VERTEX
  5
6A9
100
AcDbEntity
  8
1
  6
Continuous
 62
     6
 48
0.75
100
AcDbVertex
100
AcDb2dVertex
 10
-1311.913906
 20
-137.887839
 30
0.0
 40
0.0
 41
0.0
  0
VERTEX
  5
6AA
100
AcDbEntity
  8
1
  6
Continuous
 62
     6
 48
0.75
100
AcDbVertex
100
AcDb2dVertex
 10
-1234.663906
 20
-142.797839
 30
0.0
 40
0.0
 41
0.0
  0
VERTEX
  5
6AB
100
AcDbEntity
  8
1
  6
Continuous
 62
     6
 48
0.75
100
AcDbVertex
100
AcDb2dVertex
 10
-1234.663906
 20
-164.857839
 30
0.0
 40
0.0
 41
0.0
  0
SEQEND
  5
6AC
100
AcDbEntity
  8
0
  0
POLYLINE
  5
6AD
100
AcDbEntity
  8
1
  6
Continuous
 62
     6
 48
0.75
100
AcDb2dPolyline
 66
     1
 10
0.0
 20
0.0
 30
0.0
 70
   128
  0
VERTEX
  5
6AE
100
AcDbEntity
  8
1
  6
Continuous
 62
     6
 48
0.75
100
AcDbVertex
100
AcDb2dVertex
 10
-1154.543906
 20
-75.547839
 30
0.0
 40
0.0
 41
0.0
  0
VERTEX
  5
6AF
100
AcDbEntity
  8
1
  6
Continuous
 62
     6
 48
0.75
100
AcDbVertex
100
AcDb2dVertex
 10
-1154.543906
 20
-76.117839
 30
0.0
 40
0.0
 41
0.0
  0
VERTEX
  5
6B0
100
AcDbEntity
  8
1
  6
Continuous
 62
     6
 48
0.75
100
AcDbVertex
100
AcDb2dVertex
 10
-1154.543906
 20
-76.627839
 30
0.0
 40
0.0
 41
0.0
  0
VERTEX
  5
6B1
100
AcDbEntity
  8
1
  6
Continuous
 62
     6
 48
0.75
100
AcDbVertex
100
AcDb2dVertex
 10
-1154.543906
 20
-77.077839
 30
0.0
 40
0.0
 41
0.0
  0
VERTEX
  5
6B2
100
AcDbEntity
  8
1
  6
Continuous
 62
     6
 48
0.75
100
AcDbVertex
100
AcDb2dVertex
 10
-1154.543906
 20
-77.467839
 30
0.0
 40
0.0
 41
0.0
  0
VERTEX
  5
6B3
100
AcDbEntity
  8
1
  6
Continuous
 62
     6
 48
0.75
100
AcDbVertex
100
AcDb2dVertex
 10
-1154.543906
 20
-77.797839
 30
0.0
 40
0.0
 41
0.0
  0
VERTEX
  5
6B4
100
AcDbEntity
  8
1
  6
Continuous
 62
     6
 48
0.75
100
AcDbVertex
100
AcDb2dVertex
 10
-1154.543906
 20
-78.067839
 30
0.0
 40
0.0
 41
0.0
  0
VERTEX
  5
6B5
100
AcDbEntity
  8
1
  6
Continuous
 62
     6
 48
0.75
100
AcDbVertex
100
AcDb2dVertex
 10
-1154.543906
 20
-78.277839
 30
0.0
 40
0.0
 41
0.0
  0
VERTEX
  5
6B6
100
AcDbEntity
  8
1
  6
Continuous
 62
     6
 48
0.75
100
AcDbVertex
100
AcDb2dVertex
 10
-1154.543906
 20
-78.427839
 30
0.0
 40
0.0
 41
0.0
  0
VERTEX
  5
6B7
100
AcDbEntity
  8
1
  6
Continuous
 62
     6
 48
0.75
100
AcDbVertex
100
AcDb2dVertex
 10
-1154.543906
 20
-78.517839
 30
0.0
 40
0.0
 41
0.0
  0
VERTEX
  5
6B8
100
AcDbEntity
  8
1
  6
Continuous
 62
     6
 48
0.75
100
AcDbVertex
100
AcDb2dVertex
 10
-1154.543906
 20
-78.547839
 30
0.0
 40
0.0
 41
0.0
  0
VERTEX
  5
6B9
100
AcDbEntity
  8
1
  6
Continuous
 62
     6
 48
0.75
100
AcDbVertex
100
AcDb2dVertex
 10
-1154.673906
 20
-81.657839
 30
0.0
 40
0.0
 41
0.0
  0
VERTEX
  5
6BA
100
AcDbEntity
  8
1
  6
Continuous
 62
     6
 48
0.75
100
AcDbVertex
100
AcDb2dVertex
 10
-1154.653906
 20
-85.397839
 30
0.0
 40
0.0
 41
0.0
  0
VERTEX
  5
6BB
100
AcDbEntity
  8
1
  6
Continuous
 62
     6
 48
0.75
100
AcDbVertex
100
AcDb2dVertex
 10
-1154.503906
 20
-89.767839
 30
0.0
 40
0.0
 41
0.0
  0
VERTEX
  5
6BC
100
AcDbEntity
  8
1
  6
Continuous
 62
     6
 48
0.75
100
AcDbVertex
100
AcDb2dVertex
 10
-1154.203906
 20
-94.757839
 30
0.0
 40
0.0
 41
0.0
  0
VERTEX
  5
6BD
100
AcDbEntity
  8
1
  6
Continuous
 62
     6
 48
0.75
100
AcDbVertex
100
AcDb2dVertex
 10
-1153.763906
 20
-100.377839
 30
0.0
 40
0.0
 41
0.0
  0
VERTEX
  5
6BE
100
AcDbEntity
  8
1
  6
Continuous
 62
     6
 48
0.75
100
AcDbVertex
100
AcDb2dVertex
 10
-1153.173906
 20
-106.627839
 30
0.0
 40
0.0
 41
0.0
  0
VERTEX
  5
6BF
100
AcDbEntity
  8
1
  6
Continuous
 62
     6
 48
0.75
100
AcDbVertex
100
AcDb2dVertex
 10
-1152.453906
 20
-113.507839
 30
0.0
 40
0.0
 41
0.0
  0
VERTEX
  5
6C0
100
AcDbEntity
  8
1
  6
Continuous
 62
     6
 48
0.75
100
AcDbVertex
100
AcDb2dVertex
 10
-1151.583906
 20
-121.007839
 30
0.0
 40
0.0
 41
0.0
  0
VERTEX
  5
6C1
100
AcDbEntity
  8
1
  6
Continuous
 62
     6
 48
0.75
100
AcDbVertex
100
AcDb2dVertex
 10
-1150.563906
 20
-129.137839
 30
0.0
 40
0.0
 41
0.0
  0
VERTEX
  5
6C2
100
AcDbEntity
  8
1
  6
Continuous
 62
     6
 48
0.75
100
AcDbVertex
100
AcDb2dVertex
 10
-1149.413906
 20
-137.887839
 30
0.0
 40
0.0
 41
0.0
  0
VERTEX
  5
6C3
100
AcDbEntity
  8
1
  6
Continuous
 62
     6
 48
0.75
100
AcDbVertex
100
AcDb2dVertex
 10
-1226.663906
 20
-142.797839
 30
0.0
 40
0.0
 41
0.0
  0
VERTEX
  5
6C4
100
AcDbEntity
  8
1
  6
Continuous
 62
     6
 48
0.75
100
AcDbVertex
100
AcDb2dVertex
 10
-1226.663906
 20
-164.857839
 30
0.0
 40
0.0
 41
0.0
  0
SEQEND
  5
6C5
100
AcDbEntity
  8
0
  0
POLYLINE
  5
6C6
100
AcDbEntity
  8
1
  6
Continuous
 62
     6
 48
0.75
100
AcDb2dPolyline
 66
     1
 10
0.0
 20
0.0
 30
0.0
 70
   128
  0
VERTEX
  5
6C7
100
AcDbEntity
  8
1
  6
Continuous
 62
     6
 48
0.75
100
AcDbVertex
100
AcDb2dVertex
 10
-1298.233906
 20
-72.067839
 30
0.0
 40
0.0
 41
0.0
  0
VERTEX
  5
6C8
100
AcDbEntity
  8
1
  6
Continuous
 62
     6
 48
0.75
100
AcDbVertex
100
AcDb2dVertex
 10
-1298.233906
 20
-72.637839
 30
0.0
 40
0.0
 41
0.0
  0
VERTEX
  5
6C9
100
AcDbEntity
  8
1
  6
Continuous
 62
     6
 48
0.75
100
AcDbVertex
100
AcDb2dVertex
 10
-1298.233906
 20
-73.147839
 30
0.0
 40
0.0
 41
0.0
  0
VERTEX
  5
6CA
100
AcDbEntity
  8
1
  6
Continuous
 62
     6
 48
0.75
100
AcDbVertex
100
AcDb2dVertex
 10
-1298.233906
 20
-73.597839
 30
0.0
 40
0.0
 41
0.0
  0
VERTEX
  5
6CB
100
AcDbEntity
  8
1
  6
Continuous
 62
     6
 48
0.75
100
AcDbVertex
100
AcDb2dVertex
 10
-1298.233906
 20
-73.987839
 30
0.0
 40
0.0
 41
0.0
  0
VERTEX
  5
6CC
100
AcDbEntity
  8
1
  6
Continuous
 62
     6
 48
0.75
100
AcDbVertex
100
AcDb2dVertex
 10
-1298.233906
 20
-74.317839
 30
0.0
 40
0.0
 41
0.0
  0
VERTEX
  5
6CD
100
AcDbEntity
  8
1
  6
Continuous
 62
     6
 48
0.75
100
AcDbVertex
100
AcDb2dVertex
 10
-1298.233906
 20
-74.587839
 30
0.0
 40
0.0
 41
0.0
  0
VERTEX
  5
6CE
100
AcDbEntity
  8
1
  6
Continuous
 62
     6
 48
0.75
100
AcDbVertex
100
AcDb2dVertex
 10
-1298.233906
 20
-74.797839
 30
0.0
 40
0.0
 41
0.0
  0
VERTEX
  5
6CF
100
AcDbEntity
  8
1
  6
Continuous
 62
     6
 48
0.75
100
AcDbVertex
100
AcDb2dVertex
 10
-1298.233906
 20
-74.947839
 30
0.0
 40
0.0
 41
0.0
  0
VERTEX
  5
6D0
100
AcDbEntity
  8
1
  6
Continuous
 62
     6
 48
0.75
100
AcDbVertex
100
AcDb2dVertex
 10
-1298.233906
 20
-75.037839
 30
0.0
 40
0.0
 41
0.0
  0
VERTEX
  5
6D1
100
AcDbEntity
  8
1
  6
Continuous
 62
     6
 48
0.75
100
AcDbVertex
100
AcDb2dVertex
 10
-1298.233906
 20
-75.067839
 30
0.0
 40
0.0
 41
0.0
  0
VERTEX
  5
6D2
100
AcDbEntity
  8
1
  6
Continuous
 62
     6
 48
0.75
100
AcDbVertex
100
AcDb2dVertex
 10
-1298.683906
 20
-79.057839
 30
0.0
 40
0.0
 41
0.0
  0
VERTEX
  5
6D3
100
AcDbEntity
  8
1
  6
Continuous
 62
     6
 48
0.75
100
AcDbVertex
100
AcDb2dVertex
 10
-1299.213906
 20
-83.567839
 30
0.0
 40
0.0
 41
0.0
  0
VERTEX
  5
6D4
100
AcDbEntity
  8
1
  6
Continuous
 62
     6
 48
0.75
100
AcDbVertex
100
AcDb2dVertex
 10
-1299.843906
 20
-88.597839
 30
0.0
 40
0.0
 41
0.0
  0
VERTEX
  5
6D5
100
AcDbEntity
  8
1
  6
Continuous
 62
     6
 48
0.75
100
AcDbVertex
100
AcDb2dVertex
 10
-1300.553906
 20
-94.147839
 30
0.0
 40
0.0
 41
0.0
  0
VERTEX
  5
6D6
100
AcDbEntity
  8
1
  6
Continuous
 62
     6
 48
0.75
100
AcDbVertex
100
AcDb2dVertex
 10
-1301.363906
 20
-100.217839
 30
0.0
 40
0.0
 41
0.0
  0
VERTEX
  5
6D7
100
AcDbEntity
  8
1
  6
Continuous
 62
     6
 48
0.75
100
AcDbVertex
100
AcDb2dVertex
 10
-1302.253906
 20
-106.807839
 30
0.0
 40
0.0
 41
0.0
  0
VERTEX
  5
6D8
100
AcDbEntity
  8
1
  6
Continuous
 62
     6
 48
0.75
100
AcDbVertex
100
AcDb2dVertex
 10
-1303.243906
 20
-113.917839
 30
0.0
 40
0.0
 41
0.0
  0
VERTEX
  5
6D9
100
AcDbEntity
  8
1
  6
Continuous
 62
     6
 48
0.75
100
AcDbVertex
100
AcDb2dVertex
 10
-1304.313906
 20
-121.547839
 30
0.0
 40
0.0
 41
0.0
  0
VERTEX
  5
6DA
100
AcDbEntity
  8
1
  6
Continuous
 62
     6
 48
0.75
100
AcDbVertex
100
AcDb2dVertex
 10
-1305.483906
 20
-129.687839
 30
0.0
 40
0.0
 41
0.0
  0
VERTEX
  5
6DB
100
AcDbEntity
  8
1
  6
Continuous
 62
     6
 48
0.75
100
AcDbVertex
100
AcDb2dVertex
 10
-1306.733906
 20
-138.357839
 30
0.0
 40
0.0
 41
0.0
  0
VERTEX
  5
6DC
100
AcDbEntity
  8
1
  6
Continuous
 62
     6
 48
0.75
100
AcDbVertex
100
AcDb2dVertex
 10
-1234.663906
 20
-139.747839
 30
0.0
 40
0.0
 41
0.0
  0
SEQEND
  5
6DD
100
AcDbEntity
  8
0
  0
POLYLINE
  5
6DE
100
AcDbEntity
  8
1
  6
Continuous
 62
     6
 48
0.75
100
AcDb2dPolyline
 66
     1
 10
0.0
 20
0.0
 30
0.0
 70
   128
  0
VERTEX
  5
6DF
100
AcDbEntity
  8
1
  6
Continuous
 62
     6
 48
0.75
100
AcDbVertex
100
AcDb2dVertex
 10
-1298.233906
 20
-75.067839
 30
0.0
 40
0.0
 41
0.0
  0
VERTEX
  5
6E0
100
AcDbEntity
  8
1
  6
Continuous
 62
     6
 48
0.75
100
AcDbVertex
100
AcDb2dVertex
 10
-1298.953906
 20
-81.417839
 30
0.0
 40
0.0
 41
0.0
  0
VERTEX
  5
6E1
100
AcDbEntity
  8
1
  6
Continuous
 62
     6
 48
0.75
100
AcDbVertex
100
AcDb2dVertex
 10
-1299.733906
 20
-87.747839
 30
0.0
 40
0.0
 41
0.0
  0
VERTEX
  5
6E2
100
AcDbEntity
  8
1
  6
Continuous
 62
     6
 48
0.75
100
AcDbVertex
100
AcDb2dVertex
 10
-1300.543906
 20
-94.087839
 30
0.0
 40
0.0
 41
0.0
  0
VERTEX
  5
6E3
100
AcDbEntity
  8
1
  6
Continuous
 62
     6
 48
0.75
100
AcDbVertex
100
AcDb2dVertex
 10
-1301.383906
 20
-100.417839
 30
0.0
 40
0.0
 41
0.0
  0
VERTEX
  5
6E4
100
AcDbEntity
  8
1
  6
Continuous
 62
     6
 48
0.75
100
AcDbVertex
100
AcDb2dVertex
 10
-1302.243906
 20
-106.747839
 30
0.0
 40
0.0
 41
0.0
  0
VERTEX
  5
6E5
100
AcDbEntity
  8
1
  6
Continuous
 62
     6
 48
0.75
100
AcDbVertex
100
AcDb2dVertex
 10
-1303.123906
 20
-113.067839
 30
0.0
 40
0.0
 41
0.0
  0
VERTEX
  5
6E6
100
AcDbEntity
  8
1
  6
Continuous
 62
     6
 48
0.75
100
AcDbVertex
100
AcDb2dVertex
 10
-1304.013906
 20
-119.397839
 30
0.0
 40
0.0
 41
0.0
  0
VERTEX
  5
6E7
100
AcDbEntity
  8
1
  6
Continuous
 62
     6
 48
0.75
100
AcDbVertex
100
AcDb2dVertex
 10
-1304.903906
 20
-125.717839
 30
0.0
 40
0.0
 41
0.0
  0
VERTEX
  5
6E8
100
AcDbEntity
  8
1
  6
Continuous
 62
     6
 48
0.75
100
AcDbVertex
100
AcDb2dVertex
 10
-1305.813906
 20
-132.037839
 30
0.0
 40
0.0
 41
0.0
  0
VERTEX
  5
6E9
100
AcDbEntity
  8
1
  6
Continuous
 62
     6
 48
0.75
100
AcDbVertex
100
AcDb2dVertex
 10
-1306.733906
 20
-138.357839
 30
0.0
 40
0.0
 41
0.0
  0
VERTEX
  5
6EA
100
AcDbEntity
  8
1
  6
Continuous
 62
     6
 48
0.75
100
AcDbVertex
100
AcDb2dVertex
 10
-1234.663906
 20
-139.747839
 30
0.0
 40
0.0
 41
0.0
  0
SEQEND
  5
6EB
100
AcDbEntity
  8
0
  0
POLYLINE
  5
6EC
100
AcDbEntity
  8
1
  6
Continuous
 62
     6
 48
0.75
100
AcDb2dPolyline
 66
     1
 10
0.0
 20
0.0
 30
0.0
 70
   128
  0
VERTEX
  5
6ED
100
AcDbEntity
  8
1
  6
Continuous
 62
     6
 48
0.75
100
AcDbVertex
100
AcDb2dVertex
 10
-1163.093906
 20
-72.067839
 30
0.0
 40
0.0
 41
0.0
  0
VERTEX
  5
6EE
100
AcDbEntity
  8
1
  6
Continuous
 62
     6
 48
0.75
100
AcDbVertex
100
AcDb2dVertex
 10
-1163.093906
 20
-72.637839
 30
0.0
 40
0.0
 41
0.0
  0
VERTEX
  5
6EF
100
AcDbEntity
  8
1
  6
Continuous
 62
     6
 48
0.75
100
AcDbVertex
100
AcDb2dVertex
 10
-1163.093906
 20
-73.147839
 30
0.0
 40
0.0
 41
0.0
  0
VERTEX
  5
6F0
100
AcDbEntity
  8
1
  6
Continuous
 62
     6
 48
0.75
100
AcDbVertex
100
AcDb2dVertex
 10
-1163.093906
 20
-73.597839
 30
0.0
 40
0.0
 41
0.0
  0
VERTEX
  5
6F1
100
AcDbEntity
  8
1
  6
Continuous
 62
     6
 48
0.75
100
AcDbVertex
100
AcDb2dVertex
 10
-1163.093906
 20
-73.987839
 30
0.0
 40
0.0
 41
0.0
  0
VERTEX
  5
6F2
100
AcDbEntity
  8
1
  6
Continuous
 62
     6
 48
0.75
100
AcDbVertex
100
AcDb2dVertex
 10
-1163.093906
 20
-74.317839
 30
0.0
 40
0.0
 41
0.0
  0
VERTEX
  5
6F3
100
AcDbEntity
  8
1
  6
Continuous
 62
     6
 48
0.75
100
AcDbVertex
100
AcDb2dVertex
 10
-1163.093906
 20
-74.587839
 30
0.0
 40
0.0
 41
0.0
  0
VERTEX
  5
6F4
100
AcDbEntity
  8
1
  6
Continuous
 62
     6
 48
0.75
100
AcDbVertex
100
AcDb2dVertex
 10
-1163.093906
 20
-74.797839
 30
0.0
 40
0.0
 41
0.0
  0
VERTEX
  5
6F5
100
AcDbEntity
  8
1
  6
Continuous
 62
     6
 48
0.75
100
AcDbVertex
100
AcDb2dVertex
 10
-1163.093906
 20
-74.947839
 30
0.0
 40
0.0
 41
0.0
  0
VERTEX
  5
6F6
100
AcDbEntity
  8
1
  6
Continuous
 62
     6
 48
0.75
100
AcDbVertex
100
AcDb2dVertex
 10
-1163.093906
 20
-75.037839
 30
0.0
 40
0.0
 41
0.0
  0
VERTEX
  5
6F7
100
AcDbEntity
  8
1
  6
Continuous
 62
     6
 48
0.75
100
AcDbVertex
100
AcDb2dVertex
 10
-1163.093906
 20
-75.067839
 30
0.0
 40
0.0
 41
0.0
  0
VERTEX
  5
6F8
100
AcDbEntity
  8
1
  6
Continuous
 62
     6
 48
0.75
100
AcDbVertex
100
AcDb2dVertex
 10
-1162.643906
 20
-79.057839
 30
0.0
 40
0.0
 41
0.0
  0
VERTEX
  5
6F9
100
AcDbEntity
  8
1
  6
Continuous
 62
     6
 48
0.75
100
AcDbVertex
100
AcDb2dVertex
 10
-1162.113906
 20
-83.567839
 30
0.0
 40
0.0
 41
0.0
  0
VERTEX
  5
6FA
100
AcDbEntity
  8
1
  6
Continuous
 62
     6
 48
0.75
100
AcDbVertex
100
AcDb2dVertex
 10
-1161.483906
 20
-88.597839
 30
0.0
 40
0.0
 41
0.0
  0
VERTEX
  5
6FB
100
AcDbEntity
  8
1
  6
Continuous
 62
     6
 48
0.75
100
AcDbVertex
100
AcDb2dVertex
 10
-1160.773906
 20
-94.147839
 30
0.0
 40
0.0
 41
0.0
  0
VERTEX
  5
6FC
100
AcDbEntity
  8
1
  6
Continuous
 62
     6
 48
0.75
100
AcDbVertex
100
AcDb2dVertex
 10
-1159.963906
 20
-100.217839
 30
0.0
 40
0.0
 41
0.0
  0
VERTEX
  5
6FD
100
AcDbEntity
  8
1
  6
Continuous
 62
     6
 48
0.75
100
AcDbVertex
100
AcDb2dVertex
 10
-1159.073906
 20
-106.807839
 30
0.0
 40
0.0
 41
0.0
  0
VERTEX
  5
6FE
100
AcDbEntity
  8
1
  6
Continuous
 62
     6
 48
0.75
100
AcDbVertex
100
AcDb2dVertex
 10
-1158.083906
 20
-113.917839
 30
0.0
 40
0.0
 41
0.0
  0
VERTEX
  5
6FF
100
AcDbEntity
  8
1
  6
Continuous
 62
     6
 48
0.75
100
AcDbVertex
100
AcDb2dVertex
 10
-1157.013906
 20
-121.547839
 30
0.0
 40
0.0
 41
0.0
  0
VERTEX
  5
700
100
AcDbEntity
  8
1
  6
Continuous
 62
     6
 48
0.75
100
AcDbVertex
100
AcDb2dVertex
 10
-1155.843906
 20
-129.687839
 30
0.0
 40
0.0
 41
0.0
  0
VERTEX
  5
701
100
AcDbEntity
  8
1
  6
Continuous
 62
     6
 48
0.75
100
AcDbVertex
100
AcDb2dVertex
 10
-1154.593906
 20
-138.357839
 30
0.0
 40
0.0
 41
0.0
  0
VERTEX
  5
702
100
AcDbEntity
  8
1
  6
Continuous
 62
     6
 48
0.75
100
AcDbVertex
100
AcDb2dVertex
 10
-1226.663906
 20
-139.747839
 30
0.0
 40
0.0
 41
0.0
  0
SEQEND
  5
703
100
AcDbEntity
  8
0
  0
POLYLINE
  5
704
100
AcDbEntity
  8
1
  6
Continuous
 62
     6
 48
0.75
100
AcDb2dPolyline
 66
     1
 10
0.0
 20
0.0
 30
0.0
 70
   128
  0
VERTEX
  5
705
100
AcDbEntity
  8
1
  6
Continuous
 62
     6
 48
0.75
100
AcDbVertex
100
AcDb2dVertex
 10
-1295.283906
 20
-70.177839
 30
0.0
 40
0.0
 41
0.0
  0
VERTEX
  5
706
100
AcDbEntity
  8
1
  6
Continuous
 62
     6
 48
0.75
100
AcDbVertex
100
AcDb2dVertex
 10
-1295.283906
 20
-70.747839
 30
0.0
 40
0.0
 41
0.0
  0
VERTEX
  5
707
100
AcDbEntity
  8
1
  6
Continuous
 62
     6
 48
0.75
100
AcDbVertex
100
AcDb2dVertex
 10
-1295.283906
 20
-71.257839
 30
0.0
 40
0.0
 41
0.0
  0
VERTEX
  5
708
100
AcDbEntity
  8
1
  6
Continuous
 62
     6
 48
0.75
100
AcDbVertex
100
AcDb2dVertex
 10
-1295.283906
 20
-71.707839
 30
0.0
 40
0.0
 41
0.0
  0
VERTEX
  5
709
100
AcDbEntity
  8
1
  6
Continuous
 62
     6
 48
0.75
100
AcDbVertex
100
AcDb2dVertex
 10
-1295.283906
 20
-72.097839
 30
0.0
 40
0.0
 41
0.0
  0
VERTEX
  5
70A
100
AcDbEntity
  8
1
  6
Continuous
 62
     6
 48
0.75
100
AcDbVertex
100
AcDb2dVertex
 10
-1295.283906
 20
-72.427839
 30
0.0
 40
0.0
 41
0.0
  0
VERTEX
  5
70B
100
AcDbEntity
  8
1
  6
Continuous
 62
     6
 48
0.75
100
AcDbVertex
100
AcDb2dVertex
 10
-1295.283906
 20
-72.697839
 30
0.0
 40
0.0
 41
0.0
  0
VERTEX
  5
70C
100
AcDbEntity
  8
1
  6
Continuous
 62
     6
 48
0.75
100
AcDbVertex
100
AcDb2dVertex
 10
-1295.283906
 20
-72.907839
 30
0.0
 40
0.0
 41
0.0
  0
VERTEX
  5
70D
100
AcDbEntity
  8
1
  6
Continuous
 62
     6
 48
0.75
100
AcDbVertex
100
AcDb2dVertex
 10
-1295.283906
 20
-73.057839
 30
0.0
 40
0.0
 41
0.0
  0
VERTEX
  5
70E
100
AcDbEntity
  8
1
  6
Continuous
 62
     6
 48
0.75
100
AcDbVertex
100
AcDb2dVertex
 10
-1295.283906
 20
-73.147839
 30
0.0
 40
0.0
 41
0.0
  0
VERTEX
  5
70F
100
AcDbEntity
  8
1
  6
Continuous
 62
     6
 48
0.75
100
AcDbVertex
100
AcDb2dVertex
 10
-1295.283906
 20
-73.177839
 30
0.0
 40
0.0
 41
0.0
  0
VERTEX
  5
710
100
AcDbEntity
  8
1
  6
Continuous
 62
     6
 48
0.75
100
AcDbVertex
100
AcDb2dVertex
 10
-1295.903906
 20
-77.567839
 30
0.0
 40
0.0
 41
0.0
  0
VERTEX
  5
711
100
AcDbEntity
  8
1
  6
Continuous
 62
     6
 48
0.75
100
AcDbVertex
100
AcDb2dVertex
 10
-1296.583906
 20
-82.427839
 30
0.0
 40
0.0
 41
0.0
  0
VERTEX
  5
712
100
AcDbEntity
  8
1
  6
Continuous
 62
     6
 48
0.75
100
AcDbVertex
100
AcDb2dVertex
 10
-1297.323906
 20
-87.757839
 30
0.0
 40
0.0
 41
0.0
  0
VERTEX
  5
713
100
AcDbEntity
  8
1
  6
Continuous
 62
     6
 48
0.75
100
AcDbVertex
100
AcDb2dVertex
 10
-1298.123906
 20
-93.547839
 30
0.0
 40
0.0
 41
0.0
  0
VERTEX
  5
714
100
AcDbEntity
  8
1
  6
Continuous
 62
     6
 48
0.75
100
AcDbVertex
100
AcDb2dVertex
 10
-1298.983906
 20
-99.817839
 30
0.0
 40
0.0
 41
0.0
  0
VERTEX
  5
715
100
AcDbEntity
  8
1
  6
Continuous
 62
     6
 48
0.75
100
AcDbVertex
100
AcDb2dVertex
 10
-1299.903906
 20
-106.547839
 30
0.0
 40
0.0
 41
0.0
  0
VERTEX
  5
716
100
AcDbEntity
  8
1
  6
Continuous
 62
     6
 48
0.75
100
AcDbVertex
100
AcDb2dVertex
 10
-1300.883906
 20
-113.747839
 30
0.0
 40
0.0
 41
0.0
  0
VERTEX
  5
717
100
AcDbEntity
  8
1
  6
Continuous
 62
     6
 48
0.75
100
AcDbVertex
100
AcDb2dVertex
 10
-1301.923906
 20
-121.417839
 30
0.0
 40
0.0
 41
0.0
  0
VERTEX
  5
718
100
AcDbEntity
  8
1
  6
Continuous
 62
     6
 48
0.75
100
AcDbVertex
100
AcDb2dVertex
 10
-1303.023906
 20
-129.557839
 30
0.0
 40
0.0
 41
0.0
  0
VERTEX
  5
719
100
AcDbEntity
  8
1
  6
Continuous
 62
     6
 48
0.75
100
AcDbVertex
100
AcDb2dVertex
 10
-1304.183906
 20
-138.157839
 30
0.0
 40
0.0
 41
0.0
  0
VERTEX
  5
71A
100
AcDbEntity
  8
1
  6
Continuous
 62
     6
 48
0.75
100
AcDbVertex
100
AcDb2dVertex
 10
-1234.663906
 20
-138.937839
 30
0.0
 40
0.0
 41
0.0
  0
SEQEND
  5
71B
100
AcDbEntity
  8
0
  0
POLYLINE
  5
71C
100
AcDbEntity
  8
1
  6
Continuous
 62
     6
 48
0.75
100
AcDb2dPolyline
 66
     1
 10
0.0
 20
0.0
 30
0.0
 70
   128
  0
VERTEX
  5
71D
100
AcDbEntity
  8
1
  6
Continuous
 62
     6
 48
0.75
100
AcDbVertex
100
AcDb2dVertex
 10
-1295.283906
 20
-73.177839
 30
0.0
 40
0.0
 41
0.0
  0
VERTEX
  5
71E
100
AcDbEntity
  8
1
  6
Continuous
 62
     6
 48
0.75
100
AcDbVertex
100
AcDb2dVertex
 10
-1296.193906
 20
-79.667839
 30
0.0
 40
0.0
 41
0.0
  0
VERTEX
  5
71F
100
AcDbEntity
  8
1
  6
Continuous
 62
     6
 48
0.75
100
AcDbVertex
100
AcDb2dVertex
 10
-1297.103906
 20
-86.167839
 30
0.0
 40
0.0
 41
0.0
  0
VERTEX
  5
720
100
AcDbEntity
  8
1
  6
Continuous
 62
     6
 48
0.75
100
AcDbVertex
100
AcDb2dVertex
 10
-1298.003906
 20
-92.667839
 30
0.0
 40
0.0
 41
0.0
  0
VERTEX
  5
721
100
AcDbEntity
  8
1
  6
Continuous
 62
     6
 48
0.75
100
AcDbVertex
100
AcDb2dVertex
 10
-1298.893906
 20
-99.167839
 30
0.0
 40
0.0
 41
0.0
  0
VERTEX
  5
722
100
AcDbEntity
  8
1
  6
Continuous
 62
     6
 48
0.75
100
AcDbVertex
100
AcDb2dVertex
 10
-1299.783906
 20
-105.657839
 30
0.0
 40
0.0
 41
0.0
  0
VERTEX
  5
723
100
AcDbEntity
  8
1
  6
Continuous
 62
     6
 48
0.75
100
AcDbVertex
100
AcDb2dVertex
 10
-1300.663906
 20
-112.157839
 30
0.0
 40
0.0
 41
0.0
  0
VERTEX
  5
724
100
AcDbEntity
  8
1
  6
Continuous
 62
     6
 48
0.75
100
AcDbVertex
100
AcDb2dVertex
 10
-1301.553906
 20
-118.657839
 30
0.0
 40
0.0
 41
0.0
  0
VERTEX
  5
725
100
AcDbEntity
  8
1
  6
Continuous
 62
     6
 48
0.75
100
AcDbVertex
100
AcDb2dVertex
 10
-1302.433906
 20
-125.157839
 30
0.0
 40
0.0
 41
0.0
  0
VERTEX
  5
726
100
AcDbEntity
  8
1
  6
Continuous
 62
     6
 48
0.75
100
AcDbVertex
100
AcDb2dVertex
 10
-1303.303906
 20
-131.657839
 30
0.0
 40
0.0
 41
0.0
  0
VERTEX
  5
727
100
AcDbEntity
  8
1
  6
Continuous
 62
     6
 48
0.75
100
AcDbVertex
100
AcDb2dVertex
 10
-1304.183906
 20
-138.157839
 30
0.0
 40
0.0
 41
0.0
  0
VERTEX
  5
728
100
AcDbEntity
  8
1
  6
Continuous
 62
     6
 48
0.75
100
AcDbVertex
100
AcDb2dVertex
 10
-1234.663906
 20
-138.937839
 30
0.0
 40
0.0
 41
0.0
  0
SEQEND
  5
729
100
AcDbEntity
  8
0
  0
POLYLINE
  5
72A
100
AcDbEntity
  8
1
  6
Continuous
 62
     6
 48
0.75
100
AcDb2dPolyline
 66
     1
 10
0.0
 20
0.0
 30
0.0
 70
   128
  0
VERTEX
  5
72B
100
AcDbEntity
  8
1
  6
Continuous
 62
     6
 48
0.75
100
AcDbVertex
100
AcDb2dVertex
 10
-1166.043906
 20
-70.177839
 30
0.0
 40
0.0
 41
0.0
  0
VERTEX
  5
72C
100
AcDbEntity
  8
1
  6
Continuous
 62
     6
 48
0.75
100
AcDbVertex
100
AcDb2dVertex
 10
-1166.043906
 20
-70.747839
 30
0.0
 40
0.0
 41
0.0
  0
VERTEX
  5
72D
100
AcDbEntity
  8
1
  6
Continuous
 62
     6
 48
0.75
100
AcDbVertex
100
AcDb2dVertex
 10
-1166.043906
 20
-71.257839
 30
0.0
 40
0.0
 41
0.0
  0
VERTEX
  5
72E
100
AcDbEntity
  8
1
  6
Continuous
 62
     6
 48
0.75
100
AcDbVertex
100
AcDb2dVertex
 10
-1166.043906
 20
-71.707839
 30
0.0
 40
0.0
 41
0.0
  0
VERTEX
  5
72F
100
AcDbEntity
  8
1
  6
Continuous
 62
     6
 48
0.75
100
AcDbVertex
100
AcDb2dVertex
 10
-1166.043906
 20
-72.097839
 30
0.0
 40
0.0
 41
0.0
  0
VERTEX
  5
730
100
AcDbEntity
  8
1
  6
Continuous
 62
     6
 48
0.75
100
AcDbVertex
100
AcDb2dVertex
 10
-1166.043906
 20
-72.427839
 30
0.0
 40
0.0
 41
0.0
  0
VERTEX
  5
731
100
AcDbEntity
  8
1
  6
Continuous
 62
     6
 48
0.75
100
AcDbVertex
100
AcDb2dVertex
 10
-1166.043906
 20
-72.697839
 30
0.0
 40
0.0
 41
0.0
  0
VERTEX
  5
732
100
AcDbEntity
  8
1
  6
Continuous
 62
     6
 48
0.75
100
AcDbVertex
100
AcDb2dVertex
 10
-1166.043906
 20
-72.907839
 30
0.0
 40
0.0
 41
0.0
  0
VERTEX
  5
733
100
AcDbEntity
  8
1
  6
Continuous
 62
     6
 48
0.75
100
AcDbVertex
100
AcDb2dVertex
 10
-1166.043906
 20
-73.057839
 30
0.0
 40
0.0
 41
0.0
  0
VERTEX
  5
734
100
AcDbEntity
  8
1
  6
Continuous
 62
     6
 48
0.75
100
AcDbVertex
100
AcDb2dVertex
 10
-1166.043906
 20
-73.147839
 30
0.0
 40
0.0
 41
0.0
  0
VERTEX
  5
735
100
AcDbEntity
  8
1
  6
Continuous
 62
     6
 48
0.75
100
AcDbVertex
100
AcDb2dVertex
 10
-1166.043906
 20
-73.177839
 30
0.0
 40
0.0
 41
0.0
  0
VERTEX
  5
736
100
AcDbEntity
  8
1
  6
Continuous
 62
     6
 48
0.75
100
AcDbVertex
100
AcDb2dVertex
 10
-1165.423906
 20
-77.567839
 30
0.0
 40
0.0
 41
0.0
  0
VERTEX
  5
737
100
AcDbEntity
  8
1
  6
Continuous
 62
     6
 48
0.75
100
AcDbVertex
100
AcDb2dVertex
 10
-1164.743906
 20
-82.427839
 30
0.0
 40
0.0
 41
0.0
  0
VERTEX
  5
738
100
AcDbEntity
  8
1
  6
Continuous
 62
     6
 48
0.75
100
AcDbVertex
100
AcDb2dVertex
 10
-1164.003906
 20
-87.757839
 30
0.0
 40
0.0
 41
0.0
  0
VERTEX
  5
739
100
AcDbEntity
  8
1
  6
Continuous
 62
     6
 48
0.75
100
AcDbVertex
100
AcDb2dVertex
 10
-1163.203906
 20
-93.547839
 30
0.0
 40
0.0
 41
0.0
  0
VERTEX
  5
73A
100
AcDbEntity
  8
1
  6
Continuous
 62
     6
 48
0.75
100
AcDbVertex
100
AcDb2dVertex
 10
-1162.343906
 20
-99.817839
 30
0.0
 40
0.0
 41
0.0
  0
VERTEX
  5
73B
100
AcDbEntity
  8
1
  6
Continuous
 62
     6
 48
0.75
100
AcDbVertex
100
AcDb2dVertex
 10
-1161.423906
 20
-106.547839
 30
0.0
 40
0.0
 41
0.0
  0
VERTEX
  5
73C
100
AcDbEntity
  8
1
  6
Continuous
 62
     6
 48
0.75
100
AcDbVertex
100
AcDb2dVertex
 10
-1160.443906
 20
-113.747839
 30
0.0
 40
0.0
 41
0.0
  0
VERTEX
  5
73D
100
AcDbEntity
  8
1
  6
Continuous
 62
     6
 48
0.75
100
AcDbVertex
100
AcDb2dVertex
 10
-1159.403906
 20
-121.417839
 30
0.0
 40
0.0
 41
0.0
  0
VERTEX
  5
73E
100
AcDbEntity
  8
1
  6
Continuous
 62
     6
 48
0.75
100
AcDbVertex
100
AcDb2dVertex
 10
-1158.303906
 20
-129.557839
 30
0.0
 40
0.0
 41
0.0
  0
VERTEX
  5
73F
100
AcDbEntity
  8
1
  6
Continuous
 62
     6
 48
0.75
100
AcDbVertex
100
AcDb2dVertex
 10
-1157.143906
 20
-138.157839
 30
0.0
 40
0.0
 41
0.0
  0
VERTEX
  5
740
100
AcDbEntity
  8
1
  6
Continuous
 62
     6
 48
0.75
100
AcDbVertex
100
AcDb2dVertex
 10
-1226.663906
 20
-138.937839
 30
0.0
 40
0.0
 41
0.0
  0
SEQEND
  5
741
100
AcDbEntity
  8
0
  0
TEXT
  5
742
100
AcDbEntity
  8
0
 62
     6
 48
0.0
100
AcDbText
 10
-1318.221354
 20
-201.765673
 30
0.0
 40
12.0
  1
Loa =  8.231 metre
 72
     5
 11
-1177.696467
 21
-201.765673
 31
0.0
210
0.0
220
0.0
230
1.0
100
AcDbText
  0
TEXT
  5
743
100
AcDbEntity
  8
0
 62
     6
 48
0.0
100
AcDbText
 10
-1318.221354
 20
-225.765673
 30
0.0
 40
12.0
  1
Lwl  =  8.023 metre
 72
     5
 11
-1174.167056
 21
-225.765673
 31
0.0
210
0.0
220
0.0
230
1.0
100
AcDbText
  0
TEXT
  5
744
100
AcDbEntity
  8
0
 62
     6
 48
0.0
100
AcDbText
 10
-1318.221354
 20
-249.765673
 30
0.0
 40
12.0
  1
Boa =  2.209 metre
 72
     5
 11
-1176.682893
 21
-249.765673
 31
0.0
210
0.0
220
0.0
230
1.0
100
AcDbText
  0
TEXT
  5
745
100
AcDbEntity
  8
0
 62
     6
 48
0.0
100
AcDbText
 10
-1318.221354
 20
-273.765673
 30
0.0
 40
12.0
  1
Bwl =   2.034 metre
 72
     5
 11
-1173.153481
 21
-273.765673
 31
0.0
210
0.0
220
0.0
230
1.0
100
AcDbText
  0
TEXT
  5
746
100
AcDbEntity
  8
0
 62
     6
 48
0.0
100
AcDbText
 10
-1318.221354
 20
-297.765673
 30
0.0
 40
12.0
  1
Twl =   0.311 metre
 72
     5
 11
-1174.167056
 21
-297.765673
 31
0.0
210
0.0
220
0.0
230
1.0
100
AcDbText
  0
TEXT
  5
747
100
AcDbEntity
  8
0
 62
     6
 48
0.0
100
AcDbText
 10
-1318.221354
 20
-321.765673
 30
0.0
 40
12.0
  1
Dep =  1.77 ton
 72
     5
 11
-1203.832214
 21
-321.765673
 31
0.0
210
0.0
220
0.0
230
1.0
100
AcDbText
  0
TEXT
  5
748
100
AcDbEntity
  8
0
 62
     6
 48
0.0
100
AcDbText
 10
-1318.221354
 20
-345.765673
 30
0.0
 40
12.0
  1
S     = 14.383 mkare
 72
     5
 11
-1169.135381
 21
-345.765673
 31
0.0
210
0.0
220
0.0
230
1.0
100
AcDbText
  0
TEXT
  5
749
100
AcDbEntity
  8
0
 62
     6
 48
0.0
100
AcDbText
 10
-1318.221354
 20
-369.765673
 30
0.0
 40
12.0
  1
Cx   =   0.544
 72
     5
 11
-1218.909137
 21
-369.765673
 31
0.0
210
0.0
220
0.0
230
1.0
100
AcDbText
  0
TEXT
  5
74A
100
AcDbEntity
  8
0
 62
     6
 48
0.0
100
AcDbText
 10
-1318.221354
 20
-393.765673
 30
0.0
 40
12.0
  1
Cb   =   0.340 
 72
     5
 11
-1214.38425
 21
-393.765673
 31
0.0
210
0.0
220
0.0
230
1.0
100
AcDbText
  0
TEXT
  5
74B
100
AcDbEntity
  8
0
 62
     6
 48
0.0
100
AcDbText
 10
-1318.221354
 20
-417.765673
 30
0.0
 40
12.0
  1
Cwp =   0.766
 72
     5
 11
-1215.886513
 21
-417.765673
 31
0.0
210
0.0
220
0.0
230
1.0
100
AcDbText
  0
TEXT
  5
74C
100
AcDbEntity
  8
0
 62
     6
 48
0.0
100
AcDbText
 10
-1318.221354
 20
-441.765673
 30
0.0
 40
12.0
  1
Lcb  = %  50.221
 72
     5
 11
-1192.284703
 21
-441.765673
 31
0.0
210
0.0
220
0.0
230
1.0
100
AcDbText
  0
TEXT
  5
74D
100
AcDbEntity
  8
0
 62
     6
 48
0.0
100
AcDbText
 10
-1318.221354
 20
-465.765673
 30
0.0
 40
12.0
  1
>     =  29.287 derece
 72
     5
 11
-1163.379725
 21
-465.765673
 31
0.0
210
0.0
220
0.0
230
1.0
100
AcDbText
  0
TEXT
  5
74E
100
AcDbEntity
  8
0
 62
     6
 48
0.0
100
AcDbText
 10
-1318.221354
 20
-489.765673
 30
0.0
 40
12.0
  1
At/Ax = 0.205
 72
     5
 11
-1214.872938
 21
-489.765673
 31
0.0
210
0.0
220
0.0
230
1.0
100
AcDbText
  0
POLYLINE
  5
74F
100
AcDbEntity
  8
0
  6
Continuous
 62
     6
 48
2.0
100
AcDb2dPolyline
 66
     1
 10
0.0
 20
0.0
 30
0.0
 70
   128
  0
VERTEX
  5
750
100
AcDbEntity
  8
0
  6
Continuous
 62
     6
 48
2.0
100
AcDbVertex
100
AcDb2dVertex
 10
-1365.512007
 20
41.702986
 30
0.0
 40
0.0
 41
0.0
  0
VERTEX
  5
751
100
AcDbEntity
  8
0
  6
Continuous
 62
     6
 48
2.0
100
AcDbVertex
100
AcDb2dVertex
 10
102.023738
 20
41.702986
 30
0.0
 40
0.0
 41
0.0
  0
VERTEX
  5
752
100
AcDbEntity
  8
0
  6
Continuous
 62
     6
 48
2.0
100
AcDbVertex
100
AcDb2dVertex
 10
102.023738
 20
-580.702989
 30
0.0
 40
0.0
 41
0.0
  0
VERTEX
  5
753
100
AcDbEntity
  8
0
  6
Continuous
 62
     6
 48
2.0
100
AcDbVertex
100
AcDb2dVertex
 10
-1365.512007
 20
-580.702989
 30
0.0
 40
0.0
 41
0.0
  0
VERTEX
  5
754
100
AcDbEntity
  8
0
  6
Continuous
 62
     6
 48
2.0
100
AcDbVertex
100
AcDb2dVertex
 10
-1365.512007
 20
41.702986
 30
0.0
 40
0.0
 41
0.0
  0
SEQEND
  5
755
100
AcDbEntity
  8
0
  0
TEXT
  5
756
100
AcDbEntity
  8
0
 62
     6
 48
0.0
100
AcDbText
 10
-1003.427617
 20
-11.667908
 30
0.0
 40
25.0
  1
ÇEMBERCI TASARLANAN MODEL = 0025
 72
     5
 11
-286.308461
 21
-11.667908
 31
0.0
210
0.0
220
0.0
230
1.0
100
AcDbText
  0
ENDSEC
  0
SECTION
  2
OBJECTS
  0
DICTIONARY
  5
19
100
AcDbDictionary
280
     0
281
     1
  3
ACAD_GROUP
350
1A
  3
ACAD_MLINESTYLE
350
1B
  3
ACAD_LAYOUT
350
1E
  3
ACAD_PLOTSETTINGS
350
22
  3
ACAD_PLOTSTYLENAME
350
1F
  3
ACAD_WIPEOUT_VARS
350
23
  0
DICTIONARY
  5
1A
102
{ACAD_REACTORS
330
19
102
}
100
AcDbDictionary
280
     0
281
     1
  0
DICTIONARY
  5
1B
102
{ACAD_REACTORS
330
19
102
}
100
AcDbDictionary
280
     0
281
     1
  3
Standard
350
1C
  0
MLINESTYLE
  5
1C
102
{ACAD_REACTORS
330
1B
102
}
100
AcDbMlineStyle
  2
Standard
 70
     0
  3

 62
     0
 51
90.0
 52
90.0
 71
     2
 49
0.5
 62
   256
  6
BYLAYER
 49
-0.5
 62
   256
  6
BYLAYER
  0
ACDBDICTIONARYWDFLT
  5
1F
102
{ACAD_REACTORS
330
19
102
}
100
AcDbDictionary
281
     1
  3
Normal
350
1D
100
AcDbDictionaryWithDefault
340
1D
  0
ACDBPLACEHOLDER
  5
1D
102
{ACAD_REACTORS
330
1F
102
}
  0
LAYOUT
  5
20
102
{ACAD_REACTORS
330
1E
102
}
100
AcDbPlotSettings
  1

  2

  4

  6

 40
0.0
 41
0.0
 42
0.0
 43
0.0
 44
0.0
 45
0.0
 46
0.0
 47
0.0
 48
0.0
 49
0.0
140
0.0
141
0.0
142
1.0
143
1.0
 70
  1024
 72
     0
 73
     0
 74
     0
  7

 75
     0
147
1.0
148
0.0
149
0.0
100
AcDbLayout
  1
Model
 70
     0
 71
     0
 10
0.0
 20
0.0
 11
0.0
 21
0.0
 12
0.0
 22
0.0
 32
0.0
 14
0.0
 24
0.0
 34
0.0
 15
0.0
 25
0.0
 35
0.0
146
0.0
 13
0.0
 23
0.0
 33
0.0
 16
0.0
 26
0.0
 36
0.0
 17
0.0
 27
0.0
 37
0.0
 76
     0
330
A
331
0
345
0
346
0
  0
LAYOUT
  5
21
102
{ACAD_REACTORS
330
1E
102
}
100
AcDbPlotSettings
  1

  2

  4

  6

 40
0.0
 41
0.0
 42
0.0
 43
0.0
 44
0.0
 45
0.0
 46
0.0
 47
0.0
 48
0.0
 49
0.0
140
0.0
141
0.0
142
1.0
143
1.0
 70
     0
 72
     0
 73
     0
 74
     0
  7

 75
     0
147
1.0
148
0.0
149
0.0
100
AcDbLayout
  1
Layout1
 70
     0
 71
     0
 10
0.0
 20
0.0
 11
0.0
 21
0.0
 12
0.0
 22
0.0
 32
0.0
 14
0.0
 24
0.0
 34
0.0
 15
0.0
 25
0.0
 35
0.0
146
0.0
 13
0.0
 23
0.0
 33
0.0
 16
0.0
 26
0.0
 36
0.0
 17
0.0
 27
0.0
 37
0.0
 76
     0
330
B
331
0
345
0
346
0
  0
DICTIONARY
  5
1E
102
{ACAD_REACTORS
330
19
102
}
100
AcDbDictionary
280
     0
281
     1
  3
Layout1
350
21
  3
Model
350
20
  0
DICTIONARY
  5
22
102
{ACAD_REACTORS
330
19
102
}
100
AcDbDictionary
280
     0
281
     1
  0
WIPEOUTVARIABLES
  5
23
100
AcDbWipeoutVariables
 70
     1
  0
ENDSEC
  0
EOF
