  0
SECTION
  2
HEADER
  9
$ACADVER
  1
AC1015
  9
$ACADMAINTVER
 70
     6
  9
$DWGCODEPAGE
  3
ANSI_1252
  9
$INSBASE
 10
0.0
 20
0.0
 30
0.0
  9
$EXTMIN
 10
-1179.004941
 20
-600.859207
 30
0.0
  9
$EXTMAX
 10
95.463194
 20
87.66926
 30
0.0
  9
$LIMMIN
 10
0.0
 20
0.0
  9
$LIMMAX
 10
0.0
 20
0.0
  9
$ORTHOMODE
 70
     0
  9
$REGENMODE
 70
     1
  9
$FILLMODE
 70
     1
  9
$QTEXTMODE
 70
     0
  9
$MIRRTEXT
 70
     1
  9
$LTSCALE
 40
1.0
  9
$ATTMODE
 70
     1
  9
$TEXTSIZE
 40
0.2
  9
$TRACEWID
 40
0.05
  9
$TEXTSTYLE
  7
Standard
  9
$CLAYER
  8
0
  9
$CELTYPE
  6
Continuous
  9
$CECOLOR
 62
   256
  9
$CELTSCALE
 40
1.0
  9
$DISPSILH
 70
     0
  9
$DIMSCALE
 40
1.0
  9
$DIMASZ
 40
0.18
  9
$DIMEXO
 40
0.0625
  9
$DIMDLI
 40
0.38
  9
$DIMRND
 40
0.0
  9
$DIMDLE
 40
0.0
  9
$DIMEXE
 40
0.18
  9
$DIMTP
 40
0.0
  9
$DIMTM
 40
0.0
  9
$DIMTXT
 40
0.18
  9
$DIMCEN
 40
0.09
  9
$DIMTSZ
 40
0.0
  9
$DIMTOL
 70
     0
  9
$DIMLIM
 70
     0
  9
$DIMTIH
 70
     1
  9
$DIMTOH
 70
     1
  9
$DIMSE1
 70
     0
  9
$DIMSE2
 70
     0
  9
$DIMTAD
 70
     0
  9
$DIMZIN
 70
     0
  9
$DIMBLK
  1

  9
$DIMASO
 70
     1
  9
$DIMSHO
 70
     1
  9
$DIMPOST
  1

  9
$DIMAPOST
  1

  9
$DIMALT
 70
     0
  9
$DIMALTD
 70
     2
  9
$DIMALTF
 40
25.4
  9
$DIMLFAC
 40
1.0
  9
$DIMTOFL
 70
     0
  9
$DIMTVP
 40
0.0
  9
$DIMTIX
 70
     0
  9
$DIMSOXD
 70
     0
  9
$DIMSAH
 70
     0
  9
$DIMBLK1
  1

  9
$DIMBLK2
  1

  9
$DIMSTYLE
  2
Standard
  9
$DIMCLRD
 70
     0
  9
$DIMCLRE
 70
     0
  9
$DIMCLRT
 70
     0
  9
$DIMTFAC
 40
1.0
  9
$DIMGAP
 40
0.09
  9
$DIMJUST
 70
     0
  9
$DIMSD1
 70
     0
  9
$DIMSD2
 70
     0
  9
$DIMTOLJ
 70
     1
  9
$DIMTZIN
 70
     0
  9
$DIMALTZ
 70
     0
  9
$DIMALTTZ
 70
     0
  9
$DIMUPT
 70
     0
  9
$DIMDEC
 70
     4
  9
$DIMTDEC
 70
     4
  9
$DIMALTU
 70
     2
  9
$DIMALTTD
 70
     2
  9
$DIMTXSTY
  7
Standard
  9
$DIMAUNIT
 70
     0
  9
$DIMADEC
 70
     0
  9
$DIMALTRND
 40
0.0
  9
$DIMAZIN
 70
     0
  9
$DIMDSEP
 70
     0
  9
$DIMATFIT
 70
     3
  9
$DIMFRAC
 70
     0
  9
$DIMLDRBLK
  1

  9
$DIMLUNIT
 70
     2
  9
$DIMLWD
 70
     0
  9
$DIMLWE
 70
     0
  9
$DIMTMOVE
 70
     0
  9
$LUNITS
 70
     2
  9
$LUPREC
 70
     4
  9
$SKETCHINC
 40
0.1
  9
$FILLETRAD
 40
0.0
  9
$AUNITS
 70
     0
  9
$AUPREC
 70
     0
  9
$MENU
  1
acad
  9
$ELEVATION
 40
0.0
  9
$PELEVATION
 40
0.0
  9
$THICKNESS
 40
0.0
  9
$LIMCHECK
 70
     0
  9
$CHAMFERA
 40
0.0
  9
$CHAMFERB
 40
0.0
  9
$CHAMFERC
 40
0.0
  9
$CHAMFERD
 40
0.0
  9
$SKPOLY
 70
     0
  9
$TDCREATE
 40
0.000000000
  9
$TDUCREATE
 40
0.000000000
  9
$TDUPDATE
 40
0.000000000
  9
$TDUUPDATE
 40
0.000000000
  9
$TDINDWG
 40
0.0000000000
  9
$TDUSRTIMER
 40
0.0000000000
  9
$USRTIMER
 70
     1
  9
$ANGBASE
 50
0.0
  9
$ANGDIR
 70
     0
  9
$PDMODE
 70
     0
  9
$PDSIZE
 40
0.0
  9
$PLINEWID
 40
0.0
  9
$SPLFRAME
 70
     0
  9
$SPLINETYPE
 70
     6
  9
$SPLINESEGS
 70
     8
  9
$HANDSEED
  5
5B2
  9
$SURFTAB1
 70
     6
  9
$SURFTAB2
 70
     6
  9
$SURFTYPE
 70
     6
  9
$SURFU
 70
     6
  9
$SURFV
 70
     6
  9
$UCSBASE
  2

  9
$UCSNAME
  2

  9
$UCSORG
 10
0.0
 20
0.0
 30
0.0
  9
$UCSXDIR
 10
1.0
 20
0.0
 30
0.0
  9
$UCSYDIR
 10
0.0
 20
1.0
 30
0.0
  9
$UCSORTHOREF
  2

  9
$UCSORTHOVIEW
 70
     0
  9
$UCSORGTOP
 10
0.0
 20
0.0
 30
0.0
  9
$UCSORGBOTTOM
 10
0.0
 20
0.0
 30
0.0
  9
$UCSORGLEFT
 10
0.0
 20
0.0
 30
0.0
  9
$UCSORGRIGHT
 10
0.0
 20
0.0
 30
0.0
  9
$UCSORGFRONT
 10
0.0
 20
0.0
 30
0.0
  9
$UCSORGBACK
 10
0.0
 20
0.0
 30
0.0
  9
$PUCSBASE
  2

  9
$PUCSNAME
  2

  9
$PUCSORG
 10
0.0
 20
0.0
 30
0.0
  9
$PUCSXDIR
 10
1.0
 20
0.0
 30
0.0
  9
$PUCSYDIR
 10
0.0
 20
1.0
 30
0.0
  9
$PUCSORTHOREF
  2

  9
$PUCSORTHOVIEW
 70
     0
  9
$PUCSORGTOP
 10
0.0
 20
0.0
 30
0.0
  9
$PUCSORGBOTTOM
 10
0.0
 20
0.0
 30
0.0
  9
$PUCSORGLEFT
 10
0.0
 20
0.0
 30
0.0
  9
$PUCSORGRIGHT
 10
0.0
 20
0.0
 30
0.0
  9
$PUCSORGFRONT
 10
0.0
 20
0.0
 30
0.0
  9
$PUCSORGBACK
 10
0.0
 20
0.0
 30
0.0
  9
$USERI1
 70
     0
  9
$USERI2
 70
     0
  9
$USERI3
 70
     0
  9
$USERI4
 70
     0
  9
$USERI5
 70
     0
  9
$USERR1
 40
0.0
  9
$USERR2
 40
0.0
  9
$USERR3
 40
0.0
  9
$USERR4
 40
0.0
  9
$USERR5
 40
0.0
  9
$WORLDVIEW
 70
     1
  9
$SHADEDGE
 70
     3
  9
$SHADEDIF
 70
    70
  9
$TILEMODE
 70
     1
  9
$MAXACTVP
 70
    16
  9
$PINSBASE
 10
0.0
 20
0.0
 30
0.0
  9
$PLIMCHECK
 70
     0
  9
$PEXTMIN
 10
1.000000E+20
 20
1.000000E+20
 30
1.000000E+20
  9
$PEXTMAX
 10
-1.000000E+20
 20
-1.000000E+20
 30
-1.000000E+20
  9
$PLIMMIN
 10
0.0
 20
0.0
  9
$PLIMMAX
 10
12.0
 20
9.0
  9
$UNITMODE
 70
     0
  9
$VISRETAIN
 70
     0
  9
$PLINEGEN
 70
     0
  9
$PSLTSCALE
 70
     0
  9
$TREEDEPTH
 70
  3020
  9
$CMLSTYLE
  2
Standard
  9
$CMLJUST
 70
     0
  9
$CMLSCALE
 40
1.0
  9
$PROXYGRAPHICS
 70
     0
  9
$MEASUREMENT
 70
     0
  9
$CELWEIGHT
370
     0
  9
$ENDCAPS
280
     0
  9
$JOINSTYLE
280
     0
  9
$LWDISPLAY
290
     0
  9
$INSUNITS
 70
     0
  9
$HYPERLINKBASE
  1

  9
$XEDIT
290
     1
  9
$CEPSNTYPE
380
     0
  9
$PSTYLEMODE
290
     1
  9
$FINGERPRINTGUID
  2

  9
$VERSIONGUID
  2

  9
$EXTNAMES
290
     1
  9
$PSVPSCALE
 40
0.0
  0
ENDSEC
  0
SECTION
  2
CLASSES
  0
CLASS
  1
LWPOLYLINE
  2
AcDbPolyline
  3
AutoCAD 2000
 90
    32768
280
     0
281
     1
  0
CLASS
  1
IMAGE
  2
AcDbRasterImage
  3
ISM
 90
    32895
280
     0
281
     1
  0
CLASS
  1
OLE2FRAME
  2
AcDbOle2Frame
  3
AutoCAD 2000
 90
    32768
280
     0
281
     1
  0
CLASS
  1
HATCH
  2
AcDbHatch
  3
AutoCAD 2000
 90
    32768
280
     0
281
     1
  0
CLASS
  1
DICTIONARYVAR
  2
AcDbDictionaryVar
  3
AutoCAD 2000
 90
    32768
280
     0
281
     0
  0
CLASS
  1
RASTERVARIABLES
  2
AcDbRasterVariables
  3
ISM
 90
    32768
280
     0
281
     0
  0
CLASS
  1
IMAGEDEF
  2
AcDbRasterImageDef
  3
ISM
 90
    32768
280
     0
281
     0
  0
CLASS
  1
IMAGEDEF_REACTOR
  2
AcDbRasterImageDefReactor
  3
ISM
 90
    32769
280
     0
281
     0
  0
CLASS
  1
IDBUFFER
  2
AcDbIdBuffer
  3
AutoCAD 2000
 90
    32768
280
     0
281
     0
  0
CLASS
  1
SPATIAL_FILTER
  2
AcDbSpatialFilter
  3
AutoCAD 2000
 90
    32768
280
     0
281
     0
  0
CLASS
  1
XRECORD
  2
AcDbXrecord
  3
AutoCAD 2000
 90
    32768
280
     0
281
     0
  0
CLASS
  1
SORTENTSTABLE
  2
AcDbSortentsTable
  3
AutoCAD 2000
 90
    32768
280
     0
281
     0
  0
CLASS
  1
LAYER_INDEX
  2
AcDbLayerIndex
  3
AutoCAD 2000
 90
    32768
280
     0
281
     0
  0
CLASS
  1
SPATIAL_INDEX
  2
AcDbSpatialIndex
  3
AutoCAD 2000
 90
    32768
280
     0
281
     0
  0
CLASS
  1
OBJECT_PTR
  2
CAseDLPNTableRecord
  3
"ASE-LPNTableRecord"
 90
    32769
280
     0
281
     0
  0
CLASS
  1
LAYOUT
  2
AcDbLayout
  3
AutoCAD 2000
 90
        0
280
     0
281
     0
  0
CLASS
  1
PLOTSETTINGS
  2
AcDbPlotSettings
  3
AutoCAD 2000
 90
    32768
280
     0
281
     0
  0
CLASS
  1
ACDBDICTIONARYWDFLT
  2
AcDbDictionaryWithDefault
  3
AutoCAD 2000
 90
        0
280
     0
281
     0
  0
CLASS
  1
ACDBPLACEHOLDER
  2
AcDbPlaceHolder
  3
AutoCAD 2000
 90
        0
280
     0
281
     0
  0
CLASS
  1
VBA_PROJECT
  2
AcDbVbaProject
  3
acadvba
 90
    32768
280
     0
281
     0
  0
CLASS
  1
WIPEOUT
  2
AcDbWipeout
  3
WipeOut|AutoCAD Express Tool|expresstools@autodesk.com
 90
    32895
280
     0
281
     1
  0
CLASS
  1
WIPEOUTVARIABLES
  2
AcDbWipeoutVariables
  3
WipeOut|AutoCAD Express Tool|expresstools@autodesk.com
 90
        0
280
     0
281
     0
  0
CLASS
  1
RTEXT
  2
RText
  3
RText|AutoCAD Express Tool|expresstools@autodesk.com
 90
    32768
280
     0
281
     1
  0
CLASS
  1
ARCALIGNEDTEXT
  2
AcDbArcAlignedText
  3
ATEXT|AutoCAD Express Tool|expresstools@autodesk.com
 90
    32768
280
     0
281
     1
  0
ENDSEC
  0
SECTION
  2
TABLES
  0
TABLE
  2
VPORT
  5
7
100
AcDbSymbolTable
 70
     2
  0
VPORT
  5
15
100
AcDbSymbolTableRecord
100
AcDbViewportTableRecord
  2
*ACTIVE
 70
     0
 10
0.0
 20
0.0
 11
1.0
 21
1.0
 12
6.591288
 22
4.579184
 13
0.0
 23
0.0
 14
1.0
 24
1.0
 15
0.0
 25
0.0
 16
0.0
 26
0.0
 36
1.0
 17
0.0
 27
0.0
 37
0.0
 40
9.158369
 41
0.688564
 42
50.0
 43
0.0
 44
0.0
 50
0.0
 51
0.0
 71
     0
 72
   100
 73
     1
 74
     1
 75
     0
 76
     0
 77
     0
 78
     0
281
     0
 65
     0
110
0.0
120
0.0
130
0.0
111
1.0
121
0.0
131
0.0
112
0.0
122
1.0
132
0.0
345
0
346
0
 79
     0
146
0.0
  0
VPORT
  5
33
100
AcDbSymbolTableRecord
100
AcDbViewportTableRecord
  2
DCADVPORT
 70
     0
 10
-1179.004941
 20
-600.859207
 11
95.463194
 21
87.66926
 12
6.21
 22
9.02
 13
0.0
 23
0.0
 14
1.0
 24
1.0
 15
0.0
 25
0.0
 16
0.0
 26
0.0
 36
1.0
 17
0.0
 27
0.0
 37
0.0
 40
18.04
 41
0.688564
 42
50.0
 43
1.0
 44
1.0
 50
0.0
 51
0.0
 71
     0
 72
   100
 73
     1
 74
     1
 75
     0
 76
     0
 77
     0
 78
     0
281
     0
 65
     0
110
0.0
120
0.0
130
0.0
111
1.0
121
0.0
131
0.0
112
0.0
122
1.0
132
0.0
345
0
346
0
 79
     0
146
0.0
  0
ENDTAB
  0
TABLE
  2
LTYPE
  5
4
100
AcDbSymbolTable
 70
    15
  0
LTYPE
  5
11
100
AcDbSymbolTableRecord
100
AcDbLinetypeTableRecord
  2
ByBlock
 70
    64
  3

 72
    65
 73
     0
 40
0.0
  0
LTYPE
  5
12
100
AcDbSymbolTableRecord
100
AcDbLinetypeTableRecord
  2
ByLayer
 70
    64
  3

 72
    65
 73
     0
 40
0.0
  0
LTYPE
  5
13
100
AcDbSymbolTableRecord
100
AcDbLinetypeTableRecord
  2
Continuous
 70
    64
  3
Solid line
 72
    65
 73
     0
 40
0.0
  0
LTYPE
  5
25
100
AcDbSymbolTableRecord
100
AcDbLinetypeTableRecord
  2
CONTINUOUS
 70
     0
  3
Solid line
 72
    65
 73
     0
 40
0.0
  0
LTYPE
  5
26
100
AcDbSymbolTableRecord
100
AcDbLinetypeTableRecord
  2
BORDER
 70
    64
  3
__ __ . __ __ . __ __ . __ __ . __ __ . __ __ .
 72
    65
 73
     6
 40
1.75
 49
0.5
 74
     0
 49
-0.25
 74
     0
 49
0.5
 74
     0
 49
-0.25
 74
     0
 49
0.0
 74
     0
 49
-0.25
 74
     0
  0
LTYPE
  5
27
100
AcDbSymbolTableRecord
100
AcDbLinetypeTableRecord
  2
BORDER2
 70
    64
  3
__.__.__.__.__.__.__.__.__.__.__.__.__.__.__.__
 72
    65
 73
     6
 40
0.875
 49
0.25
 74
     0
 49
-0.125
 74
     0
 49
0.25
 74
     0
 49
-0.125
 74
     0
 49
0.0
 74
     0
 49
-0.125
 74
     0
  0
LTYPE
  5
28
100
AcDbSymbolTableRecord
100
AcDbLinetypeTableRecord
  2
CENTER
 70
    64
  3
____ _ ____ _ ____ _ ____ _ ____ _ ____ _ ____ 
 72
    65
 73
     4
 40
2.0
 49
1.25
 74
     0
 49
-0.25
 74
     0
 49
0.25
 74
     0
 49
-0.25
 74
     0
  0
LTYPE
  5
29
100
AcDbSymbolTableRecord
100
AcDbLinetypeTableRecord
  2
DASHDOT
 70
    64
  3
__ . __ . __ . __ . __ . __ . __ . __ . __ . __
 72
    65
 73
     4
 40
1.0
 49
0.5
 74
     0
 49
-0.25
 74
     0
 49
0.0
 74
     0
 49
-0.25
 74
     0
  0
LTYPE
  5
2A
100
AcDbSymbolTableRecord
100
AcDbLinetypeTableRecord
  2
DASHDOT2
 70
    64
  3
_._._._._._._._._._._._._._._._._._._._._._._._
 72
    65
 73
     4
 40
0.5
 49
0.25
 74
     0
 49
-0.125
 74
     0
 49
0.0
 74
     0
 49
-0.125
 74
     0
  0
LTYPE
  5
2B
100
AcDbSymbolTableRecord
100
AcDbLinetypeTableRecord
  2
DASHED
 70
    64
  3
__ __ __ __ __ __ __ __ __ __ __ __ __ __ __ __
 72
    65
 73
     2
 40
0.75
 49
0.5
 74
     0
 49
-0.25
 74
     0
  0
LTYPE
  5
2C
100
AcDbSymbolTableRecord
100
AcDbLinetypeTableRecord
  2
DIVIDE
 70
    64
  3
____ . . ____ . . ____ . . ____ . . ____ . . __
 72
    65
 73
     6
 40
1.25
 49
0.5
 74
     0
 49
-0.25
 74
     0
 49
0.0
 74
     0
 49
-0.25
 74
     0
 49
0.0
 74
     0
 49
-0.25
 74
     0
  0
LTYPE
  5
2D
100
AcDbSymbolTableRecord
100
AcDbLinetypeTableRecord
  2
DIVIDE2
 70
    64
  3
__..__..__..__..__..__..__..__..__..__..__..__.
 72
    65
 73
     6
 40
0.625
 49
0.25
 74
     0
 49
-0.125
 74
     0
 49
0.0
 74
     0
 49
-0.125
 74
     0
 49
0.0
 74
     0
 49
-0.125
 74
     0
  0
LTYPE
  5
2E
100
AcDbSymbolTableRecord
100
AcDbLinetypeTableRecord
  2
DOT
 70
    64
  3
. . . . . . . . . . . . . . . . . . . . . . . .
 72
    65
 73
     2
 40
0.25
 49
0.0
 74
     0
 49
-0.25
 74
     0
  0
LTYPE
  5
2F
100
AcDbSymbolTableRecord
100
AcDbLinetypeTableRecord
  2
HIDDEN
 70
    64
  3
__ __ __ __ __ __ __ __ __ __ __ __ __ __ __ __
 72
    65
 73
     2
 40
0.375
 49
0.25
 74
     0
 49
-0.125
 74
     0
  0
LTYPE
  5
30
100
AcDbSymbolTableRecord
100
AcDbLinetypeTableRecord
  2
PHANTOM
 70
    64
  3
______  __  __  ______  __  __  ______  __  __ 
 72
    65
 73
     6
 40
2.5
 49
1.25
 74
     0
 49
-0.25
 74
     0
 49
0.25
 74
     0
 49
-0.25
 74
     0
 49
0.25
 74
     0
 49
-0.25
 74
     0
  0
ENDTAB
  0
TABLE
  2
LAYER
  5
2
100
AcDbSymbolTable
 70
     3
  0
LAYER
  5
14
100
AcDbSymbolTableRecord
100
AcDbLayerTableRecord
  2
0
 70
     0
 62
     7
  6
Continuous
290
     1
370
    -3
390
1D
  0
LAYER
  5
31
100
AcDbSymbolTableRecord
100
AcDbLayerTableRecord
  2
0
 70
     0
 62
     7
  6
Continuous
290
     1
370
    -3
390
1F
  0
LAYER
  5
32
100
AcDbSymbolTableRecord
100
AcDbLayerTableRecord
  2
1
 70
     0
 62
     7
  6
Continuous
290
     1
370
    -3
390
1F
  0
ENDTAB
  0
TABLE
  2
STYLE
  5
3
100
AcDbSymbolTable
 70
     2
  0
STYLE
  5
17
100
AcDbSymbolTableRecord
100
AcDbTextStyleTableRecord
  2
Standard
 70
     0
 40
0.0
 41
1.0
 50
0.0
 71
     0
 42
0.0
  3
txt
  4

  0
STYLE
  5
24
100
AcDbSymbolTableRecord
100
AcDbTextStyleTableRecord
  2
BIGFONT
 70
    64
 40
3.0
 41
1.0
 50
0.0
 71
     0
 42
0.2
  3

  4
BIGFONT
  0
ENDTAB
  0
TABLE
  2
VIEW
  5
5
100
AcDbSymbolTable
 70
     0
  0
ENDTAB
  0
TABLE
  2
UCS
  5
6
100
AcDbSymbolTable
 70
     0
  0
ENDTAB
  0
TABLE
  2
APPID
  5
8
100
AcDbSymbolTable
 70
     1
  0
APPID
  5
16
100
AcDbSymbolTableRecord
100
AcDbRegAppTableRecord
  2
ACAD
 70
     0
  0
ENDTAB
  0
TABLE
  2
DIMSTYLE
  5
9
100
AcDbSymbolTable
 70
     1
100
AcDbDimStyleTable
 71
     0
  0
DIMSTYLE
105
18
100
AcDbSymbolTableRecord
100
AcDbDimStyleTableRecord
  2
Standard
 70
     0
  3

  4

 40
1.0
 41
0.18
 42
0.0625
 43
0.38
 44
0.18
 45
0.0
 46
0.0
 47
0.0
 48
0.0
 71
     0
 72
     0
 73
     1
 74
     1
 75
     0
 76
     0
 77
     0
 78
     0
 79
     0
140
0.18
141
0.09
142
0.0
143
25.4
144
1.0
145
0.0
146
1.0
147
0.09
148
0.0
170
     0
171
     2
172
     0
173
     0
174
     0
175
     0
176
     0
177
     0
178
     0
179
     0
271
     4
272
     4
273
     2
274
     2
275
     0
276
     0
277
     2
278
    46
279
     0
280
     0
281
     0
282
     0
283
     1
284
     0
285
     0
286
     0
288
     0
340
17
341
0
342
0
343
0
344
0
371
    -2
372
    -2
  0
ENDTAB
  0
TABLE
  2
BLOCK_RECORD
  5
1
100
AcDbSymbolTable
 70
     0
  0
BLOCK_RECORD
  5
A
100
AcDbSymbolTableRecord
100
AcDbBlockTableRecord
  2
*MODEL_SPACE
340
20
  0
BLOCK_RECORD
  5
B
100
AcDbSymbolTableRecord
100
AcDbBlockTableRecord
  2
*PAPER_SPACE
340
21
  0
ENDTAB
  0
ENDSEC
  0
SECTION
  2
BLOCKS
  0
BLOCK
  5
D
100
AcDbEntity
  8
0
100
AcDbBlockBegin
  2
*MODEL_SPACE
 70
     0
 10
0.0
 20
0.0
 30
0.0
  3
*MODEL_SPACE
  1

  0
ENDBLK
  5
E
100
AcDbEntity
  8
0
100
AcDbBlockEnd
  0
BLOCK
  5
F
100
AcDbEntity
 67
     1
  8
0
100
AcDbBlockBegin
  2
*PAPER_SPACE
 70
     0
 10
0.0
 20
0.0
 30
0.0
  3
*PAPER_SPACE
  1

  0
ENDBLK
  5
10
100
AcDbEntity
 67
     1
  8
0
100
AcDbBlockEnd
  0
ENDSEC
  0
SECTION
  2
ENTITIES
  0
TEXT
  5
34
100
AcDbEntity
  8
0
 62
     6
 48
0.0
100
AcDbText
 10
0.0
 20
22.0
 30
0.0
 40
2.0
  1
    SECTION NUMBER 0 AT    0.000 M
 72
     5
 11
78.333336
 21
22.0
 31
0.0
210
0.0
220
0.0
230
1.0
100
AcDbText
  0
TEXT
  5
35
100
AcDbEntity
  8
0
 62
     6
 48
0.0
100
AcDbText
 10
0.0
 20
19.0
 30
0.0
 40
2.0
  1
      1.7000  2.8481     1
 72
     5
 11
59.666668
 21
19.0
 31
0.0
210
0.0
220
0.0
230
1.0
100
AcDbText
  0
TEXT
  5
36
100
AcDbEntity
  8
0
 62
     6
 48
0.0
100
AcDbText
 10
0.0
 20
16.0
 30
0.0
 40
2.0
  1
      1.2259  2.0567     1
 72
     5
 11
59.666668
 21
16.0
 31
0.0
210
0.0
220
0.0
230
1.0
100
AcDbText
  0
TEXT
  5
37
100
AcDbEntity
  8
0
 62
     6
 48
0.0
100
AcDbText
 10
0.0
 20
13.0
 30
0.0
 40
2.0
  1
      0.4000  0.6612     2
 72
     5
 11
59.666668
 21
13.0
 31
0.0
210
0.0
220
0.0
230
1.0
100
AcDbText
  0
TEXT
  5
38
100
AcDbEntity
  8
0
 62
     6
 48
0.0
100
AcDbText
 10
0.0
 20
10.0
 30
0.0
 40
2.0
  1
      0.0000 -0.0000     3
 72
     5
 11
59.666668
 21
10.0
 31
0.0
210
0.0
220
0.0
230
1.0
100
AcDbText
  0
TEXT
  5
39
100
AcDbEntity
  8
0
 62
     6
 48
0.0
100
AcDbText
 10
0.0
 20
7.0
 30
0.0
 40
2.0
  1
    SECTION NUMBER 1 AT    0.000 M
 72
     5
 11
78.333336
 21
7.0
 31
0.0
210
0.0
220
0.0
230
1.0
100
AcDbText
  0
TEXT
  5
3A
100
AcDbEntity
  8
0
 62
     6
 48
0.0
100
AcDbText
 10
0.0
 20
4.0
 30
0.0
 40
2.0
  1
      1.4430  2.7888     1
 72
     5
 11
59.666668
 21
4.0
 31
0.0
210
0.0
220
0.0
230
1.0
100
AcDbText
  0
TEXT
  5
3B
100
AcDbEntity
  8
0
 62
     6
 48
0.0
100
AcDbText
 10
0.0
 20
1.0
 30
0.0
 40
2.0
  1
      0.9431  2.0000     1
 72
     5
 11
59.666668
 21
1.0
 31
0.0
210
0.0
220
0.0
230
1.0
100
AcDbText
  0
TEXT
  5
3C
100
AcDbEntity
  8
0
 62
     6
 48
0.0
100
AcDbText
 10
0.0
 20
-2.0
 30
0.0
 40
2.0
  1
      0.8779  1.9242     2
 72
     5
 11
59.666668
 21
-2.0
 31
0.0
210
0.0
220
0.0
230
1.0
100
AcDbText
  0
TEXT
  5
3D
100
AcDbEntity
  8
0
 62
     6
 48
0.0
100
AcDbText
 10
0.0
 20
-5.0
 30
0.0
 40
2.0
  1
      0.8153  1.8462     2
 72
     5
 11
59.666668
 21
-5.0
 31
0.0
210
0.0
220
0.0
230
1.0
100
AcDbText
  0
TEXT
  5
3E
100
AcDbEntity
  8
0
 62
     6
 48
0.0
100
AcDbText
 10
0.0
 20
-8.0
 30
0.0
 40
2.0
  1
      0.7553  1.7662     2
 72
     5
 11
59.666668
 21
-8.0
 31
0.0
210
0.0
220
0.0
230
1.0
100
AcDbText
  0
TEXT
  5
3F
100
AcDbEntity
  8
0
 62
     6
 48
0.0
100
AcDbText
 10
0.0
 20
-11.0
 30
0.0
 40
2.0
  1
      0.6978  1.6844     2
 72
     5
 11
59.666668
 21
-11.0
 31
0.0
210
0.0
220
0.0
230
1.0
100
AcDbText
  0
TEXT
  5
40
100
AcDbEntity
  8
0
 62
     6
 48
0.0
100
AcDbText
 10
0.0
 20
-14.0
 30
0.0
 40
2.0
  1
      0.6430  1.6007     2
 72
     5
 11
59.666668
 21
-14.0
 31
0.0
210
0.0
220
0.0
230
1.0
100
AcDbText
  0
TEXT
  5
41
100
AcDbEntity
  8
0
 62
     6
 48
0.0
100
AcDbText
 10
0.0
 20
-17.0
 30
0.0
 40
2.0
  1
      0.5908  1.5155     2
 72
     5
 11
59.666668
 21
-17.0
 31
0.0
210
0.0
220
0.0
230
1.0
100
AcDbText
  0
TEXT
  5
42
100
AcDbEntity
  8
0
 62
     6
 48
0.0
100
AcDbText
 10
0.0
 20
-20.0
 30
0.0
 40
2.0
  1
      0.5412  1.4287     2
 72
     5
 11
59.666668
 21
-20.0
 31
0.0
210
0.0
220
0.0
230
1.0
100
AcDbText
  0
TEXT
  5
43
100
AcDbEntity
  8
0
 62
     6
 48
0.0
100
AcDbText
 10
0.0
 20
-23.0
 30
0.0
 40
2.0
  1
      0.4941  1.3405     2
 72
     5
 11
59.666668
 21
-23.0
 31
0.0
210
0.0
220
0.0
230
1.0
100
AcDbText
  0
TEXT
  5
44
100
AcDbEntity
  8
0
 62
     6
 48
0.0
100
AcDbText
 10
0.0
 20
-26.0
 30
0.0
 40
2.0
  1
      0.4495  1.2510     2
 72
     5
 11
59.666668
 21
-26.0
 31
0.0
210
0.0
220
0.0
230
1.0
100
AcDbText
  0
TEXT
  5
45
100
AcDbEntity
  8
0
 62
     6
 48
0.0
100
AcDbText
 10
0.0
 20
-29.0
 30
0.0
 40
2.0
  1
      0.4073  1.1603     2
 72
     5
 11
59.666668
 21
-29.0
 31
0.0
210
0.0
220
0.0
230
1.0
100
AcDbText
  0
TEXT
  5
46
100
AcDbEntity
  8
0
 62
     6
 48
0.0
100
AcDbText
 10
0.0
 20
-32.0
 30
0.0
 40
2.0
  1
      0.3675  1.0685     2
 72
     5
 11
59.666668
 21
-32.0
 31
0.0
210
0.0
220
0.0
230
1.0
100
AcDbText
  0
TEXT
  5
47
100
AcDbEntity
  8
0
 62
     6
 48
0.0
100
AcDbText
 10
0.0
 20
-35.0
 30
0.0
 40
2.0
  1
      0.3301  0.9758     2
 72
     5
 11
59.666668
 21
-35.0
 31
0.0
210
0.0
220
0.0
230
1.0
100
AcDbText
  0
TEXT
  5
48
100
AcDbEntity
  8
0
 62
     6
 48
0.0
100
AcDbText
 10
0.0
 20
-38.0
 30
0.0
 40
2.0
  1
      0.2949  0.8822     2
 72
     5
 11
59.666668
 21
-38.0
 31
0.0
210
0.0
220
0.0
230
1.0
100
AcDbText
  0
TEXT
  5
49
100
AcDbEntity
  8
0
 62
     6
 48
0.0
100
AcDbText
 10
0.0
 20
-41.0
 30
0.0
 40
2.0
  1
      0.2620  0.7878     2
 72
     5
 11
59.666668
 21
-41.0
 31
0.0
210
0.0
220
0.0
230
1.0
100
AcDbText
  0
TEXT
  5
4A
100
AcDbEntity
  8
0
 62
     6
 48
0.0
100
AcDbText
 10
0.0
 20
-44.0
 30
0.0
 40
2.0
  1
      0.2312  0.6926     2
 72
     5
 11
59.666668
 21
-44.0
 31
0.0
210
0.0
220
0.0
230
1.0
100
AcDbText
  0
TEXT
  5
4B
100
AcDbEntity
  8
0
 62
     6
 48
0.0
100
AcDbText
 10
0.0
 20
-47.0
 30
0.0
 40
2.0
  1
      0.2127  0.6318     2
 72
     5
 11
59.666668
 21
-47.0
 31
0.0
210
0.0
220
0.0
230
1.0
100
AcDbText
  0
TEXT
  5
4C
100
AcDbEntity
  8
0
 62
     6
 48
0.0
100
AcDbText
 10
0.0
 20
-50.0
 30
0.0
 40
2.0
  1
      0.0000 -0.0000     3
 72
     5
 11
59.666668
 21
-50.0
 31
0.0
210
0.0
220
0.0
230
1.0
100
AcDbText
  0
TEXT
  5
4D
100
AcDbEntity
  8
0
 62
     6
 48
0.0
100
AcDbText
 10
0.0
 20
-53.0
 30
0.0
 40
2.0
  1
    SECTION NUMBER 2 AT    0.842 M
 72
     5
 11
78.333336
 21
-53.0
 31
0.0
210
0.0
220
0.0
230
1.0
100
AcDbText
  0
TEXT
  5
4E
100
AcDbEntity
  8
0
 62
     6
 48
0.0
100
AcDbText
 10
0.0
 20
-56.0
 30
0.0
 40
2.0
  1
      1.6436  2.7508     1
 72
     5
 11
59.666668
 21
-56.0
 31
0.0
210
0.0
220
0.0
230
1.0
100
AcDbText
  0
TEXT
  5
4F
100
AcDbEntity
  8
0
 62
     6
 48
0.0
100
AcDbText
 10
0.0
 20
-59.0
 30
0.0
 40
2.0
  1
      1.2261  1.9601     1
 72
     5
 11
59.666668
 21
-59.0
 31
0.0
210
0.0
220
0.0
230
1.0
100
AcDbText
  0
TEXT
  5
50
100
AcDbEntity
  8
0
 62
     6
 48
0.0
100
AcDbText
 10
0.0
 20
-62.0
 30
0.0
 40
2.0
  1
      1.1599  1.8852     2
 72
     5
 11
59.666668
 21
-62.0
 31
0.0
210
0.0
220
0.0
230
1.0
100
AcDbText
  0
TEXT
  5
51
100
AcDbEntity
  8
0
 62
     6
 48
0.0
100
AcDbText
 10
0.0
 20
-65.0
 30
0.0
 40
2.0
  1
      1.0974  1.8071     2
 72
     5
 11
59.666668
 21
-65.0
 31
0.0
210
0.0
220
0.0
230
1.0
100
AcDbText
  0
TEXT
  5
52
100
AcDbEntity
  8
0
 62
     6
 48
0.0
100
AcDbText
 10
0.0
 20
-68.0
 30
0.0
 40
2.0
  1
      1.0383  1.7265     2
 72
     5
 11
59.666668
 21
-68.0
 31
0.0
210
0.0
220
0.0
230
1.0
100
AcDbText
  0
TEXT
  5
53
100
AcDbEntity
  8
0
 62
     6
 48
0.0
100
AcDbText
 10
0.0
 20
-71.0
 30
0.0
 40
2.0
  1
      0.9820  1.6438     2
 72
     5
 11
59.666668
 21
-71.0
 31
0.0
210
0.0
220
0.0
230
1.0
100
AcDbText
  0
TEXT
  5
54
100
AcDbEntity
  8
0
 62
     6
 48
0.0
100
AcDbText
 10
0.0
 20
-74.0
 30
0.0
 40
2.0
  1
      0.9283  1.5594     2
 72
     5
 11
59.666668
 21
-74.0
 31
0.0
210
0.0
220
0.0
230
1.0
100
AcDbText
  0
TEXT
  5
55
100
AcDbEntity
  8
0
 62
     6
 48
0.0
100
AcDbText
 10
0.0
 20
-77.0
 30
0.0
 40
2.0
  1
      0.8770  1.4736     2
 72
     5
 11
59.666668
 21
-77.0
 31
0.0
210
0.0
220
0.0
230
1.0
100
AcDbText
  0
TEXT
  5
56
100
AcDbEntity
  8
0
 62
     6
 48
0.0
100
AcDbText
 10
0.0
 20
-80.0
 30
0.0
 40
2.0
  1
      0.8277  1.3866     2
 72
     5
 11
59.666668
 21
-80.0
 31
0.0
210
0.0
220
0.0
230
1.0
100
AcDbText
  0
TEXT
  5
57
100
AcDbEntity
  8
0
 62
     6
 48
0.0
100
AcDbText
 10
0.0
 20
-83.0
 30
0.0
 40
2.0
  1
      0.7802  1.2986     2
 72
     5
 11
59.666668
 21
-83.0
 31
0.0
210
0.0
220
0.0
230
1.0
100
AcDbText
  0
TEXT
  5
58
100
AcDbEntity
  8
0
 62
     6
 48
0.0
100
AcDbText
 10
0.0
 20
-86.0
 30
0.0
 40
2.0
  1
      0.7345  1.2097     2
 72
     5
 11
59.666668
 21
-86.0
 31
0.0
210
0.0
220
0.0
230
1.0
100
AcDbText
  0
TEXT
  5
59
100
AcDbEntity
  8
0
 62
     6
 48
0.0
100
AcDbText
 10
0.0
 20
-89.0
 30
0.0
 40
2.0
  1
      0.6902  1.1200     2
 72
     5
 11
59.666668
 21
-89.0
 31
0.0
210
0.0
220
0.0
230
1.0
100
AcDbText
  0
TEXT
  5
5A
100
AcDbEntity
  8
0
 62
     6
 48
0.0
100
AcDbText
 10
0.0
 20
-92.0
 30
0.0
 40
2.0
  1
      0.6474  1.0297     2
 72
     5
 11
59.666668
 21
-92.0
 31
0.0
210
0.0
220
0.0
230
1.0
100
AcDbText
  0
TEXT
  5
5B
100
AcDbEntity
  8
0
 62
     6
 48
0.0
100
AcDbText
 10
0.0
 20
-95.0
 30
0.0
 40
2.0
  1
      0.6059  0.9387     2
 72
     5
 11
59.666668
 21
-95.0
 31
0.0
210
0.0
220
0.0
230
1.0
100
AcDbText
  0
TEXT
  5
5C
100
AcDbEntity
  8
0
 62
     6
 48
0.0
100
AcDbText
 10
0.0
 20
-98.0
 30
0.0
 40
2.0
  1
      0.5655  0.8472     2
 72
     5
 11
59.666668
 21
-98.0
 31
0.0
210
0.0
220
0.0
230
1.0
100
AcDbText
  0
TEXT
  5
5D
100
AcDbEntity
  8
0
 62
     6
 48
0.0
100
AcDbText
 10
0.0
 20
-101.0
 30
0.0
 40
2.0
  1
      0.5262  0.7552     2
 72
     5
 11
59.666668
 21
-101.0
 31
0.0
210
0.0
220
0.0
230
1.0
100
AcDbText
  0
TEXT
  5
5E
100
AcDbEntity
  8
0
 62
     6
 48
0.0
100
AcDbText
 10
0.0
 20
-104.0
 30
0.0
 40
2.0
  1
      0.4880  0.6628     2
 72
     5
 11
59.666668
 21
-104.0
 31
0.0
210
0.0
220
0.0
230
1.0
100
AcDbText
  0
TEXT
  5
5F
100
AcDbEntity
  8
0
 62
     6
 48
0.0
100
AcDbText
 10
0.0
 20
-107.0
 30
0.0
 40
2.0
  1
      0.4507  0.5700     2
 72
     5
 11
59.666668
 21
-107.0
 31
0.0
210
0.0
220
0.0
230
1.0
100
AcDbText
  0
TEXT
  5
60
100
AcDbEntity
  8
0
 62
     6
 48
0.0
100
AcDbText
 10
0.0
 20
-110.0
 30
0.0
 40
2.0
  1
      0.4490  0.5657     2
 72
     5
 11
59.666668
 21
-110.0
 31
0.0
210
0.0
220
0.0
230
1.0
100
AcDbText
  0
TEXT
  5
61
100
AcDbEntity
  8
0
 62
     6
 48
0.0
100
AcDbText
 10
0.0
 20
-113.0
 30
0.0
 40
2.0
  1
      0.0000 -0.7787     3
 72
     5
 11
59.666668
 21
-113.0
 31
0.0
210
0.0
220
0.0
230
1.0
100
AcDbText
  0
TEXT
  5
62
100
AcDbEntity
  8
0
 62
     6
 48
0.0
100
AcDbText
 10
0.0
 20
-116.0
 30
0.0
 40
2.0
  1
    SECTION NUMBER 3 AT    1.684 M
 72
     5
 11
78.333336
 21
-116.0
 31
0.0
210
0.0
220
0.0
230
1.0
100
AcDbText
  0
TEXT
  5
63
100
AcDbEntity
  8
0
 62
     6
 48
0.0
100
AcDbText
 10
0.0
 20
-119.0
 30
0.0
 40
2.0
  1
      1.8184  2.7104     1
 72
     5
 11
59.666668
 21
-119.0
 31
0.0
210
0.0
220
0.0
230
1.0
100
AcDbText
  0
TEXT
  5
64
100
AcDbEntity
  8
0
 62
     6
 48
0.0
100
AcDbText
 10
0.0
 20
-122.0
 30
0.0
 40
2.0
  1
      1.4410  1.9203     1
 72
     5
 11
59.666668
 21
-122.0
 31
0.0
210
0.0
220
0.0
230
1.0
100
AcDbText
  0
TEXT
  5
65
100
AcDbEntity
  8
0
 62
     6
 48
0.0
100
AcDbText
 10
0.0
 20
-125.0
 30
0.0
 40
2.0
  1
      1.3737  1.8464     2
 72
     5
 11
59.666668
 21
-125.0
 31
0.0
210
0.0
220
0.0
230
1.0
100
AcDbText
  0
TEXT
  5
66
100
AcDbEntity
  8
0
 62
     6
 48
0.0
100
AcDbText
 10
0.0
 20
-128.0
 30
0.0
 40
2.0
  1
      1.3121  1.7676     2
 72
     5
 11
59.666668
 21
-128.0
 31
0.0
210
0.0
220
0.0
230
1.0
100
AcDbText
  0
TEXT
  5
67
100
AcDbEntity
  8
0
 62
     6
 48
0.0
100
AcDbText
 10
0.0
 20
-131.0
 30
0.0
 40
2.0
  1
      1.2546  1.6858     2
 72
     5
 11
59.666668
 21
-131.0
 31
0.0
210
0.0
220
0.0
230
1.0
100
AcDbText
  0
TEXT
  5
68
100
AcDbEntity
  8
0
 62
     6
 48
0.0
100
AcDbText
 10
0.0
 20
-134.0
 30
0.0
 40
2.0
  1
      1.2001  1.6020     2
 72
     5
 11
59.666668
 21
-134.0
 31
0.0
210
0.0
220
0.0
230
1.0
100
AcDbText
  0
TEXT
  5
69
100
AcDbEntity
  8
0
 62
     6
 48
0.0
100
AcDbText
 10
0.0
 20
-137.0
 30
0.0
 40
2.0
  1
      1.1479  1.5167     2
 72
     5
 11
59.666668
 21
-137.0
 31
0.0
210
0.0
220
0.0
230
1.0
100
AcDbText
  0
TEXT
  5
6A
100
AcDbEntity
  8
0
 62
     6
 48
0.0
100
AcDbText
 10
0.0
 20
-140.0
 30
0.0
 40
2.0
  1
      1.0977  1.4302     2
 72
     5
 11
59.666668
 21
-140.0
 31
0.0
210
0.0
220
0.0
230
1.0
100
AcDbText
  0
TEXT
  5
6B
100
AcDbEntity
  8
0
 62
     6
 48
0.0
100
AcDbText
 10
0.0
 20
-143.0
 30
0.0
 40
2.0
  1
      1.0490  1.3428     2
 72
     5
 11
59.666668
 21
-143.0
 31
0.0
210
0.0
220
0.0
230
1.0
100
AcDbText
  0
TEXT
  5
6C
100
AcDbEntity
  8
0
 62
     6
 48
0.0
100
AcDbText
 10
0.0
 20
-146.0
 30
0.0
 40
2.0
  1
      1.0017  1.2548     2
 72
     5
 11
59.666668
 21
-146.0
 31
0.0
210
0.0
220
0.0
230
1.0
100
AcDbText
  0
TEXT
  5
6D
100
AcDbEntity
  8
0
 62
     6
 48
0.0
100
AcDbText
 10
0.0
 20
-149.0
 30
0.0
 40
2.0
  1
      0.9555  1.1661     2
 72
     5
 11
59.666668
 21
-149.0
 31
0.0
210
0.0
220
0.0
230
1.0
100
AcDbText
  0
TEXT
  5
6E
100
AcDbEntity
  8
0
 62
     6
 48
0.0
100
AcDbText
 10
0.0
 20
-152.0
 30
0.0
 40
2.0
  1
      0.9103  1.0769     2
 72
     5
 11
59.666668
 21
-152.0
 31
0.0
210
0.0
220
0.0
230
1.0
100
AcDbText
  0
TEXT
  5
6F
100
AcDbEntity
  8
0
 62
     6
 48
0.0
100
AcDbText
 10
0.0
 20
-155.0
 30
0.0
 40
2.0
  1
      0.8660  0.9872     2
 72
     5
 11
59.666668
 21
-155.0
 31
0.0
210
0.0
220
0.0
230
1.0
100
AcDbText
  0
TEXT
  5
70
100
AcDbEntity
  8
0
 62
     6
 48
0.0
100
AcDbText
 10
0.0
 20
-158.0
 30
0.0
 40
2.0
  1
      0.8225  0.8972     2
 72
     5
 11
59.666668
 21
-158.0
 31
0.0
210
0.0
220
0.0
230
1.0
100
AcDbText
  0
TEXT
  5
71
100
AcDbEntity
  8
0
 62
     6
 48
0.0
100
AcDbText
 10
0.0
 20
-161.0
 30
0.0
 40
2.0
  1
      0.7796  0.8068     2
 72
     5
 11
59.666668
 21
-161.0
 31
0.0
210
0.0
220
0.0
230
1.0
100
AcDbText
  0
TEXT
  5
72
100
AcDbEntity
  8
0
 62
     6
 48
0.0
100
AcDbText
 10
0.0
 20
-164.0
 30
0.0
 40
2.0
  1
      0.7374  0.7162     2
 72
     5
 11
59.666668
 21
-164.0
 31
0.0
210
0.0
220
0.0
230
1.0
100
AcDbText
  0
TEXT
  5
73
100
AcDbEntity
  8
0
 62
     6
 48
0.0
100
AcDbText
 10
0.0
 20
-167.0
 30
0.0
 40
2.0
  1
      0.6958  0.6253     2
 72
     5
 11
59.666668
 21
-167.0
 31
0.0
210
0.0
220
0.0
230
1.0
100
AcDbText
  0
TEXT
  5
74
100
AcDbEntity
  8
0
 62
     6
 48
0.0
100
AcDbText
 10
0.0
 20
-170.0
 30
0.0
 40
2.0
  1
      0.6547  0.5341     2
 72
     5
 11
59.666668
 21
-170.0
 31
0.0
210
0.0
220
0.0
230
1.0
100
AcDbText
  0
TEXT
  5
75
100
AcDbEntity
  8
0
 62
     6
 48
0.0
100
AcDbText
 10
0.0
 20
-173.0
 30
0.0
 40
2.0
  1
      0.6357  0.4915     2
 72
     5
 11
59.666668
 21
-173.0
 31
0.0
210
0.0
220
0.0
230
1.0
100
AcDbText
  0
TEXT
  5
76
100
AcDbEntity
  8
0
 62
     6
 48
0.0
100
AcDbText
 10
0.0
 20
-176.0
 30
0.0
 40
2.0
  1
      0.0000 -1.1338     3
 72
     5
 11
59.666668
 21
-176.0
 31
0.0
210
0.0
220
0.0
230
1.0
100
AcDbText
  0
TEXT
  5
77
100
AcDbEntity
  8
0
 62
     6
 48
0.0
100
AcDbText
 10
0.0
 20
-179.0
 30
0.0
 40
2.0
  1
    SECTION NUMBER 4 AT    3.368 M
 72
     5
 11
78.333336
 21
-179.0
 31
0.0
210
0.0
220
0.0
230
1.0
100
AcDbText
  0
TEXT
  5
78
100
AcDbEntity
  8
0
 62
     6
 48
0.0
100
AcDbText
 10
0.0
 20
-182.0
 30
0.0
 40
2.0
  1
      2.1273  2.6359     1
 72
     5
 11
59.666668
 21
-182.0
 31
0.0
210
0.0
220
0.0
230
1.0
100
AcDbText
  0
TEXT
  5
79
100
AcDbEntity
  8
0
 62
     6
 48
0.0
100
AcDbText
 10
0.0
 20
-185.0
 30
0.0
 40
2.0
  1
      1.8015  1.8405     1
 72
     5
 11
59.666668
 21
-185.0
 31
0.0
210
0.0
220
0.0
230
1.0
100
AcDbText
  0
TEXT
  5
7A
100
AcDbEntity
  8
0
 62
     6
 48
0.0
100
AcDbText
 10
0.0
 20
-188.0
 30
0.0
 40
2.0
  1
      1.7317  1.7694     2
 72
     5
 11
59.666668
 21
-188.0
 31
0.0
210
0.0
220
0.0
230
1.0
100
AcDbText
  0
TEXT
  5
7B
100
AcDbEntity
  8
0
 62
     6
 48
0.0
100
AcDbText
 10
0.0
 20
-191.0
 30
0.0
 40
2.0
  1
      1.6727  1.6886     2
 72
     5
 11
59.666668
 21
-191.0
 31
0.0
210
0.0
220
0.0
230
1.0
100
AcDbText
  0
TEXT
  5
7C
100
AcDbEntity
  8
0
 62
     6
 48
0.0
100
AcDbText
 10
0.0
 20
-194.0
 30
0.0
 40
2.0
  1
      1.6181  1.6048     2
 72
     5
 11
59.666668
 21
-194.0
 31
0.0
210
0.0
220
0.0
230
1.0
100
AcDbText
  0
TEXT
  5
7D
100
AcDbEntity
  8
0
 62
     6
 48
0.0
100
AcDbText
 10
0.0
 20
-197.0
 30
0.0
 40
2.0
  1
      1.5661  1.5194     2
 72
     5
 11
59.666668
 21
-197.0
 31
0.0
210
0.0
220
0.0
230
1.0
100
AcDbText
  0
TEXT
  5
7E
100
AcDbEntity
  8
0
 62
     6
 48
0.0
100
AcDbText
 10
0.0
 20
-200.0
 30
0.0
 40
2.0
  1
      1.5158  1.4330     2
 72
     5
 11
59.666668
 21
-200.0
 31
0.0
210
0.0
220
0.0
230
1.0
100
AcDbText
  0
TEXT
  5
7F
100
AcDbEntity
  8
0
 62
     6
 48
0.0
100
AcDbText
 10
0.0
 20
-203.0
 30
0.0
 40
2.0
  1
      1.4667  1.3459     2
 72
     5
 11
59.666668
 21
-203.0
 31
0.0
210
0.0
220
0.0
230
1.0
100
AcDbText
  0
TEXT
  5
80
100
AcDbEntity
  8
0
 62
     6
 48
0.0
100
AcDbText
 10
0.0
 20
-206.0
 30
0.0
 40
2.0
  1
      1.4187  1.2582     2
 72
     5
 11
59.666668
 21
-206.0
 31
0.0
210
0.0
220
0.0
230
1.0
100
AcDbText
  0
TEXT
  5
81
100
AcDbEntity
  8
0
 62
     6
 48
0.0
100
AcDbText
 10
0.0
 20
-209.0
 30
0.0
 40
2.0
  1
      1.3713  1.1701     2
 72
     5
 11
59.666668
 21
-209.0
 31
0.0
210
0.0
220
0.0
230
1.0
100
AcDbText
  0
TEXT
  5
82
100
AcDbEntity
  8
0
 62
     6
 48
0.0
100
AcDbText
 10
0.0
 20
-212.0
 30
0.0
 40
2.0
  1
      1.3247  1.0817     2
 72
     5
 11
59.666668
 21
-212.0
 31
0.0
210
0.0
220
0.0
230
1.0
100
AcDbText
  0
TEXT
  5
83
100
AcDbEntity
  8
0
 62
     6
 48
0.0
100
AcDbText
 10
0.0
 20
-215.0
 30
0.0
 40
2.0
  1
      1.2786  0.9929     2
 72
     5
 11
59.666668
 21
-215.0
 31
0.0
210
0.0
220
0.0
230
1.0
100
AcDbText
  0
TEXT
  5
84
100
AcDbEntity
  8
0
 62
     6
 48
0.0
100
AcDbText
 10
0.0
 20
-218.0
 30
0.0
 40
2.0
  1
      1.2329  0.9039     2
 72
     5
 11
59.666668
 21
-218.0
 31
0.0
210
0.0
220
0.0
230
1.0
100
AcDbText
  0
TEXT
  5
85
100
AcDbEntity
  8
0
 62
     6
 48
0.0
100
AcDbText
 10
0.0
 20
-221.0
 30
0.0
 40
2.0
  1
      1.1877  0.8148     2
 72
     5
 11
59.666668
 21
-221.0
 31
0.0
210
0.0
220
0.0
230
1.0
100
AcDbText
  0
TEXT
  5
86
100
AcDbEntity
  8
0
 62
     6
 48
0.0
100
AcDbText
 10
0.0
 20
-224.0
 30
0.0
 40
2.0
  1
      1.1428  0.7254     2
 72
     5
 11
59.666668
 21
-224.0
 31
0.0
210
0.0
220
0.0
230
1.0
100
AcDbText
  0
TEXT
  5
87
100
AcDbEntity
  8
0
 62
     6
 48
0.0
100
AcDbText
 10
0.0
 20
-227.0
 30
0.0
 40
2.0
  1
      1.0982  0.6359     2
 72
     5
 11
59.666668
 21
-227.0
 31
0.0
210
0.0
220
0.0
230
1.0
100
AcDbText
  0
TEXT
  5
88
100
AcDbEntity
  8
0
 62
     6
 48
0.0
100
AcDbText
 10
0.0
 20
-230.0
 30
0.0
 40
2.0
  1
      1.0539  0.5462     2
 72
     5
 11
59.666668
 21
-230.0
 31
0.0
210
0.0
220
0.0
230
1.0
100
AcDbText
  0
TEXT
  5
89
100
AcDbEntity
  8
0
 62
     6
 48
0.0
100
AcDbText
 10
0.0
 20
-233.0
 30
0.0
 40
2.0
  1
      1.0099  0.4564     2
 72
     5
 11
59.666668
 21
-233.0
 31
0.0
210
0.0
220
0.0
230
1.0
100
AcDbText
  0
TEXT
  5
8A
100
AcDbEntity
  8
0
 62
     6
 48
0.0
100
AcDbText
 10
0.0
 20
-236.0
 30
0.0
 40
2.0
  1
      0.9661  0.3665     2
 72
     5
 11
59.666668
 21
-236.0
 31
0.0
210
0.0
220
0.0
230
1.0
100
AcDbText
  0
TEXT
  5
8B
100
AcDbEntity
  8
0
 62
     6
 48
0.0
100
AcDbText
 10
0.0
 20
-239.0
 30
0.0
 40
2.0
  1
      0.9570  0.3477     2
 72
     5
 11
59.666668
 21
-239.0
 31
0.0
210
0.0
220
0.0
230
1.0
100
AcDbText
  0
TEXT
  5
8C
100
AcDbEntity
  8
0
 62
     6
 48
0.0
100
AcDbText
 10
0.0
 20
-242.0
 30
0.0
 40
2.0
  1
      0.0000 -1.3279     3
 72
     5
 11
59.666668
 21
-242.0
 31
0.0
210
0.0
220
0.0
230
1.0
100
AcDbText
  0
TEXT
  5
8D
100
AcDbEntity
  8
0
 62
     6
 48
0.0
100
AcDbText
 10
0.0
 20
-245.0
 30
0.0
 40
2.0
  1
    SECTION NUMBER 5 AT    5.053 M
 72
     5
 11
78.333336
 21
-245.0
 31
0.0
210
0.0
220
0.0
230
1.0
100
AcDbText
  0
TEXT
  5
8E
100
AcDbEntity
  8
0
 62
     6
 48
0.0
100
AcDbText
 10
0.0
 20
-248.0
 30
0.0
 40
2.0
  1
      2.3559  2.5655     1
 72
     5
 11
59.666668
 21
-248.0
 31
0.0
210
0.0
220
0.0
230
1.0
100
AcDbText
  0
TEXT
  5
8F
100
AcDbEntity
  8
0
 62
     6
 48
0.0
100
AcDbText
 10
0.0
 20
-251.0
 30
0.0
 40
2.0
  1
      2.1175  1.7595     1
 72
     5
 11
59.666668
 21
-251.0
 31
0.0
210
0.0
220
0.0
230
1.0
100
AcDbText
  0
TEXT
  5
90
100
AcDbEntity
  8
0
 62
     6
 48
0.0
100
AcDbText
 10
0.0
 20
-254.0
 30
0.0
 40
2.0
  1
      2.0563  1.6811     2
 72
     5
 11
59.666668
 21
-254.0
 31
0.0
210
0.0
220
0.0
230
1.0
100
AcDbText
  0
TEXT
  5
91
100
AcDbEntity
  8
0
 62
     6
 48
0.0
100
AcDbText
 10
0.0
 20
-257.0
 30
0.0
 40
2.0
  1
      2.0035  1.5962     2
 72
     5
 11
59.666668
 21
-257.0
 31
0.0
210
0.0
220
0.0
230
1.0
100
AcDbText
  0
TEXT
  5
92
100
AcDbEntity
  8
0
 62
     6
 48
0.0
100
AcDbText
 10
0.0
 20
-260.0
 30
0.0
 40
2.0
  1
      1.9526  1.5101     2
 72
     5
 11
59.666668
 21
-260.0
 31
0.0
210
0.0
220
0.0
230
1.0
100
AcDbText
  0
TEXT
  5
93
100
AcDbEntity
  8
0
 62
     6
 48
0.0
100
AcDbText
 10
0.0
 20
-263.0
 30
0.0
 40
2.0
  1
      1.9028  1.4234     2
 72
     5
 11
59.666668
 21
-263.0
 31
0.0
210
0.0
220
0.0
230
1.0
100
AcDbText
  0
TEXT
  5
94
100
AcDbEntity
  8
0
 62
     6
 48
0.0
100
AcDbText
 10
0.0
 20
-266.0
 30
0.0
 40
2.0
  1
      1.8536  1.3363     2
 72
     5
 11
59.666668
 21
-266.0
 31
0.0
210
0.0
220
0.0
230
1.0
100
AcDbText
  0
TEXT
  5
95
100
AcDbEntity
  8
0
 62
     6
 48
0.0
100
AcDbText
 10
0.0
 20
-269.0
 30
0.0
 40
2.0
  1
      1.8049  1.2490     2
 72
     5
 11
59.666668
 21
-269.0
 31
0.0
210
0.0
220
0.0
230
1.0
100
AcDbText
  0
TEXT
  5
96
100
AcDbEntity
  8
0
 62
     6
 48
0.0
100
AcDbText
 10
0.0
 20
-272.0
 30
0.0
 40
2.0
  1
      1.7565  1.1615     2
 72
     5
 11
59.666668
 21
-272.0
 31
0.0
210
0.0
220
0.0
230
1.0
100
AcDbText
  0
TEXT
  5
97
100
AcDbEntity
  8
0
 62
     6
 48
0.0
100
AcDbText
 10
0.0
 20
-275.0
 30
0.0
 40
2.0
  1
      1.7085  1.0738     2
 72
     5
 11
59.666668
 21
-275.0
 31
0.0
210
0.0
220
0.0
230
1.0
100
AcDbText
  0
TEXT
  5
98
100
AcDbEntity
  8
0
 62
     6
 48
0.0
100
AcDbText
 10
0.0
 20
-278.0
 30
0.0
 40
2.0
  1
      1.6606  0.9860     2
 72
     5
 11
59.666668
 21
-278.0
 31
0.0
210
0.0
220
0.0
230
1.0
100
AcDbText
  0
TEXT
  5
99
100
AcDbEntity
  8
0
 62
     6
 48
0.0
100
AcDbText
 10
0.0
 20
-281.0
 30
0.0
 40
2.0
  1
      1.6130  0.8980     2
 72
     5
 11
59.666668
 21
-281.0
 31
0.0
210
0.0
220
0.0
230
1.0
100
AcDbText
  0
TEXT
  5
9A
100
AcDbEntity
  8
0
 62
     6
 48
0.0
100
AcDbText
 10
0.0
 20
-284.0
 30
0.0
 40
2.0
  1
      1.5655  0.8100     2
 72
     5
 11
59.666668
 21
-284.0
 31
0.0
210
0.0
220
0.0
230
1.0
100
AcDbText
  0
TEXT
  5
9B
100
AcDbEntity
  8
0
 62
     6
 48
0.0
100
AcDbText
 10
0.0
 20
-287.0
 30
0.0
 40
2.0
  1
      1.5182  0.7220     2
 72
     5
 11
59.666668
 21
-287.0
 31
0.0
210
0.0
220
0.0
230
1.0
100
AcDbText
  0
TEXT
  5
9C
100
AcDbEntity
  8
0
 62
     6
 48
0.0
100
AcDbText
 10
0.0
 20
-290.0
 30
0.0
 40
2.0
  1
      1.4709  0.6338     2
 72
     5
 11
59.666668
 21
-290.0
 31
0.0
210
0.0
220
0.0
230
1.0
100
AcDbText
  0
TEXT
  5
9D
100
AcDbEntity
  8
0
 62
     6
 48
0.0
100
AcDbText
 10
0.0
 20
-293.0
 30
0.0
 40
2.0
  1
      1.4238  0.5456     2
 72
     5
 11
59.666668
 21
-293.0
 31
0.0
210
0.0
220
0.0
230
1.0
100
AcDbText
  0
TEXT
  5
9E
100
AcDbEntity
  8
0
 62
     6
 48
0.0
100
AcDbText
 10
0.0
 20
-296.0
 30
0.0
 40
2.0
  1
      1.3768  0.4573     2
 72
     5
 11
59.666668
 21
-296.0
 31
0.0
210
0.0
220
0.0
230
1.0
100
AcDbText
  0
TEXT
  5
9F
100
AcDbEntity
  8
0
 62
     6
 48
0.0
100
AcDbText
 10
0.0
 20
-299.0
 30
0.0
 40
2.0
  1
      1.3299  0.3690     2
 72
     5
 11
59.666668
 21
-299.0
 31
0.0
210
0.0
220
0.0
230
1.0
100
AcDbText
  0
TEXT
  5
A0
100
AcDbEntity
  8
0
 62
     6
 48
0.0
100
AcDbText
 10
0.0
 20
-302.0
 30
0.0
 40
2.0
  1
      1.2831  0.2807     2
 72
     5
 11
59.666668
 21
-302.0
 31
0.0
210
0.0
220
0.0
230
1.0
100
AcDbText
  0
TEXT
  5
A1
100
AcDbEntity
  8
0
 62
     6
 48
0.0
100
AcDbText
 10
0.0
 20
-305.0
 30
0.0
 40
2.0
  1
      1.2429  0.2047     2
 72
     5
 11
59.666668
 21
-305.0
 31
0.0
210
0.0
220
0.0
230
1.0
100
AcDbText
  0
TEXT
  5
A2
100
AcDbEntity
  8
0
 62
     6
 48
0.0
100
AcDbText
 10
0.0
 20
-308.0
 30
0.0
 40
2.0
  1
      0.0000 -1.3303     3
 72
     5
 11
59.666668
 21
-308.0
 31
0.0
210
0.0
220
0.0
230
1.0
100
AcDbText
  0
TEXT
  5
A3
100
AcDbEntity
  8
0
 62
     6
 48
0.0
100
AcDbText
 10
0.0
 20
-311.0
 30
0.0
 40
2.0
  1
    SECTION NUMBER 6 AT    6.737 M
 72
     5
 11
78.333336
 21
-311.0
 31
0.0
210
0.0
220
0.0
230
1.0
100
AcDbText
  0
TEXT
  5
A4
100
AcDbEntity
  8
0
 62
     6
 48
0.0
100
AcDbText
 10
0.0
 20
-314.0
 30
0.0
 40
2.0
  1
      2.5318  2.4871     1
 72
     5
 11
59.666668
 21
-314.0
 31
0.0
210
0.0
220
0.0
230
1.0
100
AcDbText
  0
TEXT
  5
A5
100
AcDbEntity
  8
0
 62
     6
 48
0.0
100
AcDbText
 10
0.0
 20
-317.0
 30
0.0
 40
2.0
  1
      2.3766  1.6731     1
 72
     5
 11
59.666668
 21
-317.0
 31
0.0
210
0.0
220
0.0
230
1.0
100
AcDbText
  0
TEXT
  5
A6
100
AcDbEntity
  8
0
 62
     6
 48
0.0
100
AcDbText
 10
0.0
 20
-320.0
 30
0.0
 40
2.0
  1
      1.5124  0.0773     2
 72
     5
 11
59.666668
 21
-320.0
 31
0.0
210
0.0
220
0.0
230
1.0
100
AcDbText
  0
TEXT
  5
A7
100
AcDbEntity
  8
0
 62
     6
 48
0.0
100
AcDbText
 10
0.0
 20
-323.0
 30
0.0
 40
2.0
  1
      0.0000 -1.3073     3
 72
     5
 11
59.666668
 21
-323.0
 31
0.0
210
0.0
220
0.0
230
1.0
100
AcDbText
  0
TEXT
  5
A8
100
AcDbEntity
  8
0
 62
     6
 48
0.0
100
AcDbText
 10
0.0
 20
-326.0
 30
0.0
 40
2.0
  1
    SECTION NUMBER 7 AT    8.421 M
 72
     5
 11
78.333336
 21
-326.0
 31
0.0
210
0.0
220
0.0
230
1.0
100
AcDbText
  0
TEXT
  5
A9
100
AcDbEntity
  8
0
 62
     6
 48
0.0
100
AcDbText
 10
0.0
 20
-329.0
 30
0.0
 40
2.0
  1
      2.6902  2.4120     1
 72
     5
 11
59.666668
 21
-329.0
 31
0.0
210
0.0
220
0.0
230
1.0
100
AcDbText
  0
TEXT
  5
AA
100
AcDbEntity
  8
0
 62
     6
 48
0.0
100
AcDbText
 10
0.0
 20
-332.0
 30
0.0
 40
2.0
  1
      2.5760  1.5947     1
 72
     5
 11
59.666668
 21
-332.0
 31
0.0
210
0.0
220
0.0
230
1.0
100
AcDbText
  0
TEXT
  5
AB
100
AcDbEntity
  8
0
 62
     6
 48
0.0
100
AcDbText
 10
0.0
 20
-335.0
 30
0.0
 40
2.0
  1
      1.7525 -0.0480     2
 72
     5
 11
59.666668
 21
-335.0
 31
0.0
210
0.0
220
0.0
230
1.0
100
AcDbText
  0
TEXT
  5
AC
100
AcDbEntity
  8
0
 62
     6
 48
0.0
100
AcDbText
 10
0.0
 20
-338.0
 30
0.0
 40
2.0
  1
      0.0000 -1.2806     3
 72
     5
 11
59.666668
 21
-338.0
 31
0.0
210
0.0
220
0.0
230
1.0
100
AcDbText
  0
TEXT
  5
AD
100
AcDbEntity
  8
0
 62
     6
 48
0.0
100
AcDbText
 10
0.0
 20
-341.0
 30
0.0
 40
2.0
  1
    SECTION NUMBER 8 AT   10.105 M
 72
     5
 11
78.333336
 21
-341.0
 31
0.0
210
0.0
220
0.0
230
1.0
100
AcDbText
  0
TEXT
  5
AE
100
AcDbEntity
  8
0
 62
     6
 48
0.0
100
AcDbText
 10
0.0
 20
-344.0
 30
0.0
 40
2.0
  1
      2.8071  2.3396     1
 72
     5
 11
59.666668
 21
-344.0
 31
0.0
210
0.0
220
0.0
230
1.0
100
AcDbText
  0
TEXT
  5
AF
100
AcDbEntity
  8
0
 62
     6
 48
0.0
100
AcDbText
 10
0.0
 20
-347.0
 30
0.0
 40
2.0
  1
      2.7210  1.5057     1
 72
     5
 11
59.666668
 21
-347.0
 31
0.0
210
0.0
220
0.0
230
1.0
100
AcDbText
  0
TEXT
  5
B0
100
AcDbEntity
  8
0
 62
     6
 48
0.0
100
AcDbText
 10
0.0
 20
-350.0
 30
0.0
 40
2.0
  1
      1.9563 -0.1580     2
 72
     5
 11
59.666668
 21
-350.0
 31
0.0
210
0.0
220
0.0
230
1.0
100
AcDbText
  0
TEXT
  5
B1
100
AcDbEntity
  8
0
 62
     6
 48
0.0
100
AcDbText
 10
0.0
 20
-353.0
 30
0.0
 40
2.0
  1
      0.0000 -1.2448     3
 72
     5
 11
59.666668
 21
-353.0
 31
0.0
210
0.0
220
0.0
230
1.0
100
AcDbText
  0
TEXT
  5
B2
100
AcDbEntity
  8
0
 62
     6
 48
0.0
100
AcDbText
 10
0.0
 20
-356.0
 30
0.0
 40
2.0
  1
    SECTION NUMBER 9 AT   11.790 M
 72
     5
 11
78.333336
 21
-356.0
 31
0.0
210
0.0
220
0.0
230
1.0
100
AcDbText
  0
TEXT
  5
B3
100
AcDbEntity
  8
0
 62
     6
 48
0.0
100
AcDbText
 10
0.0
 20
-359.0
 30
0.0
 40
2.0
  1
      2.8865  2.2532     1
 72
     5
 11
59.666668
 21
-359.0
 31
0.0
210
0.0
220
0.0
230
1.0
100
AcDbText
  0
TEXT
  5
B4
100
AcDbEntity
  8
0
 62
     6
 48
0.0
100
AcDbText
 10
0.0
 20
-362.0
 30
0.0
 40
2.0
  1
      2.8368  1.4167     1
 72
     5
 11
59.666668
 21
-362.0
 31
0.0
210
0.0
220
0.0
230
1.0
100
AcDbText
  0
TEXT
  5
B5
100
AcDbEntity
  8
0
 62
     6
 48
0.0
100
AcDbText
 10
0.0
 20
-365.0
 30
0.0
 40
2.0
  1
      2.1307 -0.2642     2
 72
     5
 11
59.666668
 21
-365.0
 31
0.0
210
0.0
220
0.0
230
1.0
100
AcDbText
  0
TEXT
  5
B6
100
AcDbEntity
  8
0
 62
     6
 48
0.0
100
AcDbText
 10
0.0
 20
-368.0
 30
0.0
 40
2.0
  1
      0.0000 -1.2259     3
 72
     5
 11
59.666668
 21
-368.0
 31
0.0
210
0.0
220
0.0
230
1.0
100
AcDbText
  0
TEXT
  5
B7
100
AcDbEntity
  8
0
 62
     6
 48
0.0
100
AcDbText
 10
0.0
 20
-371.0
 30
0.0
 40
2.0
  1
    SECTION NUMBER 10 AT   13.474 M
 72
     5
 11
80.666672
 21
-371.0
 31
0.0
210
0.0
220
0.0
230
1.0
100
AcDbText
  0
TEXT
  5
B8
100
AcDbEntity
  8
0
 62
     6
 48
0.0
100
AcDbText
 10
0.0
 20
-374.0
 30
0.0
 40
2.0
  1
      2.8936  2.1616     1
 72
     5
 11
59.666668
 21
-374.0
 31
0.0
210
0.0
220
0.0
230
1.0
100
AcDbText
  0
TEXT
  5
B9
100
AcDbEntity
  8
0
 62
     6
 48
0.0
100
AcDbText
 10
0.0
 20
-377.0
 30
0.0
 40
2.0
  1
      2.8936  1.3330     1
 72
     5
 11
59.666668
 21
-377.0
 31
0.0
210
0.0
220
0.0
230
1.0
100
AcDbText
  0
TEXT
  5
BA
100
AcDbEntity
  8
0
 62
     6
 48
0.0
100
AcDbText
 10
0.0
 20
-380.0
 30
0.0
 40
2.0
  1
      2.2847 -0.3554     2
 72
     5
 11
59.666668
 21
-380.0
 31
0.0
210
0.0
220
0.0
230
1.0
100
AcDbText
  0
TEXT
  5
BB
100
AcDbEntity
  8
0
 62
     6
 48
0.0
100
AcDbText
 10
0.0
 20
-383.0
 30
0.0
 40
2.0
  1
      0.0000 -1.2076     3
 72
     5
 11
59.666668
 21
-383.0
 31
0.0
210
0.0
220
0.0
230
1.0
100
AcDbText
  0
TEXT
  5
BC
100
AcDbEntity
  8
0
 62
     6
 48
0.0
100
AcDbText
 10
0.0
 20
-386.0
 30
0.0
 40
2.0
  1
    SECTION NUMBER 11 AT   15.158 M
 72
     5
 11
80.666672
 21
-386.0
 31
0.0
210
0.0
220
0.0
230
1.0
100
AcDbText
  0
TEXT
  5
BD
100
AcDbEntity
  8
0
 62
     6
 48
0.0
100
AcDbText
 10
0.0
 20
-389.0
 30
0.0
 40
2.0
  1
      2.9000  2.0593     1
 72
     5
 11
59.666668
 21
-389.0
 31
0.0
210
0.0
220
0.0
230
1.0
100
AcDbText
  0
TEXT
  5
BE
100
AcDbEntity
  8
0
 62
     6
 48
0.0
100
AcDbText
 10
0.0
 20
-392.0
 30
0.0
 40
2.0
  1
      2.9000  1.2440     1
 72
     5
 11
59.666668
 21
-392.0
 31
0.0
210
0.0
220
0.0
230
1.0
100
AcDbText
  0
TEXT
  5
BF
100
AcDbEntity
  8
0
 62
     6
 48
0.0
100
AcDbText
 10
0.0
 20
-395.0
 30
0.0
 40
2.0
  1
      2.3836 -0.4299     2
 72
     5
 11
59.666668
 21
-395.0
 31
0.0
210
0.0
220
0.0
230
1.0
100
AcDbText
  0
TEXT
  5
C0
100
AcDbEntity
  8
0
 62
     6
 48
0.0
100
AcDbText
 10
0.0
 20
-398.0
 30
0.0
 40
2.0
  1
      0.0000 -1.1948     3
 72
     5
 11
59.666668
 21
-398.0
 31
0.0
210
0.0
220
0.0
230
1.0
100
AcDbText
  0
TEXT
  5
C1
100
AcDbEntity
  8
0
 62
     6
 48
0.0
100
AcDbText
 10
0.0
 20
-401.0
 30
0.0
 40
2.0
  1
    SECTION NUMBER 12 AT   16.842 M
 72
     5
 11
80.666672
 21
-401.0
 31
0.0
210
0.0
220
0.0
230
1.0
100
AcDbText
  0
TEXT
  5
C2
100
AcDbEntity
  8
0
 62
     6
 48
0.0
100
AcDbText
 10
0.0
 20
-404.0
 30
0.0
 40
2.0
  1
      2.8858  1.9570     1
 72
     5
 11
59.666668
 21
-404.0
 31
0.0
210
0.0
220
0.0
230
1.0
100
AcDbText
  0
TEXT
  5
C3
100
AcDbEntity
  8
0
 62
     6
 48
0.0
100
AcDbText
 10
0.0
 20
-407.0
 30
0.0
 40
2.0
  1
      2.8858  1.1390     1
 72
     5
 11
59.666668
 21
-407.0
 31
0.0
210
0.0
220
0.0
230
1.0
100
AcDbText
  0
TEXT
  5
C4
100
AcDbEntity
  8
0
 62
     6
 48
0.0
100
AcDbText
 10
0.0
 20
-410.0
 30
0.0
 40
2.0
  1
      2.4196 -0.4874     2
 72
     5
 11
59.666668
 21
-410.0
 31
0.0
210
0.0
220
0.0
230
1.0
100
AcDbText
  0
TEXT
  5
C5
100
AcDbEntity
  8
0
 62
     6
 48
0.0
100
AcDbText
 10
0.0
 20
-413.0
 30
0.0
 40
2.0
  1
      0.0000 -1.1730     3
 72
     5
 11
59.666668
 21
-413.0
 31
0.0
210
0.0
220
0.0
230
1.0
100
AcDbText
  0
TEXT
  5
C6
100
AcDbEntity
  8
0
 62
     6
 48
0.0
100
AcDbText
 10
0.0
 20
-416.0
 30
0.0
 40
2.0
  1
    SECTION NUMBER 13 AT   18.526 M
 72
     5
 11
80.666672
 21
-416.0
 31
0.0
210
0.0
220
0.0
230
1.0
100
AcDbText
  0
TEXT
  5
C7
100
AcDbEntity
  8
0
 62
     6
 48
0.0
100
AcDbText
 10
0.0
 20
-419.0
 30
0.0
 40
2.0
  1
      2.8603  1.8573     1
 72
     5
 11
59.666668
 21
-419.0
 31
0.0
210
0.0
220
0.0
230
1.0
100
AcDbText
  0
TEXT
  5
C8
100
AcDbEntity
  8
0
 62
     6
 48
0.0
100
AcDbText
 10
0.0
 20
-422.0
 30
0.0
 40
2.0
  1
      2.8603  1.0287     1
 72
     5
 11
59.666668
 21
-422.0
 31
0.0
210
0.0
220
0.0
230
1.0
100
AcDbText
  0
TEXT
  5
C9
100
AcDbEntity
  8
0
 62
     6
 48
0.0
100
AcDbText
 10
0.0
 20
-425.0
 30
0.0
 40
2.0
  1
      2.4171 -0.5296     2
 72
     5
 11
59.666668
 21
-425.0
 31
0.0
210
0.0
220
0.0
230
1.0
100
AcDbText
  0
TEXT
  5
CA
100
AcDbEntity
  8
0
 62
     6
 48
0.0
100
AcDbText
 10
0.0
 20
-428.0
 30
0.0
 40
2.0
  1
      0.0000 -1.1457     3
 72
     5
 11
59.666668
 21
-428.0
 31
0.0
210
0.0
220
0.0
230
1.0
100
AcDbText
  0
TEXT
  5
CB
100
AcDbEntity
  8
0
 62
     6
 48
0.0
100
AcDbText
 10
0.0
 20
-431.0
 30
0.0
 40
2.0
  1
    SECTION NUMBER 14 AT   20.211 M
 72
     5
 11
80.666672
 21
-431.0
 31
0.0
210
0.0
220
0.0
230
1.0
100
AcDbText
  0
TEXT
  5
CC
100
AcDbEntity
  8
0
 62
     6
 48
0.0
100
AcDbText
 10
0.0
 20
-434.0
 30
0.0
 40
2.0
  1
      2.8202  1.7683     1
 72
     5
 11
59.666668
 21
-434.0
 31
0.0
210
0.0
220
0.0
230
1.0
100
AcDbText
  0
TEXT
  5
CD
100
AcDbEntity
  8
0
 62
     6
 48
0.0
100
AcDbText
 10
0.0
 20
-437.0
 30
0.0
 40
2.0
  1
      2.8202  0.9397     1
 72
     5
 11
59.666668
 21
-437.0
 31
0.0
210
0.0
220
0.0
230
1.0
100
AcDbText
  0
TEXT
  5
CE
100
AcDbEntity
  8
0
 62
     6
 48
0.0
100
AcDbText
 10
0.0
 20
-440.0
 30
0.0
 40
2.0
  1
      2.4118 -0.5658     2
 72
     5
 11
59.666668
 21
-440.0
 31
0.0
210
0.0
220
0.0
230
1.0
100
AcDbText
  0
TEXT
  5
CF
100
AcDbEntity
  8
0
 62
     6
 48
0.0
100
AcDbText
 10
0.0
 20
-443.0
 30
0.0
 40
2.0
  1
      0.0000 -1.1182     3
 72
     5
 11
59.666668
 21
-443.0
 31
0.0
210
0.0
220
0.0
230
1.0
100
AcDbText
  0
TEXT
  5
D0
100
AcDbEntity
  8
0
 62
     6
 48
0.0
100
AcDbText
 10
0.0
 20
-446.0
 30
0.0
 40
2.0
  1
    SECTION NUMBER 15 AT   21.895 M
 72
     5
 11
80.666672
 21
-446.0
 31
0.0
210
0.0
220
0.0
230
1.0
100
AcDbText
  0
TEXT
  5
D1
100
AcDbEntity
  8
0
 62
     6
 48
0.0
100
AcDbText
 10
0.0
 20
-449.0
 30
0.0
 40
2.0
  1
      2.7924  1.6899     1
 72
     5
 11
59.666668
 21
-449.0
 31
0.0
210
0.0
220
0.0
230
1.0
100
AcDbText
  0
TEXT
  5
D2
100
AcDbEntity
  8
0
 62
     6
 48
0.0
100
AcDbText
 10
0.0
 20
-452.0
 30
0.0
 40
2.0
  1
      2.7924  0.9038     1
 72
     5
 11
59.666668
 21
-452.0
 31
0.0
210
0.0
220
0.0
230
1.0
100
AcDbText
  0
TEXT
  5
D3
100
AcDbEntity
  8
0
 62
     6
 48
0.0
100
AcDbText
 10
0.0
 20
-455.0
 30
0.0
 40
2.0
  1
      2.3731 -0.5912     2
 72
     5
 11
59.666668
 21
-455.0
 31
0.0
210
0.0
220
0.0
230
1.0
100
AcDbText
  0
TEXT
  5
D4
100
AcDbEntity
  8
0
 62
     6
 48
0.0
100
AcDbText
 10
0.0
 20
-458.0
 30
0.0
 40
2.0
  1
      0.0000 -1.0851     3
 72
     5
 11
59.666668
 21
-458.0
 31
0.0
210
0.0
220
0.0
230
1.0
100
AcDbText
  0
TEXT
  5
D5
100
AcDbEntity
  8
0
 62
     6
 48
0.0
100
AcDbText
 10
0.0
 20
-461.0
 30
0.0
 40
2.0
  1
    SECTION NUMBER 16 AT   23.579 M
 72
     5
 11
80.666672
 21
-461.0
 31
0.0
210
0.0
220
0.0
230
1.0
100
AcDbText
  0
TEXT
  5
D6
100
AcDbEntity
  8
0
 62
     6
 48
0.0
100
AcDbText
 10
0.0
 20
-464.0
 30
0.0
 40
2.0
  1
      2.7426  1.6540     1
 72
     5
 11
59.666668
 21
-464.0
 31
0.0
210
0.0
220
0.0
230
1.0
100
AcDbText
  0
TEXT
  5
D7
100
AcDbEntity
  8
0
 62
     6
 48
0.0
100
AcDbText
 10
0.0
 20
-467.0
 30
0.0
 40
2.0
  1
      2.7426  0.8998     1
 72
     5
 11
59.666668
 21
-467.0
 31
0.0
210
0.0
220
0.0
230
1.0
100
AcDbText
  0
TEXT
  5
D8
100
AcDbEntity
  8
0
 62
     6
 48
0.0
100
AcDbText
 10
0.0
 20
-470.0
 30
0.0
 40
2.0
  1
      2.3192 -0.6138     2
 72
     5
 11
59.666668
 21
-470.0
 31
0.0
210
0.0
220
0.0
230
1.0
100
AcDbText
  0
TEXT
  5
D9
100
AcDbEntity
  8
0
 62
     6
 48
0.0
100
AcDbText
 10
0.0
 20
-473.0
 30
0.0
 40
2.0
  1
      0.0000 -1.0626     3
 72
     5
 11
59.666668
 21
-473.0
 31
0.0
210
0.0
220
0.0
230
1.0
100
AcDbText
  0
TEXT
  5
DA
100
AcDbEntity
  8
0
 62
     6
 48
0.0
100
AcDbText
 10
0.0
 20
-476.0
 30
0.0
 40
2.0
  1
    SECTION NUMBER 17 AT   25.263 M
 72
     5
 11
80.666672
 21
-476.0
 31
0.0
210
0.0
220
0.0
230
1.0
100
AcDbText
  0
TEXT
  5
DB
100
AcDbEntity
  8
0
 62
     6
 48
0.0
100
AcDbText
 10
0.0
 20
-479.0
 30
0.0
 40
2.0
  1
      2.7018  1.6393     1
 72
     5
 11
59.666668
 21
-479.0
 31
0.0
210
0.0
220
0.0
230
1.0
100
AcDbText
  0
TEXT
  5
DC
100
AcDbEntity
  8
0
 62
     6
 48
0.0
100
AcDbText
 10
0.0
 20
-482.0
 30
0.0
 40
2.0
  1
      2.7015  0.8998     1
 72
     5
 11
59.666668
 21
-482.0
 31
0.0
210
0.0
220
0.0
230
1.0
100
AcDbText
  0
TEXT
  5
DD
100
AcDbEntity
  8
0
 62
     6
 48
0.0
100
AcDbText
 10
0.0
 20
-485.0
 30
0.0
 40
2.0
  1
      2.2584 -0.6310     2
 72
     5
 11
59.666668
 21
-485.0
 31
0.0
210
0.0
220
0.0
230
1.0
100
AcDbText
  0
TEXT
  5
DE
100
AcDbEntity
  8
0
 62
     6
 48
0.0
100
AcDbText
 10
0.0
 20
-488.0
 30
0.0
 40
2.0
  1
      0.0000 -1.0134     3
 72
     5
 11
59.666668
 21
-488.0
 31
0.0
210
0.0
220
0.0
230
1.0
100
AcDbText
  0
TEXT
  5
DF
100
AcDbEntity
  8
0
 62
     6
 48
0.0
100
AcDbText
 10
0.0
 20
-491.0
 30
0.0
 40
2.0
  1
    SECTION NUMBER 18 AT   26.948 M
 72
     5
 11
80.666672
 21
-491.0
 31
0.0
210
0.0
220
0.0
230
1.0
100
AcDbText
  0
TEXT
  5
E0
100
AcDbEntity
  8
0
 62
     6
 48
0.0
100
AcDbText
 10
0.0
 20
-494.0
 30
0.0
 40
2.0
  1
      2.6458  1.6459     1
 72
     5
 11
59.666668
 21
-494.0
 31
0.0
210
0.0
220
0.0
230
1.0
100
AcDbText
  0
TEXT
  5
E1
100
AcDbEntity
  8
0
 62
     6
 48
0.0
100
AcDbText
 10
0.0
 20
-497.0
 30
0.0
 40
2.0
  1
      2.6458  0.8998     1
 72
     5
 11
59.666668
 21
-497.0
 31
0.0
210
0.0
220
0.0
230
1.0
100
AcDbText
  0
TEXT
  5
E2
100
AcDbEntity
  8
0
 62
     6
 48
0.0
100
AcDbText
 10
0.0
 20
-500.0
 30
0.0
 40
2.0
  1
      2.2070 -0.6456     2
 72
     5
 11
59.666668
 21
-500.0
 31
0.0
210
0.0
220
0.0
230
1.0
100
AcDbText
  0
TEXT
  5
E3
100
AcDbEntity
  8
0
 62
     6
 48
0.0
100
AcDbText
 10
0.0
 20
-503.0
 30
0.0
 40
2.0
  1
      0.0000 -0.9749     3
 72
     5
 11
59.666668
 21
-503.0
 31
0.0
210
0.0
220
0.0
230
1.0
100
AcDbText
  0
TEXT
  5
E4
100
AcDbEntity
  8
0
 62
     6
 48
0.0
100
AcDbText
 10
0.0
 20
-506.0
 30
0.0
 40
2.0
  1
    SECTION NUMBER 19 AT   28.632 M
 72
     5
 11
80.666672
 21
-506.0
 31
0.0
210
0.0
220
0.0
230
1.0
100
AcDbText
  0
TEXT
  5
E5
100
AcDbEntity
  8
0
 62
     6
 48
0.0
100
AcDbText
 10
0.0
 20
-509.0
 30
0.0
 40
2.0
  1
      2.6057  1.6631     1
 72
     5
 11
59.666668
 21
-509.0
 31
0.0
210
0.0
220
0.0
230
1.0
100
AcDbText
  0
TEXT
  5
E6
100
AcDbEntity
  8
0
 62
     6
 48
0.0
100
AcDbText
 10
0.0
 20
-512.0
 30
0.0
 40
2.0
  1
      2.6032  0.8998     1
 72
     5
 11
59.666668
 21
-512.0
 31
0.0
210
0.0
220
0.0
230
1.0
100
AcDbText
  0
TEXT
  5
E7
100
AcDbEntity
  8
0
 62
     6
 48
0.0
100
AcDbText
 10
0.0
 20
-515.0
 30
0.0
 40
2.0
  1
      2.1397 -0.6652     2
 72
     5
 11
59.666668
 21
-515.0
 31
0.0
210
0.0
220
0.0
230
1.0
100
AcDbText
  0
TEXT
  5
E8
100
AcDbEntity
  8
0
 62
     6
 48
0.0
100
AcDbText
 10
0.0
 20
-518.0
 30
0.0
 40
2.0
  1
      0.0000 -0.9414     3
 72
     5
 11
59.666668
 21
-518.0
 31
0.0
210
0.0
220
0.0
230
1.0
100
AcDbText
  0
TEXT
  5
E9
100
AcDbEntity
  8
0
 62
     6
 48
0.0
100
AcDbText
 10
0.0
 20
-521.0
 30
0.0
 40
2.0
  1
    SECTION NUMBER 20 AT   30.316 M
 72
     5
 11
80.666672
 21
-521.0
 31
0.0
210
0.0
220
0.0
230
1.0
100
AcDbText
  0
TEXT
  5
EA
100
AcDbEntity
  8
0
 62
     6
 48
0.0
100
AcDbText
 10
0.0
 20
-524.0
 30
0.0
 40
2.0
  1
      2.5395  1.6857     1
 72
     5
 11
59.666668
 21
-524.0
 31
0.0
210
0.0
220
0.0
230
1.0
100
AcDbText
  0
TEXT
  5
EB
100
AcDbEntity
  8
0
 62
     6
 48
0.0
100
AcDbText
 10
0.0
 20
-527.0
 30
0.0
 40
2.0
  1
      2.5395  0.8998     1
 72
     5
 11
59.666668
 21
-527.0
 31
0.0
210
0.0
220
0.0
230
1.0
100
AcDbText
  0
TEXT
  5
EC
100
AcDbEntity
  8
0
 62
     6
 48
0.0
100
AcDbText
 10
0.0
 20
-530.0
 30
0.0
 40
2.0
  1
      2.0687 -0.6850     2
 72
     5
 11
59.666668
 21
-530.0
 31
0.0
210
0.0
220
0.0
230
1.0
100
AcDbText
  0
TEXT
  5
ED
100
AcDbEntity
  8
0
 62
     6
 48
0.0
100
AcDbText
 10
0.0
 20
-533.0
 30
0.0
 40
2.0
  1
      0.0000 -0.9081     3
 72
     5
 11
59.666668
 21
-533.0
 31
0.0
210
0.0
220
0.0
230
1.0
100
AcDbText
  0
TEXT
  5
EE
100
AcDbEntity
  8
0
 62
     6
 48
0.0
100
AcDbText
 10
0.0
 20
-536.0
 30
0.0
 40
2.0
  1
    SECTION NUMBER 21 AT   32.000 M
 72
     5
 11
80.666672
 21
-536.0
 31
0.0
210
0.0
220
0.0
230
1.0
100
AcDbText
  0
TEXT
  5
EF
100
AcDbEntity
  8
0
 62
     6
 48
0.0
100
AcDbText
 10
0.0
 20
-539.0
 30
0.0
 40
2.0
  1
      2.4740  1.7343     1
 72
     5
 11
59.666668
 21
-539.0
 31
0.0
210
0.0
220
0.0
230
1.0
100
AcDbText
  0
TEXT
  5
F0
100
AcDbEntity
  8
0
 62
     6
 48
0.0
100
AcDbText
 10
0.0
 20
-542.0
 30
0.0
 40
2.0
  1
      2.4740  0.8998     1
 72
     5
 11
59.666668
 21
-542.0
 31
0.0
210
0.0
220
0.0
230
1.0
100
AcDbText
  0
TEXT
  5
F1
100
AcDbEntity
  8
0
 62
     6
 48
0.0
100
AcDbText
 10
0.0
 20
-545.0
 30
0.0
 40
2.0
  1
      2.0102 -0.7028     2
 72
     5
 11
59.666668
 21
-545.0
 31
0.0
210
0.0
220
0.0
230
1.0
100
AcDbText
  0
TEXT
  5
F2
100
AcDbEntity
  8
0
 62
     6
 48
0.0
100
AcDbText
 10
0.0
 20
-548.0
 30
0.0
 40
2.0
  1
      0.0000 -0.8896     3
 72
     5
 11
59.666668
 21
-548.0
 31
0.0
210
0.0
220
0.0
230
1.0
100
AcDbText
  0
TEXT
  5
F3
100
AcDbEntity
  8
0
 62
     6
 48
0.0
100
AcDbText
 10
0.0
 20
-551.0
 30
0.0
 40
2.0
  1
    
 72
     5
 11
8.333334
 21
-551.0
 31
0.0
210
0.0
220
0.0
230
1.0
100
AcDbText
  0
POLYLINE
  5
F4
100
AcDbEntity
  8
1
  6
Continuous
 62
     6
 48
0.75
100
AcDb2dPolyline
 66
     1
 10
0.0
 20
0.0
 30
0.0
 70
   128
  0
VERTEX
  5
F5
100
AcDbEntity
  8
1
  6
Continuous
 62
     6
 48
0.75
100
AcDbVertex
100
AcDb2dVertex
 10
-112.765292
 20
-382.88265
 30
0.0
 40
0.0
 41
0.0
  0
VERTEX
  5
F6
100
AcDbEntity
  8
1
  6
Continuous
 62
     6
 48
0.75
100
AcDbVertex
100
AcDb2dVertex
 10
-112.765292
 20
-346.80765
 30
0.0
 40
0.0
 41
0.0
  0
SEQEND
  5
F7
100
AcDbEntity
  8
0
  0
POLYLINE
  5
F8
100
AcDbEntity
  8
1
  6
Continuous
 62
     6
 48
0.75
100
AcDb2dPolyline
 66
     1
 10
0.0
 20
0.0
 30
0.0
 70
   128
  0
VERTEX
  5
F9
100
AcDbEntity
  8
1
  6
Continuous
 62
     6
 48
0.75
100
AcDbVertex
100
AcDb2dVertex
 10
-133.815292
 20
-382.88265
 30
0.0
 40
0.0
 41
0.0
  0
VERTEX
  5
FA
100
AcDbEntity
  8
1
  6
Continuous
 62
     6
 48
0.75
100
AcDbVertex
100
AcDb2dVertex
 10
-133.815292
 20
-341.79265
 30
0.0
 40
0.0
 41
0.0
  0
SEQEND
  5
FB
100
AcDbEntity
  8
0
  0
POLYLINE
  5
FC
100
AcDbEntity
  8
1
  6
Continuous
 62
     6
 48
0.75
100
AcDb2dPolyline
 66
     1
 10
0.0
 20
0.0
 30
0.0
 70
   128
  0
VERTEX
  5
FD
100
AcDbEntity
  8
1
  6
Continuous
 62
     6
 48
0.75
100
AcDbVertex
100
AcDb2dVertex
 10
-154.870292
 20
-382.88265
 30
0.0
 40
0.0
 41
0.0
  0
VERTEX
  5
FE
100
AcDbEntity
  8
1
  6
Continuous
 62
     6
 48
0.75
100
AcDbVertex
100
AcDb2dVertex
 10
-154.870292
 20
-337.42265
 30
0.0
 40
0.0
 41
0.0
  0
SEQEND
  5
FF
100
AcDbEntity
  8
0
  0
POLYLINE
  5
100
100
AcDbEntity
  8
1
  6
Continuous
 62
     6
 48
0.75
100
AcDb2dPolyline
 66
     1
 10
0.0
 20
0.0
 30
0.0
 70
   128
  0
VERTEX
  5
101
100
AcDbEntity
  8
1
  6
Continuous
 62
     6
 48
0.75
100
AcDbVertex
100
AcDb2dVertex
 10
-196.975292
 20
-382.88265
 30
0.0
 40
0.0
 41
0.0
  0
VERTEX
  5
102
100
AcDbEntity
  8
1
  6
Continuous
 62
     6
 48
0.75
100
AcDbVertex
100
AcDb2dVertex
 10
-196.975292
 20
-329.70015
 30
0.0
 40
0.0
 41
0.0
  0
SEQEND
  5
103
100
AcDbEntity
  8
0
  0
POLYLINE
  5
104
100
AcDbEntity
  8
1
  6
Continuous
 62
     6
 48
0.75
100
AcDb2dPolyline
 66
     1
 10
0.0
 20
0.0
 30
0.0
 70
   128
  0
VERTEX
  5
105
100
AcDbEntity
  8
1
  6
Continuous
 62
     6
 48
0.75
100
AcDbVertex
100
AcDb2dVertex
 10
-239.080292
 20
-382.88265
 30
0.0
 40
0.0
 41
0.0
  0
VERTEX
  5
106
100
AcDbEntity
  8
1
  6
Continuous
 62
     6
 48
0.75
100
AcDbVertex
100
AcDb2dVertex
 10
-239.080292
 20
-323.98515
 30
0.0
 40
0.0
 41
0.0
  0
SEQEND
  5
107
100
AcDbEntity
  8
0
  0
POLYLINE
  5
108
100
AcDbEntity
  8
1
  6
Continuous
 62
     6
 48
0.75
100
AcDb2dPolyline
 66
     1
 10
0.0
 20
0.0
 30
0.0
 70
   128
  0
VERTEX
  5
109
100
AcDbEntity
  8
1
  6
Continuous
 62
     6
 48
0.75
100
AcDbVertex
100
AcDb2dVertex
 10
-281.185292
 20
-382.88265
 30
0.0
 40
0.0
 41
0.0
  0
VERTEX
  5
10A
100
AcDbEntity
  8
1
  6
Continuous
 62
     6
 48
0.75
100
AcDbVertex
100
AcDb2dVertex
 10
-281.185292
 20
-319.58765
 30
0.0
 40
0.0
 41
0.0
  0
SEQEND
  5
10B
100
AcDbEntity
  8
0
  0
POLYLINE
  5
10C
100
AcDbEntity
  8
1
  6
Continuous
 62
     6
 48
0.75
100
AcDb2dPolyline
 66
     1
 10
0.0
 20
0.0
 30
0.0
 70
   128
  0
VERTEX
  5
10D
100
AcDbEntity
  8
1
  6
Continuous
 62
     6
 48
0.75
100
AcDbVertex
100
AcDb2dVertex
 10
-323.292792
 20
-382.88265
 30
0.0
 40
0.0
 41
0.0
  0
VERTEX
  5
10E
100
AcDbEntity
  8
1
  6
Continuous
 62
     6
 48
0.75
100
AcDbVertex
100
AcDb2dVertex
 10
-323.292792
 20
-315.62765
 30
0.0
 40
0.0
 41
0.0
  0
SEQEND
  5
10F
100
AcDbEntity
  8
0
  0
POLYLINE
  5
110
100
AcDbEntity
  8
1
  6
Continuous
 62
     6
 48
0.75
100
AcDb2dPolyline
 66
     1
 10
0.0
 20
0.0
 30
0.0
 70
   128
  0
VERTEX
  5
111
100
AcDbEntity
  8
1
  6
Continuous
 62
     6
 48
0.75
100
AcDbVertex
100
AcDb2dVertex
 10
-365.397792
 20
-382.88265
 30
0.0
 40
0.0
 41
0.0
  0
VERTEX
  5
112
100
AcDbEntity
  8
1
  6
Continuous
 62
     6
 48
0.75
100
AcDbVertex
100
AcDb2dVertex
 10
-365.397792
 20
-312.70515
 30
0.0
 40
0.0
 41
0.0
  0
SEQEND
  5
113
100
AcDbEntity
  8
0
  0
POLYLINE
  5
114
100
AcDbEntity
  8
1
  6
Continuous
 62
     6
 48
0.75
100
AcDb2dPolyline
 66
     1
 10
0.0
 20
0.0
 30
0.0
 70
   128
  0
VERTEX
  5
115
100
AcDbEntity
  8
1
  6
Continuous
 62
     6
 48
0.75
100
AcDbVertex
100
AcDb2dVertex
 10
-407.502792
 20
-382.88265
 30
0.0
 40
0.0
 41
0.0
  0
VERTEX
  5
116
100
AcDbEntity
  8
1
  6
Continuous
 62
     6
 48
0.75
100
AcDbVertex
100
AcDb2dVertex
 10
-407.502792
 20
-310.72015
 30
0.0
 40
0.0
 41
0.0
  0
SEQEND
  5
117
100
AcDbEntity
  8
0
  0
POLYLINE
  5
118
100
AcDbEntity
  8
1
  6
Continuous
 62
     6
 48
0.75
100
AcDb2dPolyline
 66
     1
 10
0.0
 20
0.0
 30
0.0
 70
   128
  0
VERTEX
  5
119
100
AcDbEntity
  8
1
  6
Continuous
 62
     6
 48
0.75
100
AcDbVertex
100
AcDb2dVertex
 10
-449.607792
 20
-382.88265
 30
0.0
 40
0.0
 41
0.0
  0
VERTEX
  5
11A
100
AcDbEntity
  8
1
  6
Continuous
 62
     6
 48
0.75
100
AcDbVertex
100
AcDb2dVertex
 10
-449.607792
 20
-310.54265
 30
0.0
 40
0.0
 41
0.0
  0
SEQEND
  5
11B
100
AcDbEntity
  8
0
  0
POLYLINE
  5
11C
100
AcDbEntity
  8
1
  6
Continuous
 62
     6
 48
0.75
100
AcDb2dPolyline
 66
     1
 10
0.0
 20
0.0
 30
0.0
 70
   128
  0
VERTEX
  5
11D
100
AcDbEntity
  8
1
  6
Continuous
 62
     6
 48
0.75
100
AcDbVertex
100
AcDb2dVertex
 10
-491.712792
 20
-382.88265
 30
0.0
 40
0.0
 41
0.0
  0
VERTEX
  5
11E
100
AcDbEntity
  8
1
  6
Continuous
 62
     6
 48
0.75
100
AcDbVertex
100
AcDb2dVertex
 10
-491.712792
 20
-310.38265
 30
0.0
 40
0.0
 41
0.0
  0
SEQEND
  5
11F
100
AcDbEntity
  8
0
  0
POLYLINE
  5
120
100
AcDbEntity
  8
1
  6
Continuous
 62
     6
 48
0.75
100
AcDb2dPolyline
 66
     1
 10
0.0
 20
0.0
 30
0.0
 70
   128
  0
VERTEX
  5
121
100
AcDbEntity
  8
1
  6
Continuous
 62
     6
 48
0.75
100
AcDbVertex
100
AcDb2dVertex
 10
-533.817792
 20
-382.88265
 30
0.0
 40
0.0
 41
0.0
  0
VERTEX
  5
122
100
AcDbEntity
  8
1
  6
Continuous
 62
     6
 48
0.75
100
AcDbVertex
100
AcDb2dVertex
 10
-533.817792
 20
-310.73765
 30
0.0
 40
0.0
 41
0.0
  0
SEQEND
  5
123
100
AcDbEntity
  8
0
  0
POLYLINE
  5
124
100
AcDbEntity
  8
1
  6
Continuous
 62
     6
 48
0.75
100
AcDb2dPolyline
 66
     1
 10
0.0
 20
0.0
 30
0.0
 70
   128
  0
VERTEX
  5
125
100
AcDbEntity
  8
1
  6
Continuous
 62
     6
 48
0.75
100
AcDbVertex
100
AcDb2dVertex
 10
-575.922792
 20
-382.88265
 30
0.0
 40
0.0
 41
0.0
  0
VERTEX
  5
126
100
AcDbEntity
  8
1
  6
Continuous
 62
     6
 48
0.75
100
AcDbVertex
100
AcDb2dVertex
 10
-575.922792
 20
-311.37515
 30
0.0
 40
0.0
 41
0.0
  0
SEQEND
  5
127
100
AcDbEntity
  8
0
  0
POLYLINE
  5
128
100
AcDbEntity
  8
1
  6
Continuous
 62
     6
 48
0.75
100
AcDb2dPolyline
 66
     1
 10
0.0
 20
0.0
 30
0.0
 70
   128
  0
VERTEX
  5
129
100
AcDbEntity
  8
1
  6
Continuous
 62
     6
 48
0.75
100
AcDbVertex
100
AcDb2dVertex
 10
-618.027792
 20
-382.88265
 30
0.0
 40
0.0
 41
0.0
  0
VERTEX
  5
12A
100
AcDbEntity
  8
1
  6
Continuous
 62
     6
 48
0.75
100
AcDbVertex
100
AcDb2dVertex
 10
-618.027792
 20
-312.37765
 30
0.0
 40
0.0
 41
0.0
  0
SEQEND
  5
12B
100
AcDbEntity
  8
0
  0
POLYLINE
  5
12C
100
AcDbEntity
  8
1
  6
Continuous
 62
     6
 48
0.75
100
AcDb2dPolyline
 66
     1
 10
0.0
 20
0.0
 30
0.0
 70
   128
  0
VERTEX
  5
12D
100
AcDbEntity
  8
1
  6
Continuous
 62
     6
 48
0.75
100
AcDbVertex
100
AcDb2dVertex
 10
-660.132792
 20
-382.88265
 30
0.0
 40
0.0
 41
0.0
  0
VERTEX
  5
12E
100
AcDbEntity
  8
1
  6
Continuous
 62
     6
 48
0.75
100
AcDbVertex
100
AcDb2dVertex
 10
-660.132792
 20
-313.07265
 30
0.0
 40
0.0
 41
0.0
  0
SEQEND
  5
12F
100
AcDbEntity
  8
0
  0
POLYLINE
  5
130
100
AcDbEntity
  8
1
  6
Continuous
 62
     6
 48
0.75
100
AcDb2dPolyline
 66
     1
 10
0.0
 20
0.0
 30
0.0
 70
   128
  0
VERTEX
  5
131
100
AcDbEntity
  8
1
  6
Continuous
 62
     6
 48
0.75
100
AcDbVertex
100
AcDb2dVertex
 10
-702.237792
 20
-382.88265
 30
0.0
 40
0.0
 41
0.0
  0
VERTEX
  5
132
100
AcDbEntity
  8
1
  6
Continuous
 62
     6
 48
0.75
100
AcDbVertex
100
AcDb2dVertex
 10
-702.237792
 20
-314.31765
 30
0.0
 40
0.0
 41
0.0
  0
SEQEND
  5
133
100
AcDbEntity
  8
0
  0
POLYLINE
  5
134
100
AcDbEntity
  8
1
  6
Continuous
 62
     6
 48
0.75
100
AcDb2dPolyline
 66
     1
 10
0.0
 20
0.0
 30
0.0
 70
   128
  0
VERTEX
  5
135
100
AcDbEntity
  8
1
  6
Continuous
 62
     6
 48
0.75
100
AcDbVertex
100
AcDb2dVertex
 10
-744.345292
 20
-382.88265
 30
0.0
 40
0.0
 41
0.0
  0
VERTEX
  5
136
100
AcDbEntity
  8
1
  6
Continuous
 62
     6
 48
0.75
100
AcDbVertex
100
AcDb2dVertex
 10
-744.345292
 20
-315.33765
 30
0.0
 40
0.0
 41
0.0
  0
SEQEND
  5
137
100
AcDbEntity
  8
0
  0
POLYLINE
  5
138
100
AcDbEntity
  8
1
  6
Continuous
 62
     6
 48
0.75
100
AcDb2dPolyline
 66
     1
 10
0.0
 20
0.0
 30
0.0
 70
   128
  0
VERTEX
  5
139
100
AcDbEntity
  8
1
  6
Continuous
 62
     6
 48
0.75
100
AcDbVertex
100
AcDb2dVertex
 10
-786.450292
 20
-382.88265
 30
0.0
 40
0.0
 41
0.0
  0
VERTEX
  5
13A
100
AcDbEntity
  8
1
  6
Continuous
 62
     6
 48
0.75
100
AcDbVertex
100
AcDb2dVertex
 10
-786.450292
 20
-316.73765
 30
0.0
 40
0.0
 41
0.0
  0
SEQEND
  5
13B
100
AcDbEntity
  8
0
  0
POLYLINE
  5
13C
100
AcDbEntity
  8
1
  6
Continuous
 62
     6
 48
0.75
100
AcDb2dPolyline
 66
     1
 10
0.0
 20
0.0
 30
0.0
 70
   128
  0
VERTEX
  5
13D
100
AcDbEntity
  8
1
  6
Continuous
 62
     6
 48
0.75
100
AcDbVertex
100
AcDb2dVertex
 10
-828.555292
 20
-382.88265
 30
0.0
 40
0.0
 41
0.0
  0
VERTEX
  5
13E
100
AcDbEntity
  8
1
  6
Continuous
 62
     6
 48
0.75
100
AcDbVertex
100
AcDb2dVertex
 10
-828.555292
 20
-317.74015
 30
0.0
 40
0.0
 41
0.0
  0
SEQEND
  5
13F
100
AcDbEntity
  8
0
  0
POLYLINE
  5
140
100
AcDbEntity
  8
1
  6
Continuous
 62
     6
 48
0.75
100
AcDb2dPolyline
 66
     1
 10
0.0
 20
0.0
 30
0.0
 70
   128
  0
VERTEX
  5
141
100
AcDbEntity
  8
1
  6
Continuous
 62
     6
 48
0.75
100
AcDbVertex
100
AcDb2dVertex
 10
-870.660292
 20
-382.88265
 30
0.0
 40
0.0
 41
0.0
  0
VERTEX
  5
142
100
AcDbEntity
  8
1
  6
Continuous
 62
     6
 48
0.75
100
AcDbVertex
100
AcDb2dVertex
 10
-870.660292
 20
-319.39515
 30
0.0
 40
0.0
 41
0.0
  0
SEQEND
  5
143
100
AcDbEntity
  8
0
  0
POLYLINE
  5
144
100
AcDbEntity
  8
1
  6
Continuous
 62
     6
 48
0.75
100
AcDb2dPolyline
 66
     1
 10
0.0
 20
0.0
 30
0.0
 70
   128
  0
VERTEX
  5
145
100
AcDbEntity
  8
1
  6
Continuous
 62
     6
 48
0.75
100
AcDbVertex
100
AcDb2dVertex
 10
-912.762792
 20
-382.88265
 30
0.0
 40
0.0
 41
0.0
  0
VERTEX
  5
146
100
AcDbEntity
  8
1
  6
Continuous
 62
     6
 48
0.75
100
AcDbVertex
100
AcDb2dVertex
 10
-912.762792
 20
-321.03265
 30
0.0
 40
0.0
 41
0.0
  0
SEQEND
  5
147
100
AcDbEntity
  8
0
  0
POLYLINE
  5
148
100
AcDbEntity
  8
1
  6
Continuous
 62
     6
 48
0.75
100
AcDb2dPolyline
 66
     1
 10
0.0
 20
0.0
 30
0.0
 70
   128
  0
VERTEX
  5
149
100
AcDbEntity
  8
1
  6
Continuous
 62
     6
 48
0.75
100
AcDbVertex
100
AcDb2dVertex
 10
-70.262792
 20
-382.88265
 30
0.0
 40
0.0
 41
0.0
  0
VERTEX
  5
14A
100
AcDbEntity
  8
1
  6
Continuous
 62
     6
 48
0.75
100
AcDbVertex
100
AcDb2dVertex
 10
-70.617792
 20
-378.38515
 30
0.0
 40
0.0
 41
0.0
  0
VERTEX
  5
14B
100
AcDbEntity
  8
1
  6
Continuous
 62
     6
 48
0.75
100
AcDbVertex
100
AcDb2dVertex
 10
-71.670292
 20
-373.99765
 30
0.0
 40
0.0
 41
0.0
  0
VERTEX
  5
14C
100
AcDbEntity
  8
1
  6
Continuous
 62
     6
 48
0.75
100
AcDbVertex
100
AcDb2dVertex
 10
-73.395292
 20
-369.83015
 30
0.0
 40
0.0
 41
0.0
  0
VERTEX
  5
14D
100
AcDbEntity
  8
1
  6
Continuous
 62
     6
 48
0.75
100
AcDbVertex
100
AcDb2dVertex
 10
-75.752792
 20
-365.98265
 30
0.0
 40
0.0
 41
0.0
  0
VERTEX
  5
14E
100
AcDbEntity
  8
1
  6
Continuous
 62
     6
 48
0.75
100
AcDbVertex
100
AcDb2dVertex
 10
-78.682792
 20
-362.55265
 30
0.0
 40
0.0
 41
0.0
  0
VERTEX
  5
14F
100
AcDbEntity
  8
1
  6
Continuous
 62
     6
 48
0.75
100
AcDbVertex
100
AcDb2dVertex
 10
-82.112792
 20
-359.62265
 30
0.0
 40
0.0
 41
0.0
  0
VERTEX
  5
150
100
AcDbEntity
  8
1
  6
Continuous
 62
     6
 48
0.75
100
AcDbVertex
100
AcDb2dVertex
 10
-85.960292
 20
-357.26515
 30
0.0
 40
0.0
 41
0.0
  0
VERTEX
  5
151
100
AcDbEntity
  8
1
  6
Continuous
 62
     6
 48
0.75
100
AcDbVertex
100
AcDb2dVertex
 10
-112.765292
 20
-346.80765
 30
0.0
 40
0.0
 41
0.0
  0
VERTEX
  5
152
100
AcDbEntity
  8
1
  6
Continuous
 62
     6
 48
0.75
100
AcDbVertex
100
AcDb2dVertex
 10
-133.815292
 20
-341.79265
 30
0.0
 40
0.0
 41
0.0
  0
VERTEX
  5
153
100
AcDbEntity
  8
1
  6
Continuous
 62
     6
 48
0.75
100
AcDbVertex
100
AcDb2dVertex
 10
-154.870292
 20
-337.42265
 30
0.0
 40
0.0
 41
0.0
  0
VERTEX
  5
154
100
AcDbEntity
  8
1
  6
Continuous
 62
     6
 48
0.75
100
AcDbVertex
100
AcDb2dVertex
 10
-196.975292
 20
-329.70015
 30
0.0
 40
0.0
 41
0.0
  0
VERTEX
  5
155
100
AcDbEntity
  8
1
  6
Continuous
 62
     6
 48
0.75
100
AcDbVertex
100
AcDb2dVertex
 10
-239.080292
 20
-323.98515
 30
0.0
 40
0.0
 41
0.0
  0
VERTEX
  5
156
100
AcDbEntity
  8
1
  6
Continuous
 62
     6
 48
0.75
100
AcDbVertex
100
AcDb2dVertex
 10
-281.185292
 20
-319.58765
 30
0.0
 40
0.0
 41
0.0
  0
VERTEX
  5
157
100
AcDbEntity
  8
1
  6
Continuous
 62
     6
 48
0.75
100
AcDbVertex
100
AcDb2dVertex
 10
-323.292792
 20
-315.62765
 30
0.0
 40
0.0
 41
0.0
  0
VERTEX
  5
158
100
AcDbEntity
  8
1
  6
Continuous
 62
     6
 48
0.75
100
AcDbVertex
100
AcDb2dVertex
 10
-365.397792
 20
-312.70515
 30
0.0
 40
0.0
 41
0.0
  0
VERTEX
  5
159
100
AcDbEntity
  8
1
  6
Continuous
 62
     6
 48
0.75
100
AcDbVertex
100
AcDb2dVertex
 10
-407.502792
 20
-310.72015
 30
0.0
 40
0.0
 41
0.0
  0
VERTEX
  5
15A
100
AcDbEntity
  8
1
  6
Continuous
 62
     6
 48
0.75
100
AcDbVertex
100
AcDb2dVertex
 10
-449.607792
 20
-310.54265
 30
0.0
 40
0.0
 41
0.0
  0
VERTEX
  5
15B
100
AcDbEntity
  8
1
  6
Continuous
 62
     6
 48
0.75
100
AcDbVertex
100
AcDb2dVertex
 10
-491.712792
 20
-310.38265
 30
0.0
 40
0.0
 41
0.0
  0
VERTEX
  5
15C
100
AcDbEntity
  8
1
  6
Continuous
 62
     6
 48
0.75
100
AcDbVertex
100
AcDb2dVertex
 10
-533.817792
 20
-310.73765
 30
0.0
 40
0.0
 41
0.0
  0
VERTEX
  5
15D
100
AcDbEntity
  8
1
  6
Continuous
 62
     6
 48
0.75
100
AcDbVertex
100
AcDb2dVertex
 10
-575.922792
 20
-311.37515
 30
0.0
 40
0.0
 41
0.0
  0
VERTEX
  5
15E
100
AcDbEntity
  8
1
  6
Continuous
 62
     6
 48
0.75
100
AcDbVertex
100
AcDb2dVertex
 10
-618.027792
 20
-312.37765
 30
0.0
 40
0.0
 41
0.0
  0
VERTEX
  5
15F
100
AcDbEntity
  8
1
  6
Continuous
 62
     6
 48
0.75
100
AcDbVertex
100
AcDb2dVertex
 10
-660.132792
 20
-313.07265
 30
0.0
 40
0.0
 41
0.0
  0
VERTEX
  5
160
100
AcDbEntity
  8
1
  6
Continuous
 62
     6
 48
0.75
100
AcDbVertex
100
AcDb2dVertex
 10
-702.237792
 20
-314.31765
 30
0.0
 40
0.0
 41
0.0
  0
VERTEX
  5
161
100
AcDbEntity
  8
1
  6
Continuous
 62
     6
 48
0.75
100
AcDbVertex
100
AcDb2dVertex
 10
-744.345292
 20
-315.33765
 30
0.0
 40
0.0
 41
0.0
  0
VERTEX
  5
162
100
AcDbEntity
  8
1
  6
Continuous
 62
     6
 48
0.75
100
AcDbVertex
100
AcDb2dVertex
 10
-786.450292
 20
-316.73765
 30
0.0
 40
0.0
 41
0.0
  0
VERTEX
  5
163
100
AcDbEntity
  8
1
  6
Continuous
 62
     6
 48
0.75
100
AcDbVertex
100
AcDb2dVertex
 10
-828.555292
 20
-317.74015
 30
0.0
 40
0.0
 41
0.0
  0
VERTEX
  5
164
100
AcDbEntity
  8
1
  6
Continuous
 62
     6
 48
0.75
100
AcDbVertex
100
AcDb2dVertex
 10
-870.660292
 20
-319.39515
 30
0.0
 40
0.0
 41
0.0
  0
VERTEX
  5
165
100
AcDbEntity
  8
1
  6
Continuous
 62
     6
 48
0.75
100
AcDbVertex
100
AcDb2dVertex
 10
-912.762792
 20
-321.03265
 30
0.0
 40
0.0
 41
0.0
  0
SEQEND
  5
166
100
AcDbEntity
  8
0
  0
POLYLINE
  5
167
100
AcDbEntity
  8
1
  6
Continuous
 62
     6
 48
0.75
100
AcDb2dPolyline
 66
     1
 10
0.0
 20
0.0
 30
0.0
 70
   128
  0
VERTEX
  5
168
100
AcDbEntity
  8
1
  6
Continuous
 62
     6
 48
0.75
100
AcDbVertex
100
AcDb2dVertex
 10
-82.115292
 20
-382.88265
 30
0.0
 40
0.0
 41
0.0
  0
VERTEX
  5
169
100
AcDbEntity
  8
1
  6
Continuous
 62
     6
 48
0.75
100
AcDbVertex
100
AcDb2dVertex
 10
-82.267792
 20
-380.94765
 30
0.0
 40
0.0
 41
0.0
  0
VERTEX
  5
16A
100
AcDbEntity
  8
1
  6
Continuous
 62
     6
 48
0.75
100
AcDbVertex
100
AcDb2dVertex
 10
-82.720292
 20
-379.05765
 30
0.0
 40
0.0
 41
0.0
  0
VERTEX
  5
16B
100
AcDbEntity
  8
1
  6
Continuous
 62
     6
 48
0.75
100
AcDbVertex
100
AcDb2dVertex
 10
-83.465292
 20
-377.26515
 30
0.0
 40
0.0
 41
0.0
  0
VERTEX
  5
16C
100
AcDbEntity
  8
1
  6
Continuous
 62
     6
 48
0.75
100
AcDbVertex
100
AcDb2dVertex
 10
-84.477792
 20
-375.60765
 30
0.0
 40
0.0
 41
0.0
  0
VERTEX
  5
16D
100
AcDbEntity
  8
1
  6
Continuous
 62
     6
 48
0.75
100
AcDbVertex
100
AcDb2dVertex
 10
-85.740292
 20
-374.13265
 30
0.0
 40
0.0
 41
0.0
  0
VERTEX
  5
16E
100
AcDbEntity
  8
1
  6
Continuous
 62
     6
 48
0.75
100
AcDbVertex
100
AcDb2dVertex
 10
-87.215292
 20
-372.87015
 30
0.0
 40
0.0
 41
0.0
  0
VERTEX
  5
16F
100
AcDbEntity
  8
1
  6
Continuous
 62
     6
 48
0.75
100
AcDbVertex
100
AcDb2dVertex
 10
-112.765292
 20
-359.30515
 30
0.0
 40
0.0
 41
0.0
  0
VERTEX
  5
170
100
AcDbEntity
  8
1
  6
Continuous
 62
     6
 48
0.75
100
AcDbVertex
100
AcDb2dVertex
 10
-133.815292
 20
-352.23015
 30
0.0
 40
0.0
 41
0.0
  0
VERTEX
  5
171
100
AcDbEntity
  8
1
  6
Continuous
 62
     6
 48
0.75
100
AcDbVertex
100
AcDb2dVertex
 10
-154.870292
 20
-346.85765
 30
0.0
 40
0.0
 41
0.0
  0
VERTEX
  5
172
100
AcDbEntity
  8
1
  6
Continuous
 62
     6
 48
0.75
100
AcDbVertex
100
AcDb2dVertex
 10
-196.975292
 20
-337.84515
 30
0.0
 40
0.0
 41
0.0
  0
VERTEX
  5
173
100
AcDbEntity
  8
1
  6
Continuous
 62
     6
 48
0.75
100
AcDbVertex
100
AcDb2dVertex
 10
-239.080292
 20
-329.94515
 30
0.0
 40
0.0
 41
0.0
  0
VERTEX
  5
174
100
AcDbEntity
  8
1
  6
Continuous
 62
     6
 48
0.75
100
AcDbVertex
100
AcDb2dVertex
 10
-281.185292
 20
-323.46765
 30
0.0
 40
0.0
 41
0.0
  0
VERTEX
  5
175
100
AcDbEntity
  8
1
  6
Continuous
 62
     6
 48
0.75
100
AcDbVertex
100
AcDb2dVertex
 10
-323.292792
 20
-318.48265
 30
0.0
 40
0.0
 41
0.0
  0
VERTEX
  5
176
100
AcDbEntity
  8
1
  6
Continuous
 62
     6
 48
0.75
100
AcDbVertex
100
AcDb2dVertex
 10
-365.397792
 20
-314.85765
 30
0.0
 40
0.0
 41
0.0
  0
VERTEX
  5
177
100
AcDbEntity
  8
1
  6
Continuous
 62
     6
 48
0.75
100
AcDbVertex
100
AcDb2dVertex
 10
-407.502792
 20
-311.96265
 30
0.0
 40
0.0
 41
0.0
  0
VERTEX
  5
178
100
AcDbEntity
  8
1
  6
Continuous
 62
     6
 48
0.75
100
AcDbVertex
100
AcDb2dVertex
 10
-449.607792
 20
-310.54265
 30
0.0
 40
0.0
 41
0.0
  0
VERTEX
  5
179
100
AcDbEntity
  8
1
  6
Continuous
 62
     6
 48
0.75
100
AcDbVertex
100
AcDb2dVertex
 10
-491.712792
 20
-310.38265
 30
0.0
 40
0.0
 41
0.0
  0
VERTEX
  5
17A
100
AcDbEntity
  8
1
  6
Continuous
 62
     6
 48
0.75
100
AcDbVertex
100
AcDb2dVertex
 10
-533.817792
 20
-310.73765
 30
0.0
 40
0.0
 41
0.0
  0
VERTEX
  5
17B
100
AcDbEntity
  8
1
  6
Continuous
 62
     6
 48
0.75
100
AcDbVertex
100
AcDb2dVertex
 10
-575.922792
 20
-311.37515
 30
0.0
 40
0.0
 41
0.0
  0
VERTEX
  5
17C
100
AcDbEntity
  8
1
  6
Continuous
 62
     6
 48
0.75
100
AcDbVertex
100
AcDb2dVertex
 10
-618.027792
 20
-312.37765
 30
0.0
 40
0.0
 41
0.0
  0
VERTEX
  5
17D
100
AcDbEntity
  8
1
  6
Continuous
 62
     6
 48
0.75
100
AcDbVertex
100
AcDb2dVertex
 10
-660.132792
 20
-313.07265
 30
0.0
 40
0.0
 41
0.0
  0
VERTEX
  5
17E
100
AcDbEntity
  8
1
  6
Continuous
 62
     6
 48
0.75
100
AcDbVertex
100
AcDb2dVertex
 10
-702.237792
 20
-314.31765
 30
0.0
 40
0.0
 41
0.0
  0
VERTEX
  5
17F
100
AcDbEntity
  8
1
  6
Continuous
 62
     6
 48
0.75
100
AcDbVertex
100
AcDb2dVertex
 10
-744.345292
 20
-315.34515
 30
0.0
 40
0.0
 41
0.0
  0
VERTEX
  5
180
100
AcDbEntity
  8
1
  6
Continuous
 62
     6
 48
0.75
100
AcDbVertex
100
AcDb2dVertex
 10
-786.450292
 20
-316.73765
 30
0.0
 40
0.0
 41
0.0
  0
VERTEX
  5
181
100
AcDbEntity
  8
1
  6
Continuous
 62
     6
 48
0.75
100
AcDbVertex
100
AcDb2dVertex
 10
-828.555292
 20
-317.80265
 30
0.0
 40
0.0
 41
0.0
  0
VERTEX
  5
182
100
AcDbEntity
  8
1
  6
Continuous
 62
     6
 48
0.75
100
AcDbVertex
100
AcDb2dVertex
 10
-870.660292
 20
-319.39515
 30
0.0
 40
0.0
 41
0.0
  0
VERTEX
  5
183
100
AcDbEntity
  8
1
  6
Continuous
 62
     6
 48
0.75
100
AcDbVertex
100
AcDb2dVertex
 10
-912.762792
 20
-321.03265
 30
0.0
 40
0.0
 41
0.0
  0
SEQEND
  5
184
100
AcDbEntity
  8
0
  0
POLYLINE
  5
185
100
AcDbEntity
  8
1
  6
Continuous
 62
     6
 48
0.75
100
AcDb2dPolyline
 66
     1
 10
0.0
 20
0.0
 30
0.0
 70
   128
  0
VERTEX
  5
186
100
AcDbEntity
  8
1
  6
Continuous
 62
     6
 48
0.75
100
AcDbVertex
100
AcDb2dVertex
 10
-102.762792
 20
-382.88265
 30
0.0
 40
0.0
 41
0.0
  0
VERTEX
  5
187
100
AcDbEntity
  8
1
  6
Continuous
 62
     6
 48
0.75
100
AcDbVertex
100
AcDb2dVertex
 10
-102.792792
 20
-382.49515
 30
0.0
 40
0.0
 41
0.0
  0
VERTEX
  5
188
100
AcDbEntity
  8
1
  6
Continuous
 62
     6
 48
0.75
100
AcDbVertex
100
AcDb2dVertex
 10
-102.882792
 20
-382.11765
 30
0.0
 40
0.0
 41
0.0
  0
VERTEX
  5
189
100
AcDbEntity
  8
1
  6
Continuous
 62
     6
 48
0.75
100
AcDbVertex
100
AcDb2dVertex
 10
-103.032792
 20
-381.76015
 30
0.0
 40
0.0
 41
0.0
  0
VERTEX
  5
18A
100
AcDbEntity
  8
1
  6
Continuous
 62
     6
 48
0.75
100
AcDbVertex
100
AcDb2dVertex
 10
-103.235292
 20
-381.42765
 30
0.0
 40
0.0
 41
0.0
  0
VERTEX
  5
18B
100
AcDbEntity
  8
1
  6
Continuous
 62
     6
 48
0.75
100
AcDbVertex
100
AcDb2dVertex
 10
-103.487792
 20
-381.13265
 30
0.0
 40
0.0
 41
0.0
  0
VERTEX
  5
18C
100
AcDbEntity
  8
1
  6
Continuous
 62
     6
 48
0.75
100
AcDbVertex
100
AcDb2dVertex
 10
-103.782792
 20
-380.88015
 30
0.0
 40
0.0
 41
0.0
  0
VERTEX
  5
18D
100
AcDbEntity
  8
1
  6
Continuous
 62
     6
 48
0.75
100
AcDbVertex
100
AcDb2dVertex
 10
-104.115292
 20
-380.67765
 30
0.0
 40
0.0
 41
0.0
  0
VERTEX
  5
18E
100
AcDbEntity
  8
1
  6
Continuous
 62
     6
 48
0.75
100
AcDbVertex
100
AcDb2dVertex
 10
-112.765292
 20
-377.56515
 30
0.0
 40
0.0
 41
0.0
  0
VERTEX
  5
18F
100
AcDbEntity
  8
1
  6
Continuous
 62
     6
 48
0.75
100
AcDbVertex
100
AcDb2dVertex
 10
-133.815292
 20
-371.65765
 30
0.0
 40
0.0
 41
0.0
  0
VERTEX
  5
190
100
AcDbEntity
  8
1
  6
Continuous
 62
     6
 48
0.75
100
AcDbVertex
100
AcDb2dVertex
 10
-154.870292
 20
-366.99015
 30
0.0
 40
0.0
 41
0.0
  0
VERTEX
  5
191
100
AcDbEntity
  8
1
  6
Continuous
 62
     6
 48
0.75
100
AcDbVertex
100
AcDb2dVertex
 10
-196.975292
 20
-358.95765
 30
0.0
 40
0.0
 41
0.0
  0
VERTEX
  5
192
100
AcDbEntity
  8
1
  6
Continuous
 62
     6
 48
0.75
100
AcDbVertex
100
AcDb2dVertex
 10
-239.080292
 20
-351.81015
 30
0.0
 40
0.0
 41
0.0
  0
VERTEX
  5
193
100
AcDbEntity
  8
1
  6
Continuous
 62
     6
 48
0.75
100
AcDbVertex
100
AcDb2dVertex
 10
-281.185292
 20
-345.07265
 30
0.0
 40
0.0
 41
0.0
  0
VERTEX
  5
194
100
AcDbEntity
  8
1
  6
Continuous
 62
     6
 48
0.75
100
AcDbVertex
100
AcDb2dVertex
 10
-323.292792
 20
-339.07015
 30
0.0
 40
0.0
 41
0.0
  0
VERTEX
  5
195
100
AcDbEntity
  8
1
  6
Continuous
 62
     6
 48
0.75
100
AcDbVertex
100
AcDb2dVertex
 10
-365.397792
 20
-333.97515
 30
0.0
 40
0.0
 41
0.0
  0
VERTEX
  5
196
100
AcDbEntity
  8
1
  6
Continuous
 62
     6
 48
0.75
100
AcDbVertex
100
AcDb2dVertex
 10
-407.502792
 20
-329.61515
 30
0.0
 40
0.0
 41
0.0
  0
VERTEX
  5
197
100
AcDbEntity
  8
1
  6
Continuous
 62
     6
 48
0.75
100
AcDbVertex
100
AcDb2dVertex
 10
-449.607792
 20
-325.76515
 30
0.0
 40
0.0
 41
0.0
  0
VERTEX
  5
198
100
AcDbEntity
  8
1
  6
Continuous
 62
     6
 48
0.75
100
AcDbVertex
100
AcDb2dVertex
 10
-491.712792
 20
-323.29265
 30
0.0
 40
0.0
 41
0.0
  0
VERTEX
  5
199
100
AcDbEntity
  8
1
  6
Continuous
 62
     6
 48
0.75
100
AcDbVertex
100
AcDb2dVertex
 10
-533.817792
 20
-322.39265
 30
0.0
 40
0.0
 41
0.0
  0
VERTEX
  5
19A
100
AcDbEntity
  8
1
  6
Continuous
 62
     6
 48
0.75
100
AcDbVertex
100
AcDb2dVertex
 10
-575.922792
 20
-322.45515
 30
0.0
 40
0.0
 41
0.0
  0
VERTEX
  5
19B
100
AcDbEntity
  8
1
  6
Continuous
 62
     6
 48
0.75
100
AcDbVertex
100
AcDb2dVertex
 10
-618.027792
 20
-322.58765
 30
0.0
 40
0.0
 41
0.0
  0
VERTEX
  5
19C
100
AcDbEntity
  8
1
  6
Continuous
 62
     6
 48
0.75
100
AcDbVertex
100
AcDb2dVertex
 10
-660.132792
 20
-323.55515
 30
0.0
 40
0.0
 41
0.0
  0
VERTEX
  5
19D
100
AcDbEntity
  8
1
  6
Continuous
 62
     6
 48
0.75
100
AcDbVertex
100
AcDb2dVertex
 10
-702.237792
 20
-324.90265
 30
0.0
 40
0.0
 41
0.0
  0
VERTEX
  5
19E
100
AcDbEntity
  8
1
  6
Continuous
 62
     6
 48
0.75
100
AcDbVertex
100
AcDb2dVertex
 10
-744.345292
 20
-326.42265
 30
0.0
 40
0.0
 41
0.0
  0
VERTEX
  5
19F
100
AcDbEntity
  8
1
  6
Continuous
 62
     6
 48
0.75
100
AcDbVertex
100
AcDb2dVertex
 10
-786.450292
 20
-327.70765
 30
0.0
 40
0.0
 41
0.0
  0
VERTEX
  5
1A0
100
AcDbEntity
  8
1
  6
Continuous
 62
     6
 48
0.75
100
AcDbVertex
100
AcDb2dVertex
 10
-828.555292
 20
-329.39015
 30
0.0
 40
0.0
 41
0.0
  0
VERTEX
  5
1A1
100
AcDbEntity
  8
1
  6
Continuous
 62
     6
 48
0.75
100
AcDbVertex
100
AcDb2dVertex
 10
-870.660292
 20
-331.16515
 30
0.0
 40
0.0
 41
0.0
  0
VERTEX
  5
1A2
100
AcDbEntity
  8
1
  6
Continuous
 62
     6
 48
0.75
100
AcDbVertex
100
AcDb2dVertex
 10
-912.762792
 20
-332.62765
 30
0.0
 40
0.0
 41
0.0
  0
SEQEND
  5
1A3
100
AcDbEntity
  8
0
  0
POLYLINE
  5
1A4
100
AcDbEntity
  8
1
  6
Continuous
 62
     6
 48
0.75
100
AcDb2dPolyline
 66
     1
 10
0.0
 20
0.0
 30
0.0
 70
   128
  0
VERTEX
  5
1A5
100
AcDbEntity
  8
1
  6
Continuous
 62
     6
 48
0.75
100
AcDbVertex
100
AcDb2dVertex
 10
-112.762792
 20
-382.88265
 30
0.0
 40
0.0
 41
0.0
  0
VERTEX
  5
1A6
100
AcDbEntity
  8
1
  6
Continuous
 62
     6
 48
0.75
100
AcDbVertex
100
AcDb2dVertex
 10
-112.765292
 20
-382.88265
 30
0.0
 40
0.0
 41
0.0
  0
VERTEX
  5
1A7
100
AcDbEntity
  8
1
  6
Continuous
 62
     6
 48
0.75
100
AcDbVertex
100
AcDb2dVertex
 10
-133.815292
 20
-382.88265
 30
0.0
 40
0.0
 41
0.0
  0
VERTEX
  5
1A8
100
AcDbEntity
  8
1
  6
Continuous
 62
     6
 48
0.75
100
AcDbVertex
100
AcDb2dVertex
 10
-154.870292
 20
-382.88265
 30
0.0
 40
0.0
 41
0.0
  0
VERTEX
  5
1A9
100
AcDbEntity
  8
1
  6
Continuous
 62
     6
 48
0.75
100
AcDbVertex
100
AcDb2dVertex
 10
-196.975292
 20
-382.88265
 30
0.0
 40
0.0
 41
0.0
  0
VERTEX
  5
1AA
100
AcDbEntity
  8
1
  6
Continuous
 62
     6
 48
0.75
100
AcDbVertex
100
AcDb2dVertex
 10
-239.080292
 20
-382.88265
 30
0.0
 40
0.0
 41
0.0
  0
VERTEX
  5
1AB
100
AcDbEntity
  8
1
  6
Continuous
 62
     6
 48
0.75
100
AcDbVertex
100
AcDb2dVertex
 10
-281.185292
 20
-382.88265
 30
0.0
 40
0.0
 41
0.0
  0
VERTEX
  5
1AC
100
AcDbEntity
  8
1
  6
Continuous
 62
     6
 48
0.75
100
AcDbVertex
100
AcDb2dVertex
 10
-323.292792
 20
-382.88265
 30
0.0
 40
0.0
 41
0.0
  0
VERTEX
  5
1AD
100
AcDbEntity
  8
1
  6
Continuous
 62
     6
 48
0.75
100
AcDbVertex
100
AcDb2dVertex
 10
-365.397792
 20
-382.88265
 30
0.0
 40
0.0
 41
0.0
  0
VERTEX
  5
1AE
100
AcDbEntity
  8
1
  6
Continuous
 62
     6
 48
0.75
100
AcDbVertex
100
AcDb2dVertex
 10
-407.502792
 20
-382.88265
 30
0.0
 40
0.0
 41
0.0
  0
VERTEX
  5
1AF
100
AcDbEntity
  8
1
  6
Continuous
 62
     6
 48
0.75
100
AcDbVertex
100
AcDb2dVertex
 10
-449.607792
 20
-382.88265
 30
0.0
 40
0.0
 41
0.0
  0
VERTEX
  5
1B0
100
AcDbEntity
  8
1
  6
Continuous
 62
     6
 48
0.75
100
AcDbVertex
100
AcDb2dVertex
 10
-491.712792
 20
-382.88265
 30
0.0
 40
0.0
 41
0.0
  0
VERTEX
  5
1B1
100
AcDbEntity
  8
1
  6
Continuous
 62
     6
 48
0.75
100
AcDbVertex
100
AcDb2dVertex
 10
-533.817792
 20
-382.88265
 30
0.0
 40
0.0
 41
0.0
  0
VERTEX
  5
1B2
100
AcDbEntity
  8
1
  6
Continuous
 62
     6
 48
0.75
100
AcDbVertex
100
AcDb2dVertex
 10
-575.922792
 20
-382.88265
 30
0.0
 40
0.0
 41
0.0
  0
VERTEX
  5
1B3
100
AcDbEntity
  8
1
  6
Continuous
 62
     6
 48
0.75
100
AcDbVertex
100
AcDb2dVertex
 10
-618.027792
 20
-382.88265
 30
0.0
 40
0.0
 41
0.0
  0
VERTEX
  5
1B4
100
AcDbEntity
  8
1
  6
Continuous
 62
     6
 48
0.75
100
AcDbVertex
100
AcDb2dVertex
 10
-660.132792
 20
-382.88265
 30
0.0
 40
0.0
 41
0.0
  0
VERTEX
  5
1B5
100
AcDbEntity
  8
1
  6
Continuous
 62
     6
 48
0.75
100
AcDbVertex
100
AcDb2dVertex
 10
-702.237792
 20
-382.88265
 30
0.0
 40
0.0
 41
0.0
  0
VERTEX
  5
1B6
100
AcDbEntity
  8
1
  6
Continuous
 62
     6
 48
0.75
100
AcDbVertex
100
AcDb2dVertex
 10
-744.345292
 20
-382.88265
 30
0.0
 40
0.0
 41
0.0
  0
VERTEX
  5
1B7
100
AcDbEntity
  8
1
  6
Continuous
 62
     6
 48
0.75
100
AcDbVertex
100
AcDb2dVertex
 10
-786.450292
 20
-382.88265
 30
0.0
 40
0.0
 41
0.0
  0
VERTEX
  5
1B8
100
AcDbEntity
  8
1
  6
Continuous
 62
     6
 48
0.75
100
AcDbVertex
100
AcDb2dVertex
 10
-828.555292
 20
-382.88265
 30
0.0
 40
0.0
 41
0.0
  0
VERTEX
  5
1B9
100
AcDbEntity
  8
1
  6
Continuous
 62
     6
 48
0.75
100
AcDbVertex
100
AcDb2dVertex
 10
-870.660292
 20
-382.88265
 30
0.0
 40
0.0
 41
0.0
  0
VERTEX
  5
1BA
100
AcDbEntity
  8
1
  6
Continuous
 62
     6
 48
0.75
100
AcDbVertex
100
AcDb2dVertex
 10
-912.762792
 20
-382.88265
 30
0.0
 40
0.0
 41
0.0
  0
SEQEND
  5
1BB
100
AcDbEntity
  8
0
  0
POLYLINE
  5
1BC
100
AcDbEntity
  8
1
  6
Continuous
 62
     6
 48
0.75
100
AcDb2dPolyline
 66
     1
 10
0.0
 20
0.0
 30
0.0
 70
   128
  0
VERTEX
  5
1BD
100
AcDbEntity
  8
1
  6
Continuous
 62
     6
 48
0.75
100
AcDbVertex
100
AcDb2dVertex
 10
-70.262792
 20
-382.88265
 30
0.0
 40
0.0
 41
0.0
  0
VERTEX
  5
1BE
100
AcDbEntity
  8
1
  6
Continuous
 62
     6
 48
0.75
100
AcDbVertex
100
AcDb2dVertex
 10
-912.762792
 20
-382.88265
 30
0.0
 40
0.0
 41
0.0
  0
SEQEND
  5
1BF
100
AcDbEntity
  8
0
  0
POLYLINE
  5
1C0
100
AcDbEntity
  8
1
  6
Continuous
 62
     6
 48
0.75
100
AcDb2dPolyline
 66
     1
 10
0.0
 20
0.0
 30
0.0
 70
   128
  0
VERTEX
  5
1C1
100
AcDbEntity
  8
1
  6
Continuous
 62
     6
 48
0.75
100
AcDbVertex
100
AcDb2dVertex
 10
-70.262792
 20
-382.88265
 30
0.0
 40
0.0
 41
0.0
  0
VERTEX
  5
1C2
100
AcDbEntity
  8
1
  6
Continuous
 62
     6
 48
0.75
100
AcDbVertex
100
AcDb2dVertex
 10
-112.762792
 20
-382.88265
 30
0.0
 40
0.0
 41
0.0
  0
SEQEND
  5
1C3
100
AcDbEntity
  8
0
  0
POLYLINE
  5
1C4
100
AcDbEntity
  8
1
  6
Continuous
 62
     6
 48
0.75
100
AcDb2dPolyline
 66
     1
 10
0.0
 20
0.0
 30
0.0
 70
   128
  0
VERTEX
  5
1C5
100
AcDbEntity
  8
1
  6
Continuous
 62
     6
 48
0.75
100
AcDbVertex
100
AcDb2dVertex
 10
-112.765292
 20
-63.16265
 30
0.0
 40
0.0
 41
0.0
  0
VERTEX
  5
1C6
100
AcDbEntity
  8
1
  6
Continuous
 62
     6
 48
0.75
100
AcDbVertex
100
AcDb2dVertex
 10
-112.765292
 20
-132.88265
 30
0.0
 40
0.0
 41
0.0
  0
SEQEND
  5
1C7
100
AcDbEntity
  8
0
  0
POLYLINE
  5
1C8
100
AcDbEntity
  8
1
  6
Continuous
 62
     6
 48
0.75
100
AcDb2dPolyline
 66
     1
 10
0.0
 20
0.0
 30
0.0
 70
   128
  0
VERTEX
  5
1C9
100
AcDbEntity
  8
1
  6
Continuous
 62
     6
 48
0.75
100
AcDbVertex
100
AcDb2dVertex
 10
-133.815292
 20
-64.11265
 30
0.0
 40
0.0
 41
0.0
  0
VERTEX
  5
1CA
100
AcDbEntity
  8
1
  6
Continuous
 62
     6
 48
0.75
100
AcDbVertex
100
AcDb2dVertex
 10
-133.815292
 20
-152.35015
 30
0.0
 40
0.0
 41
0.0
  0
SEQEND
  5
1CB
100
AcDbEntity
  8
0
  0
POLYLINE
  5
1CC
100
AcDbEntity
  8
1
  6
Continuous
 62
     6
 48
0.75
100
AcDb2dPolyline
 66
     1
 10
0.0
 20
0.0
 30
0.0
 70
   128
  0
VERTEX
  5
1CD
100
AcDbEntity
  8
1
  6
Continuous
 62
     6
 48
0.75
100
AcDbVertex
100
AcDb2dVertex
 10
-154.870292
 20
-65.12265
 30
0.0
 40
0.0
 41
0.0
  0
VERTEX
  5
1CE
100
AcDbEntity
  8
1
  6
Continuous
 62
     6
 48
0.75
100
AcDbVertex
100
AcDb2dVertex
 10
-154.870292
 20
-161.22765
 30
0.0
 40
0.0
 41
0.0
  0
SEQEND
  5
1CF
100
AcDbEntity
  8
0
  0
POLYLINE
  5
1D0
100
AcDbEntity
  8
1
  6
Continuous
 62
     6
 48
0.75
100
AcDb2dPolyline
 66
     1
 10
0.0
 20
0.0
 30
0.0
 70
   128
  0
VERTEX
  5
1D1
100
AcDbEntity
  8
1
  6
Continuous
 62
     6
 48
0.75
100
AcDbVertex
100
AcDb2dVertex
 10
-196.975292
 20
-66.98515
 30
0.0
 40
0.0
 41
0.0
  0
VERTEX
  5
1D2
100
AcDbEntity
  8
1
  6
Continuous
 62
     6
 48
0.75
100
AcDbVertex
100
AcDb2dVertex
 10
-196.975292
 20
-166.08015
 30
0.0
 40
0.0
 41
0.0
  0
SEQEND
  5
1D3
100
AcDbEntity
  8
0
  0
POLYLINE
  5
1D4
100
AcDbEntity
  8
1
  6
Continuous
 62
     6
 48
0.75
100
AcDb2dPolyline
 66
     1
 10
0.0
 20
0.0
 30
0.0
 70
   128
  0
VERTEX
  5
1D5
100
AcDbEntity
  8
1
  6
Continuous
 62
     6
 48
0.75
100
AcDbVertex
100
AcDb2dVertex
 10
-239.080292
 20
-68.74515
 30
0.0
 40
0.0
 41
0.0
  0
VERTEX
  5
1D6
100
AcDbEntity
  8
1
  6
Continuous
 62
     6
 48
0.75
100
AcDbVertex
100
AcDb2dVertex
 10
-239.080292
 20
-166.14015
 30
0.0
 40
0.0
 41
0.0
  0
SEQEND
  5
1D7
100
AcDbEntity
  8
0
  0
POLYLINE
  5
1D8
100
AcDbEntity
  8
1
  6
Continuous
 62
     6
 48
0.75
100
AcDb2dPolyline
 66
     1
 10
0.0
 20
0.0
 30
0.0
 70
   128
  0
VERTEX
  5
1D9
100
AcDbEntity
  8
1
  6
Continuous
 62
     6
 48
0.75
100
AcDbVertex
100
AcDb2dVertex
 10
-281.185292
 20
-70.70515
 30
0.0
 40
0.0
 41
0.0
  0
VERTEX
  5
1DA
100
AcDbEntity
  8
1
  6
Continuous
 62
     6
 48
0.75
100
AcDbVertex
100
AcDb2dVertex
 10
-281.185292
 20
-165.56515
 30
0.0
 40
0.0
 41
0.0
  0
SEQEND
  5
1DB
100
AcDbEntity
  8
0
  0
POLYLINE
  5
1DC
100
AcDbEntity
  8
1
  6
Continuous
 62
     6
 48
0.75
100
AcDb2dPolyline
 66
     1
 10
0.0
 20
0.0
 30
0.0
 70
   128
  0
VERTEX
  5
1DD
100
AcDbEntity
  8
1
  6
Continuous
 62
     6
 48
0.75
100
AcDbVertex
100
AcDb2dVertex
 10
-323.292792
 20
-72.58265
 30
0.0
 40
0.0
 41
0.0
  0
VERTEX
  5
1DE
100
AcDbEntity
  8
1
  6
Continuous
 62
     6
 48
0.75
100
AcDbVertex
100
AcDb2dVertex
 10
-323.292792
 20
-164.89765
 30
0.0
 40
0.0
 41
0.0
  0
SEQEND
  5
1DF
100
AcDbEntity
  8
0
  0
POLYLINE
  5
1E0
100
AcDbEntity
  8
1
  6
Continuous
 62
     6
 48
0.75
100
AcDb2dPolyline
 66
     1
 10
0.0
 20
0.0
 30
0.0
 70
   128
  0
VERTEX
  5
1E1
100
AcDbEntity
  8
1
  6
Continuous
 62
     6
 48
0.75
100
AcDbVertex
100
AcDb2dVertex
 10
-365.397792
 20
-74.39265
 30
0.0
 40
0.0
 41
0.0
  0
VERTEX
  5
1E2
100
AcDbEntity
  8
1
  6
Continuous
 62
     6
 48
0.75
100
AcDbVertex
100
AcDb2dVertex
 10
-365.397792
 20
-164.00265
 30
0.0
 40
0.0
 41
0.0
  0
SEQEND
  5
1E3
100
AcDbEntity
  8
0
  0
POLYLINE
  5
1E4
100
AcDbEntity
  8
1
  6
Continuous
 62
     6
 48
0.75
100
AcDb2dPolyline
 66
     1
 10
0.0
 20
0.0
 30
0.0
 70
   128
  0
VERTEX
  5
1E5
100
AcDbEntity
  8
1
  6
Continuous
 62
     6
 48
0.75
100
AcDbVertex
100
AcDb2dVertex
 10
-407.502792
 20
-76.55265
 30
0.0
 40
0.0
 41
0.0
  0
VERTEX
  5
1E6
100
AcDbEntity
  8
1
  6
Continuous
 62
     6
 48
0.75
100
AcDbVertex
100
AcDb2dVertex
 10
-407.502792
 20
-163.53015
 30
0.0
 40
0.0
 41
0.0
  0
SEQEND
  5
1E7
100
AcDbEntity
  8
0
  0
POLYLINE
  5
1E8
100
AcDbEntity
  8
1
  6
Continuous
 62
     6
 48
0.75
100
AcDb2dPolyline
 66
     1
 10
0.0
 20
0.0
 30
0.0
 70
   128
  0
VERTEX
  5
1E9
100
AcDbEntity
  8
1
  6
Continuous
 62
     6
 48
0.75
100
AcDbVertex
100
AcDb2dVertex
 10
-449.607792
 20
-78.84265
 30
0.0
 40
0.0
 41
0.0
  0
VERTEX
  5
1EA
100
AcDbEntity
  8
1
  6
Continuous
 62
     6
 48
0.75
100
AcDbVertex
100
AcDb2dVertex
 10
-449.607792
 20
-163.07265
 30
0.0
 40
0.0
 41
0.0
  0
SEQEND
  5
1EB
100
AcDbEntity
  8
0
  0
POLYLINE
  5
1EC
100
AcDbEntity
  8
1
  6
Continuous
 62
     6
 48
0.75
100
AcDb2dPolyline
 66
     1
 10
0.0
 20
0.0
 30
0.0
 70
   128
  0
VERTEX
  5
1ED
100
AcDbEntity
  8
1
  6
Continuous
 62
     6
 48
0.75
100
AcDbVertex
100
AcDb2dVertex
 10
-491.712792
 20
-81.40015
 30
0.0
 40
0.0
 41
0.0
  0
VERTEX
  5
1EE
100
AcDbEntity
  8
1
  6
Continuous
 62
     6
 48
0.75
100
AcDbVertex
100
AcDb2dVertex
 10
-491.712792
 20
-162.75265
 30
0.0
 40
0.0
 41
0.0
  0
SEQEND
  5
1EF
100
AcDbEntity
  8
0
  0
POLYLINE
  5
1F0
100
AcDbEntity
  8
1
  6
Continuous
 62
     6
 48
0.75
100
AcDb2dPolyline
 66
     1
 10
0.0
 20
0.0
 30
0.0
 70
   128
  0
VERTEX
  5
1F1
100
AcDbEntity
  8
1
  6
Continuous
 62
     6
 48
0.75
100
AcDbVertex
100
AcDb2dVertex
 10
-533.817792
 20
-83.95765
 30
0.0
 40
0.0
 41
0.0
  0
VERTEX
  5
1F2
100
AcDbEntity
  8
1
  6
Continuous
 62
     6
 48
0.75
100
AcDbVertex
100
AcDb2dVertex
 10
-533.817792
 20
-162.20765
 30
0.0
 40
0.0
 41
0.0
  0
SEQEND
  5
1F3
100
AcDbEntity
  8
0
  0
POLYLINE
  5
1F4
100
AcDbEntity
  8
1
  6
Continuous
 62
     6
 48
0.75
100
AcDb2dPolyline
 66
     1
 10
0.0
 20
0.0
 30
0.0
 70
   128
  0
VERTEX
  5
1F5
100
AcDbEntity
  8
1
  6
Continuous
 62
     6
 48
0.75
100
AcDbVertex
100
AcDb2dVertex
 10
-575.922792
 20
-86.45015
 30
0.0
 40
0.0
 41
0.0
  0
VERTEX
  5
1F6
100
AcDbEntity
  8
1
  6
Continuous
 62
     6
 48
0.75
100
AcDbVertex
100
AcDb2dVertex
 10
-575.922792
 20
-161.52515
 30
0.0
 40
0.0
 41
0.0
  0
SEQEND
  5
1F7
100
AcDbEntity
  8
0
  0
POLYLINE
  5
1F8
100
AcDbEntity
  8
1
  6
Continuous
 62
     6
 48
0.75
100
AcDb2dPolyline
 66
     1
 10
0.0
 20
0.0
 30
0.0
 70
   128
  0
VERTEX
  5
1F9
100
AcDbEntity
  8
1
  6
Continuous
 62
     6
 48
0.75
100
AcDbVertex
100
AcDb2dVertex
 10
-618.027792
 20
-88.67515
 30
0.0
 40
0.0
 41
0.0
  0
VERTEX
  5
1FA
100
AcDbEntity
  8
1
  6
Continuous
 62
     6
 48
0.75
100
AcDbVertex
100
AcDb2dVertex
 10
-618.027792
 20
-160.83765
 30
0.0
 40
0.0
 41
0.0
  0
SEQEND
  5
1FB
100
AcDbEntity
  8
0
  0
POLYLINE
  5
1FC
100
AcDbEntity
  8
1
  6
Continuous
 62
     6
 48
0.75
100
AcDb2dPolyline
 66
     1
 10
0.0
 20
0.0
 30
0.0
 70
   128
  0
VERTEX
  5
1FD
100
AcDbEntity
  8
1
  6
Continuous
 62
     6
 48
0.75
100
AcDbVertex
100
AcDb2dVertex
 10
-660.132792
 20
-90.63515
 30
0.0
 40
0.0
 41
0.0
  0
VERTEX
  5
1FE
100
AcDbEntity
  8
1
  6
Continuous
 62
     6
 48
0.75
100
AcDbVertex
100
AcDb2dVertex
 10
-660.132792
 20
-160.01015
 30
0.0
 40
0.0
 41
0.0
  0
SEQEND
  5
1FF
100
AcDbEntity
  8
0
  0
POLYLINE
  5
200
100
AcDbEntity
  8
1
  6
Continuous
 62
     6
 48
0.75
100
AcDb2dPolyline
 66
     1
 10
0.0
 20
0.0
 30
0.0
 70
   128
  0
VERTEX
  5
201
100
AcDbEntity
  8
1
  6
Continuous
 62
     6
 48
0.75
100
AcDbVertex
100
AcDb2dVertex
 10
-702.237792
 20
-91.53265
 30
0.0
 40
0.0
 41
0.0
  0
VERTEX
  5
202
100
AcDbEntity
  8
1
  6
Continuous
 62
     6
 48
0.75
100
AcDbVertex
100
AcDb2dVertex
 10
-702.237792
 20
-159.44765
 30
0.0
 40
0.0
 41
0.0
  0
SEQEND
  5
203
100
AcDbEntity
  8
0
  0
POLYLINE
  5
204
100
AcDbEntity
  8
1
  6
Continuous
 62
     6
 48
0.75
100
AcDb2dPolyline
 66
     1
 10
0.0
 20
0.0
 30
0.0
 70
   128
  0
VERTEX
  5
205
100
AcDbEntity
  8
1
  6
Continuous
 62
     6
 48
0.75
100
AcDbVertex
100
AcDb2dVertex
 10
-744.345292
 20
-91.90015
 30
0.0
 40
0.0
 41
0.0
  0
VERTEX
  5
206
100
AcDbEntity
  8
1
  6
Continuous
 62
     6
 48
0.75
100
AcDbVertex
100
AcDb2dVertex
 10
-744.345292
 20
-158.21765
 30
0.0
 40
0.0
 41
0.0
  0
SEQEND
  5
207
100
AcDbEntity
  8
0
  0
POLYLINE
  5
208
100
AcDbEntity
  8
1
  6
Continuous
 62
     6
 48
0.75
100
AcDb2dPolyline
 66
     1
 10
0.0
 20
0.0
 30
0.0
 70
   128
  0
VERTEX
  5
209
100
AcDbEntity
  8
1
  6
Continuous
 62
     6
 48
0.75
100
AcDbVertex
100
AcDb2dVertex
 10
-786.450292
 20
-91.73515
 30
0.0
 40
0.0
 41
0.0
  0
VERTEX
  5
20A
100
AcDbEntity
  8
1
  6
Continuous
 62
     6
 48
0.75
100
AcDbVertex
100
AcDb2dVertex
 10
-786.450292
 20
-157.25515
 30
0.0
 40
0.0
 41
0.0
  0
SEQEND
  5
20B
100
AcDbEntity
  8
0
  0
POLYLINE
  5
20C
100
AcDbEntity
  8
1
  6
Continuous
 62
     6
 48
0.75
100
AcDb2dPolyline
 66
     1
 10
0.0
 20
0.0
 30
0.0
 70
   128
  0
VERTEX
  5
20D
100
AcDbEntity
  8
1
  6
Continuous
 62
     6
 48
0.75
100
AcDbVertex
100
AcDb2dVertex
 10
-828.555292
 20
-91.30515
 30
0.0
 40
0.0
 41
0.0
  0
VERTEX
  5
20E
100
AcDbEntity
  8
1
  6
Continuous
 62
     6
 48
0.75
100
AcDbVertex
100
AcDb2dVertex
 10
-828.555292
 20
-156.41765
 30
0.0
 40
0.0
 41
0.0
  0
SEQEND
  5
20F
100
AcDbEntity
  8
0
  0
POLYLINE
  5
210
100
AcDbEntity
  8
1
  6
Continuous
 62
     6
 48
0.75
100
AcDb2dPolyline
 66
     1
 10
0.0
 20
0.0
 30
0.0
 70
   128
  0
VERTEX
  5
211
100
AcDbEntity
  8
1
  6
Continuous
 62
     6
 48
0.75
100
AcDbVertex
100
AcDb2dVertex
 10
-870.660292
 20
-90.74015
 30
0.0
 40
0.0
 41
0.0
  0
VERTEX
  5
212
100
AcDbEntity
  8
1
  6
Continuous
 62
     6
 48
0.75
100
AcDbVertex
100
AcDb2dVertex
 10
-870.660292
 20
-155.58515
 30
0.0
 40
0.0
 41
0.0
  0
SEQEND
  5
213
100
AcDbEntity
  8
0
  0
POLYLINE
  5
214
100
AcDbEntity
  8
1
  6
Continuous
 62
     6
 48
0.75
100
AcDb2dPolyline
 66
     1
 10
0.0
 20
0.0
 30
0.0
 70
   128
  0
VERTEX
  5
215
100
AcDbEntity
  8
1
  6
Continuous
 62
     6
 48
0.75
100
AcDbVertex
100
AcDb2dVertex
 10
-912.762792
 20
-89.52515
 30
0.0
 40
0.0
 41
0.0
  0
VERTEX
  5
216
100
AcDbEntity
  8
1
  6
Continuous
 62
     6
 48
0.75
100
AcDbVertex
100
AcDb2dVertex
 10
-912.762792
 20
-155.12265
 30
0.0
 40
0.0
 41
0.0
  0
SEQEND
  5
217
100
AcDbEntity
  8
0
  0
POLYLINE
  5
218
100
AcDbEntity
  8
1
  6
Continuous
 62
     6
 48
0.75
100
AcDb2dPolyline
 66
     1
 10
0.0
 20
0.0
 30
0.0
 70
   128
  0
VERTEX
  5
219
100
AcDbEntity
  8
1
  6
Continuous
 62
     6
 48
0.75
100
AcDbVertex
100
AcDb2dVertex
 10
-70.262792
 20
-61.68015
 30
0.0
 40
0.0
 41
0.0
  0
VERTEX
  5
21A
100
AcDbEntity
  8
1
  6
Continuous
 62
     6
 48
0.75
100
AcDbVertex
100
AcDb2dVertex
 10
-70.617792
 20
-61.69265
 30
0.0
 40
0.0
 41
0.0
  0
VERTEX
  5
21B
100
AcDbEntity
  8
1
  6
Continuous
 62
     6
 48
0.75
100
AcDbVertex
100
AcDb2dVertex
 10
-71.670292
 20
-61.73015
 30
0.0
 40
0.0
 41
0.0
  0
VERTEX
  5
21C
100
AcDbEntity
  8
1
  6
Continuous
 62
     6
 48
0.75
100
AcDbVertex
100
AcDb2dVertex
 10
-73.395292
 20
-61.79015
 30
0.0
 40
0.0
 41
0.0
  0
VERTEX
  5
21D
100
AcDbEntity
  8
1
  6
Continuous
 62
     6
 48
0.75
100
AcDbVertex
100
AcDb2dVertex
 10
-75.752792
 20
-61.87265
 30
0.0
 40
0.0
 41
0.0
  0
VERTEX
  5
21E
100
AcDbEntity
  8
1
  6
Continuous
 62
     6
 48
0.75
100
AcDbVertex
100
AcDb2dVertex
 10
-78.682792
 20
-61.97265
 30
0.0
 40
0.0
 41
0.0
  0
VERTEX
  5
21F
100
AcDbEntity
  8
1
  6
Continuous
 62
     6
 48
0.75
100
AcDbVertex
100
AcDb2dVertex
 10
-82.112792
 20
-62.09265
 30
0.0
 40
0.0
 41
0.0
  0
VERTEX
  5
220
100
AcDbEntity
  8
1
  6
Continuous
 62
     6
 48
0.75
100
AcDbVertex
100
AcDb2dVertex
 10
-85.960292
 20
-62.22765
 30
0.0
 40
0.0
 41
0.0
  0
VERTEX
  5
221
100
AcDbEntity
  8
1
  6
Continuous
 62
     6
 48
0.75
100
AcDbVertex
100
AcDb2dVertex
 10
-112.765292
 20
-63.16265
 30
0.0
 40
0.0
 41
0.0
  0
VERTEX
  5
222
100
AcDbEntity
  8
1
  6
Continuous
 62
     6
 48
0.75
100
AcDbVertex
100
AcDb2dVertex
 10
-133.815292
 20
-64.11265
 30
0.0
 40
0.0
 41
0.0
  0
VERTEX
  5
223
100
AcDbEntity
  8
1
  6
Continuous
 62
     6
 48
0.75
100
AcDbVertex
100
AcDb2dVertex
 10
-154.870292
 20
-65.12265
 30
0.0
 40
0.0
 41
0.0
  0
VERTEX
  5
224
100
AcDbEntity
  8
1
  6
Continuous
 62
     6
 48
0.75
100
AcDbVertex
100
AcDb2dVertex
 10
-196.975292
 20
-66.98515
 30
0.0
 40
0.0
 41
0.0
  0
VERTEX
  5
225
100
AcDbEntity
  8
1
  6
Continuous
 62
     6
 48
0.75
100
AcDbVertex
100
AcDb2dVertex
 10
-239.080292
 20
-68.74515
 30
0.0
 40
0.0
 41
0.0
  0
VERTEX
  5
226
100
AcDbEntity
  8
1
  6
Continuous
 62
     6
 48
0.75
100
AcDbVertex
100
AcDb2dVertex
 10
-281.185292
 20
-70.70515
 30
0.0
 40
0.0
 41
0.0
  0
VERTEX
  5
227
100
AcDbEntity
  8
1
  6
Continuous
 62
     6
 48
0.75
100
AcDbVertex
100
AcDb2dVertex
 10
-323.292792
 20
-72.58265
 30
0.0
 40
0.0
 41
0.0
  0
VERTEX
  5
228
100
AcDbEntity
  8
1
  6
Continuous
 62
     6
 48
0.75
100
AcDbVertex
100
AcDb2dVertex
 10
-365.397792
 20
-74.39265
 30
0.0
 40
0.0
 41
0.0
  0
VERTEX
  5
229
100
AcDbEntity
  8
1
  6
Continuous
 62
     6
 48
0.75
100
AcDbVertex
100
AcDb2dVertex
 10
-407.502792
 20
-76.55265
 30
0.0
 40
0.0
 41
0.0
  0
VERTEX
  5
22A
100
AcDbEntity
  8
1
  6
Continuous
 62
     6
 48
0.75
100
AcDbVertex
100
AcDb2dVertex
 10
-449.607792
 20
-78.84265
 30
0.0
 40
0.0
 41
0.0
  0
VERTEX
  5
22B
100
AcDbEntity
  8
1
  6
Continuous
 62
     6
 48
0.75
100
AcDbVertex
100
AcDb2dVertex
 10
-491.712792
 20
-81.40015
 30
0.0
 40
0.0
 41
0.0
  0
VERTEX
  5
22C
100
AcDbEntity
  8
1
  6
Continuous
 62
     6
 48
0.75
100
AcDbVertex
100
AcDb2dVertex
 10
-533.817792
 20
-83.95765
 30
0.0
 40
0.0
 41
0.0
  0
VERTEX
  5
22D
100
AcDbEntity
  8
1
  6
Continuous
 62
     6
 48
0.75
100
AcDbVertex
100
AcDb2dVertex
 10
-575.922792
 20
-86.45015
 30
0.0
 40
0.0
 41
0.0
  0
VERTEX
  5
22E
100
AcDbEntity
  8
1
  6
Continuous
 62
     6
 48
0.75
100
AcDbVertex
100
AcDb2dVertex
 10
-618.027792
 20
-88.67515
 30
0.0
 40
0.0
 41
0.0
  0
VERTEX
  5
22F
100
AcDbEntity
  8
1
  6
Continuous
 62
     6
 48
0.75
100
AcDbVertex
100
AcDb2dVertex
 10
-660.132792
 20
-90.63515
 30
0.0
 40
0.0
 41
0.0
  0
VERTEX
  5
230
100
AcDbEntity
  8
1
  6
Continuous
 62
     6
 48
0.75
100
AcDbVertex
100
AcDb2dVertex
 10
-702.237792
 20
-91.53265
 30
0.0
 40
0.0
 41
0.0
  0
VERTEX
  5
231
100
AcDbEntity
  8
1
  6
Continuous
 62
     6
 48
0.75
100
AcDbVertex
100
AcDb2dVertex
 10
-744.345292
 20
-91.90015
 30
0.0
 40
0.0
 41
0.0
  0
VERTEX
  5
232
100
AcDbEntity
  8
1
  6
Continuous
 62
     6
 48
0.75
100
AcDbVertex
100
AcDb2dVertex
 10
-786.450292
 20
-91.73515
 30
0.0
 40
0.0
 41
0.0
  0
VERTEX
  5
233
100
AcDbEntity
  8
1
  6
Continuous
 62
     6
 48
0.75
100
AcDbVertex
100
AcDb2dVertex
 10
-828.555292
 20
-91.30515
 30
0.0
 40
0.0
 41
0.0
  0
VERTEX
  5
234
100
AcDbEntity
  8
1
  6
Continuous
 62
     6
 48
0.75
100
AcDbVertex
100
AcDb2dVertex
 10
-870.660292
 20
-90.74015
 30
0.0
 40
0.0
 41
0.0
  0
VERTEX
  5
235
100
AcDbEntity
  8
1
  6
Continuous
 62
     6
 48
0.75
100
AcDbVertex
100
AcDb2dVertex
 10
-912.762792
 20
-89.52515
 30
0.0
 40
0.0
 41
0.0
  0
SEQEND
  5
236
100
AcDbEntity
  8
0
  0
POLYLINE
  5
237
100
AcDbEntity
  8
1
  6
Continuous
 62
     6
 48
0.75
100
AcDb2dPolyline
 66
     1
 10
0.0
 20
0.0
 30
0.0
 70
   128
  0
VERTEX
  5
238
100
AcDbEntity
  8
1
  6
Continuous
 62
     6
 48
0.75
100
AcDbVertex
100
AcDb2dVertex
 10
-82.115292
 20
-81.46515
 30
0.0
 40
0.0
 41
0.0
  0
VERTEX
  5
239
100
AcDbEntity
  8
1
  6
Continuous
 62
     6
 48
0.75
100
AcDbVertex
100
AcDb2dVertex
 10
-82.267792
 20
-81.47265
 30
0.0
 40
0.0
 41
0.0
  0
VERTEX
  5
23A
100
AcDbEntity
  8
1
  6
Continuous
 62
     6
 48
0.75
100
AcDbVertex
100
AcDb2dVertex
 10
-82.720292
 20
-81.49265
 30
0.0
 40
0.0
 41
0.0
  0
VERTEX
  5
23B
100
AcDbEntity
  8
1
  6
Continuous
 62
     6
 48
0.75
100
AcDbVertex
100
AcDb2dVertex
 10
-83.465292
 20
-81.52765
 30
0.0
 40
0.0
 41
0.0
  0
VERTEX
  5
23C
100
AcDbEntity
  8
1
  6
Continuous
 62
     6
 48
0.75
100
AcDbVertex
100
AcDb2dVertex
 10
-84.477792
 20
-81.57515
 30
0.0
 40
0.0
 41
0.0
  0
VERTEX
  5
23D
100
AcDbEntity
  8
1
  6
Continuous
 62
     6
 48
0.75
100
AcDbVertex
100
AcDb2dVertex
 10
-85.740292
 20
-81.63265
 30
0.0
 40
0.0
 41
0.0
  0
VERTEX
  5
23E
100
AcDbEntity
  8
1
  6
Continuous
 62
     6
 48
0.75
100
AcDbVertex
100
AcDb2dVertex
 10
-87.215292
 20
-81.70015
 30
0.0
 40
0.0
 41
0.0
  0
VERTEX
  5
23F
100
AcDbEntity
  8
1
  6
Continuous
 62
     6
 48
0.75
100
AcDbVertex
100
AcDb2dVertex
 10
-112.765292
 20
-82.88265
 30
0.0
 40
0.0
 41
0.0
  0
VERTEX
  5
240
100
AcDbEntity
  8
1
  6
Continuous
 62
     6
 48
0.75
100
AcDbVertex
100
AcDb2dVertex
 10
-133.815292
 20
-83.88015
 30
0.0
 40
0.0
 41
0.0
  0
VERTEX
  5
241
100
AcDbEntity
  8
1
  6
Continuous
 62
     6
 48
0.75
100
AcDbVertex
100
AcDb2dVertex
 10
-154.870292
 20
-84.87515
 30
0.0
 40
0.0
 41
0.0
  0
VERTEX
  5
242
100
AcDbEntity
  8
1
  6
Continuous
 62
     6
 48
0.75
100
AcDbVertex
100
AcDb2dVertex
 10
-196.975292
 20
-86.87015
 30
0.0
 40
0.0
 41
0.0
  0
VERTEX
  5
243
100
AcDbEntity
  8
1
  6
Continuous
 62
     6
 48
0.75
100
AcDbVertex
100
AcDb2dVertex
 10
-239.080292
 20
-88.89515
 30
0.0
 40
0.0
 41
0.0
  0
VERTEX
  5
244
100
AcDbEntity
  8
1
  6
Continuous
 62
     6
 48
0.75
100
AcDbVertex
100
AcDb2dVertex
 10
-281.185292
 20
-91.05515
 30
0.0
 40
0.0
 41
0.0
  0
VERTEX
  5
245
100
AcDbEntity
  8
1
  6
Continuous
 62
     6
 48
0.75
100
AcDbVertex
100
AcDb2dVertex
 10
-323.292792
 20
-93.01515
 30
0.0
 40
0.0
 41
0.0
  0
VERTEX
  5
246
100
AcDbEntity
  8
1
  6
Continuous
 62
     6
 48
0.75
100
AcDbVertex
100
AcDb2dVertex
 10
-365.397792
 20
-95.24015
 30
0.0
 40
0.0
 41
0.0
  0
VERTEX
  5
247
100
AcDbEntity
  8
1
  6
Continuous
 62
     6
 48
0.75
100
AcDbVertex
100
AcDb2dVertex
 10
-407.502792
 20
-97.46515
 30
0.0
 40
0.0
 41
0.0
  0
VERTEX
  5
248
100
AcDbEntity
  8
1
  6
Continuous
 62
     6
 48
0.75
100
AcDbVertex
100
AcDb2dVertex
 10
-449.607792
 20
-99.55765
 30
0.0
 40
0.0
 41
0.0
  0
VERTEX
  5
249
100
AcDbEntity
  8
1
  6
Continuous
 62
     6
 48
0.75
100
AcDbVertex
100
AcDb2dVertex
 10
-491.712792
 20
-101.78265
 30
0.0
 40
0.0
 41
0.0
  0
VERTEX
  5
24A
100
AcDbEntity
  8
1
  6
Continuous
 62
     6
 48
0.75
100
AcDbVertex
100
AcDb2dVertex
 10
-533.817792
 20
-104.40765
 30
0.0
 40
0.0
 41
0.0
  0
VERTEX
  5
24B
100
AcDbEntity
  8
1
  6
Continuous
 62
     6
 48
0.75
100
AcDbVertex
100
AcDb2dVertex
 10
-575.922792
 20
-107.16515
 30
0.0
 40
0.0
 41
0.0
  0
VERTEX
  5
24C
100
AcDbEntity
  8
1
  6
Continuous
 62
     6
 48
0.75
100
AcDbVertex
100
AcDb2dVertex
 10
-618.027792
 20
-109.39015
 30
0.0
 40
0.0
 41
0.0
  0
VERTEX
  5
24D
100
AcDbEntity
  8
1
  6
Continuous
 62
     6
 48
0.75
100
AcDbVertex
100
AcDb2dVertex
 10
-660.132792
 20
-110.28765
 30
0.0
 40
0.0
 41
0.0
  0
VERTEX
  5
24E
100
AcDbEntity
  8
1
  6
Continuous
 62
     6
 48
0.75
100
AcDbVertex
100
AcDb2dVertex
 10
-702.237792
 20
-110.38765
 30
0.0
 40
0.0
 41
0.0
  0
VERTEX
  5
24F
100
AcDbEntity
  8
1
  6
Continuous
 62
     6
 48
0.75
100
AcDbVertex
100
AcDb2dVertex
 10
-744.345292
 20
-110.38765
 30
0.0
 40
0.0
 41
0.0
  0
VERTEX
  5
250
100
AcDbEntity
  8
1
  6
Continuous
 62
     6
 48
0.75
100
AcDbVertex
100
AcDb2dVertex
 10
-786.450292
 20
-110.38765
 30
0.0
 40
0.0
 41
0.0
  0
VERTEX
  5
251
100
AcDbEntity
  8
1
  6
Continuous
 62
     6
 48
0.75
100
AcDbVertex
100
AcDb2dVertex
 10
-828.555292
 20
-110.38765
 30
0.0
 40
0.0
 41
0.0
  0
VERTEX
  5
252
100
AcDbEntity
  8
1
  6
Continuous
 62
     6
 48
0.75
100
AcDbVertex
100
AcDb2dVertex
 10
-870.660292
 20
-110.38765
 30
0.0
 40
0.0
 41
0.0
  0
VERTEX
  5
253
100
AcDbEntity
  8
1
  6
Continuous
 62
     6
 48
0.75
100
AcDbVertex
100
AcDb2dVertex
 10
-912.762792
 20
-110.38765
 30
0.0
 40
0.0
 41
0.0
  0
SEQEND
  5
254
100
AcDbEntity
  8
0
  0
POLYLINE
  5
255
100
AcDbEntity
  8
1
  6
Continuous
 62
     6
 48
0.75
100
AcDb2dPolyline
 66
     1
 10
0.0
 20
0.0
 30
0.0
 70
   128
  0
VERTEX
  5
256
100
AcDbEntity
  8
1
  6
Continuous
 62
     6
 48
0.75
100
AcDbVertex
100
AcDb2dVertex
 10
-102.762792
 20
-116.35265
 30
0.0
 40
0.0
 41
0.0
  0
VERTEX
  5
257
100
AcDbEntity
  8
1
  6
Continuous
 62
     6
 48
0.75
100
AcDbVertex
100
AcDb2dVertex
 10
-102.792792
 20
-116.35515
 30
0.0
 40
0.0
 41
0.0
  0
VERTEX
  5
258
100
AcDbEntity
  8
1
  6
Continuous
 62
     6
 48
0.75
100
AcDbVertex
100
AcDb2dVertex
 10
-102.882792
 20
-116.36265
 30
0.0
 40
0.0
 41
0.0
  0
VERTEX
  5
259
100
AcDbEntity
  8
1
  6
Continuous
 62
     6
 48
0.75
100
AcDbVertex
100
AcDb2dVertex
 10
-103.032792
 20
-116.37265
 30
0.0
 40
0.0
 41
0.0
  0
VERTEX
  5
25A
100
AcDbEntity
  8
1
  6
Continuous
 62
     6
 48
0.75
100
AcDbVertex
100
AcDb2dVertex
 10
-103.235292
 20
-116.38765
 30
0.0
 40
0.0
 41
0.0
  0
VERTEX
  5
25B
100
AcDbEntity
  8
1
  6
Continuous
 62
     6
 48
0.75
100
AcDbVertex
100
AcDb2dVertex
 10
-103.487792
 20
-116.40515
 30
0.0
 40
0.0
 41
0.0
  0
VERTEX
  5
25C
100
AcDbEntity
  8
1
  6
Continuous
 62
     6
 48
0.75
100
AcDbVertex
100
AcDb2dVertex
 10
-103.782792
 20
-116.42765
 30
0.0
 40
0.0
 41
0.0
  0
VERTEX
  5
25D
100
AcDbEntity
  8
1
  6
Continuous
 62
     6
 48
0.75
100
AcDbVertex
100
AcDb2dVertex
 10
-104.115292
 20
-116.45265
 30
0.0
 40
0.0
 41
0.0
  0
VERTEX
  5
25E
100
AcDbEntity
  8
1
  6
Continuous
 62
     6
 48
0.75
100
AcDbVertex
100
AcDb2dVertex
 10
-112.765292
 20
-117.08765
 30
0.0
 40
0.0
 41
0.0
  0
VERTEX
  5
25F
100
AcDbEntity
  8
1
  6
Continuous
 62
     6
 48
0.75
100
AcDbVertex
100
AcDb2dVertex
 10
-133.815292
 20
-118.74015
 30
0.0
 40
0.0
 41
0.0
  0
VERTEX
  5
260
100
AcDbEntity
  8
1
  6
Continuous
 62
     6
 48
0.75
100
AcDbVertex
100
AcDb2dVertex
 10
-154.870292
 20
-120.59515
 30
0.0
 40
0.0
 41
0.0
  0
VERTEX
  5
261
100
AcDbEntity
  8
1
  6
Continuous
 62
     6
 48
0.75
100
AcDbVertex
100
AcDb2dVertex
 10
-196.975292
 20
-124.19015
 30
0.0
 40
0.0
 41
0.0
  0
VERTEX
  5
262
100
AcDbEntity
  8
1
  6
Continuous
 62
     6
 48
0.75
100
AcDbVertex
100
AcDb2dVertex
 10
-239.080292
 20
-127.76515
 30
0.0
 40
0.0
 41
0.0
  0
VERTEX
  5
263
100
AcDbEntity
  8
1
  6
Continuous
 62
     6
 48
0.75
100
AcDbVertex
100
AcDb2dVertex
 10
-281.185292
 20
-130.95015
 30
0.0
 40
0.0
 41
0.0
  0
VERTEX
  5
264
100
AcDbEntity
  8
1
  6
Continuous
 62
     6
 48
0.75
100
AcDbVertex
100
AcDb2dVertex
 10
-323.292792
 20
-134.08265
 30
0.0
 40
0.0
 41
0.0
  0
VERTEX
  5
265
100
AcDbEntity
  8
1
  6
Continuous
 62
     6
 48
0.75
100
AcDbVertex
100
AcDb2dVertex
 10
-365.397792
 20
-136.83265
 30
0.0
 40
0.0
 41
0.0
  0
VERTEX
  5
266
100
AcDbEntity
  8
1
  6
Continuous
 62
     6
 48
0.75
100
AcDbVertex
100
AcDb2dVertex
 10
-407.502792
 20
-139.48765
 30
0.0
 40
0.0
 41
0.0
  0
VERTEX
  5
267
100
AcDbEntity
  8
1
  6
Continuous
 62
     6
 48
0.75
100
AcDbVertex
100
AcDb2dVertex
 10
-449.607792
 20
-141.76765
 30
0.0
 40
0.0
 41
0.0
  0
VERTEX
  5
268
100
AcDbEntity
  8
1
  6
Continuous
 62
     6
 48
0.75
100
AcDbVertex
100
AcDb2dVertex
 10
-491.712792
 20
-143.63015
 30
0.0
 40
0.0
 41
0.0
  0
VERTEX
  5
269
100
AcDbEntity
  8
1
  6
Continuous
 62
     6
 48
0.75
100
AcDbVertex
100
AcDb2dVertex
 10
-533.817792
 20
-145.06765
 30
0.0
 40
0.0
 41
0.0
  0
VERTEX
  5
26A
100
AcDbEntity
  8
1
  6
Continuous
 62
     6
 48
0.75
100
AcDbVertex
100
AcDb2dVertex
 10
-575.922792
 20
-146.12265
 30
0.0
 40
0.0
 41
0.0
  0
VERTEX
  5
26B
100
AcDbEntity
  8
1
  6
Continuous
 62
     6
 48
0.75
100
AcDbVertex
100
AcDb2dVertex
 10
-618.027792
 20
-147.02765
 30
0.0
 40
0.0
 41
0.0
  0
VERTEX
  5
26C
100
AcDbEntity
  8
1
  6
Continuous
 62
     6
 48
0.75
100
AcDbVertex
100
AcDb2dVertex
 10
-660.132792
 20
-147.66265
 30
0.0
 40
0.0
 41
0.0
  0
VERTEX
  5
26D
100
AcDbEntity
  8
1
  6
Continuous
 62
     6
 48
0.75
100
AcDbVertex
100
AcDb2dVertex
 10
-702.237792
 20
-148.22765
 30
0.0
 40
0.0
 41
0.0
  0
VERTEX
  5
26E
100
AcDbEntity
  8
1
  6
Continuous
 62
     6
 48
0.75
100
AcDbVertex
100
AcDb2dVertex
 10
-744.345292
 20
-148.65765
 30
0.0
 40
0.0
 41
0.0
  0
VERTEX
  5
26F
100
AcDbEntity
  8
1
  6
Continuous
 62
     6
 48
0.75
100
AcDbVertex
100
AcDb2dVertex
 10
-786.450292
 20
-149.02265
 30
0.0
 40
0.0
 41
0.0
  0
VERTEX
  5
270
100
AcDbEntity
  8
1
  6
Continuous
 62
     6
 48
0.75
100
AcDbVertex
100
AcDb2dVertex
 10
-828.555292
 20
-149.51265
 30
0.0
 40
0.0
 41
0.0
  0
VERTEX
  5
271
100
AcDbEntity
  8
1
  6
Continuous
 62
     6
 48
0.75
100
AcDbVertex
100
AcDb2dVertex
 10
-870.660292
 20
-150.00765
 30
0.0
 40
0.0
 41
0.0
  0
VERTEX
  5
272
100
AcDbEntity
  8
1
  6
Continuous
 62
     6
 48
0.75
100
AcDbVertex
100
AcDb2dVertex
 10
-912.762792
 20
-150.45265
 30
0.0
 40
0.0
 41
0.0
  0
SEQEND
  5
273
100
AcDbEntity
  8
0
  0
POLYLINE
  5
274
100
AcDbEntity
  8
1
  6
Continuous
 62
     6
 48
0.75
100
AcDb2dPolyline
 66
     1
 10
0.0
 20
0.0
 30
0.0
 70
   128
  0
VERTEX
  5
275
100
AcDbEntity
  8
1
  6
Continuous
 62
     6
 48
0.75
100
AcDbVertex
100
AcDb2dVertex
 10
-112.762792
 20
-132.88265
 30
0.0
 40
0.0
 41
0.0
  0
VERTEX
  5
276
100
AcDbEntity
  8
1
  6
Continuous
 62
     6
 48
0.75
100
AcDbVertex
100
AcDb2dVertex
 10
-112.765292
 20
-132.88265
 30
0.0
 40
0.0
 41
0.0
  0
VERTEX
  5
277
100
AcDbEntity
  8
1
  6
Continuous
 62
     6
 48
0.75
100
AcDbVertex
100
AcDb2dVertex
 10
-133.815292
 20
-152.35015
 30
0.0
 40
0.0
 41
0.0
  0
VERTEX
  5
278
100
AcDbEntity
  8
1
  6
Continuous
 62
     6
 48
0.75
100
AcDbVertex
100
AcDb2dVertex
 10
-154.870292
 20
-161.22765
 30
0.0
 40
0.0
 41
0.0
  0
VERTEX
  5
279
100
AcDbEntity
  8
1
  6
Continuous
 62
     6
 48
0.75
100
AcDbVertex
100
AcDb2dVertex
 10
-196.975292
 20
-166.08015
 30
0.0
 40
0.0
 41
0.0
  0
VERTEX
  5
27A
100
AcDbEntity
  8
1
  6
Continuous
 62
     6
 48
0.75
100
AcDbVertex
100
AcDb2dVertex
 10
-239.080292
 20
-166.14015
 30
0.0
 40
0.0
 41
0.0
  0
VERTEX
  5
27B
100
AcDbEntity
  8
1
  6
Continuous
 62
     6
 48
0.75
100
AcDbVertex
100
AcDb2dVertex
 10
-281.185292
 20
-165.56515
 30
0.0
 40
0.0
 41
0.0
  0
VERTEX
  5
27C
100
AcDbEntity
  8
1
  6
Continuous
 62
     6
 48
0.75
100
AcDbVertex
100
AcDb2dVertex
 10
-323.292792
 20
-164.89765
 30
0.0
 40
0.0
 41
0.0
  0
VERTEX
  5
27D
100
AcDbEntity
  8
1
  6
Continuous
 62
     6
 48
0.75
100
AcDbVertex
100
AcDb2dVertex
 10
-365.397792
 20
-164.00265
 30
0.0
 40
0.0
 41
0.0
  0
VERTEX
  5
27E
100
AcDbEntity
  8
1
  6
Continuous
 62
     6
 48
0.75
100
AcDbVertex
100
AcDb2dVertex
 10
-407.502792
 20
-163.53015
 30
0.0
 40
0.0
 41
0.0
  0
VERTEX
  5
27F
100
AcDbEntity
  8
1
  6
Continuous
 62
     6
 48
0.75
100
AcDbVertex
100
AcDb2dVertex
 10
-449.607792
 20
-163.07265
 30
0.0
 40
0.0
 41
0.0
  0
VERTEX
  5
280
100
AcDbEntity
  8
1
  6
Continuous
 62
     6
 48
0.75
100
AcDbVertex
100
AcDb2dVertex
 10
-491.712792
 20
-162.75265
 30
0.0
 40
0.0
 41
0.0
  0
VERTEX
  5
281
100
AcDbEntity
  8
1
  6
Continuous
 62
     6
 48
0.75
100
AcDbVertex
100
AcDb2dVertex
 10
-533.817792
 20
-162.20765
 30
0.0
 40
0.0
 41
0.0
  0
VERTEX
  5
282
100
AcDbEntity
  8
1
  6
Continuous
 62
     6
 48
0.75
100
AcDbVertex
100
AcDb2dVertex
 10
-575.922792
 20
-161.52515
 30
0.0
 40
0.0
 41
0.0
  0
VERTEX
  5
283
100
AcDbEntity
  8
1
  6
Continuous
 62
     6
 48
0.75
100
AcDbVertex
100
AcDb2dVertex
 10
-618.027792
 20
-160.83765
 30
0.0
 40
0.0
 41
0.0
  0
VERTEX
  5
284
100
AcDbEntity
  8
1
  6
Continuous
 62
     6
 48
0.75
100
AcDbVertex
100
AcDb2dVertex
 10
-660.132792
 20
-160.01015
 30
0.0
 40
0.0
 41
0.0
  0
VERTEX
  5
285
100
AcDbEntity
  8
1
  6
Continuous
 62
     6
 48
0.75
100
AcDbVertex
100
AcDb2dVertex
 10
-702.237792
 20
-159.44765
 30
0.0
 40
0.0
 41
0.0
  0
VERTEX
  5
286
100
AcDbEntity
  8
1
  6
Continuous
 62
     6
 48
0.75
100
AcDbVertex
100
AcDb2dVertex
 10
-744.345292
 20
-158.21765
 30
0.0
 40
0.0
 41
0.0
  0
VERTEX
  5
287
100
AcDbEntity
  8
1
  6
Continuous
 62
     6
 48
0.75
100
AcDbVertex
100
AcDb2dVertex
 10
-786.450292
 20
-157.25515
 30
0.0
 40
0.0
 41
0.0
  0
VERTEX
  5
288
100
AcDbEntity
  8
1
  6
Continuous
 62
     6
 48
0.75
100
AcDbVertex
100
AcDb2dVertex
 10
-828.555292
 20
-156.41765
 30
0.0
 40
0.0
 41
0.0
  0
VERTEX
  5
289
100
AcDbEntity
  8
1
  6
Continuous
 62
     6
 48
0.75
100
AcDbVertex
100
AcDb2dVertex
 10
-870.660292
 20
-155.58515
 30
0.0
 40
0.0
 41
0.0
  0
VERTEX
  5
28A
100
AcDbEntity
  8
1
  6
Continuous
 62
     6
 48
0.75
100
AcDbVertex
100
AcDb2dVertex
 10
-912.762792
 20
-155.12265
 30
0.0
 40
0.0
 41
0.0
  0
SEQEND
  5
28B
100
AcDbEntity
  8
0
  0
POLYLINE
  5
28C
100
AcDbEntity
  8
1
  6
Continuous
 62
     6
 48
0.75
100
AcDb2dPolyline
 66
     1
 10
0.0
 20
0.0
 30
0.0
 70
   128
  0
VERTEX
  5
28D
100
AcDbEntity
  8
1
  6
Continuous
 62
     6
 48
0.75
100
AcDbVertex
100
AcDb2dVertex
 10
-70.262792
 20
-61.68015
 30
0.0
 40
0.0
 41
0.0
  0
VERTEX
  5
28E
100
AcDbEntity
  8
1
  6
Continuous
 62
     6
 48
0.75
100
AcDbVertex
100
AcDb2dVertex
 10
-82.115292
 20
-81.46515
 30
0.0
 40
0.0
 41
0.0
  0
VERTEX
  5
28F
100
AcDbEntity
  8
1
  6
Continuous
 62
     6
 48
0.75
100
AcDbVertex
100
AcDb2dVertex
 10
-102.762792
 20
-116.35265
 30
0.0
 40
0.0
 41
0.0
  0
VERTEX
  5
290
100
AcDbEntity
  8
1
  6
Continuous
 62
     6
 48
0.75
100
AcDbVertex
100
AcDb2dVertex
 10
-112.762792
 20
-132.88265
 30
0.0
 40
0.0
 41
0.0
  0
SEQEND
  5
291
100
AcDbEntity
  8
0
  0
POLYLINE
  5
292
100
AcDbEntity
  8
1
  6
Continuous
 62
     6
 48
0.75
100
AcDb2dPolyline
 66
     1
 10
0.0
 20
0.0
 30
0.0
 70
   128
  0
VERTEX
  5
293
100
AcDbEntity
  8
1
  6
Continuous
 62
     6
 48
0.75
100
AcDbVertex
100
AcDb2dVertex
 10
-1087.762792
 20
-61.68015
 30
0.0
 40
0.0
 41
0.0
  0
VERTEX
  5
294
100
AcDbEntity
  8
1
  6
Continuous
 62
     6
 48
0.75
100
AcDbVertex
100
AcDb2dVertex
 10
-1083.265292
 20
-61.69265
 30
0.0
 40
0.0
 41
0.0
  0
VERTEX
  5
295
100
AcDbEntity
  8
1
  6
Continuous
 62
     6
 48
0.75
100
AcDbVertex
100
AcDb2dVertex
 10
-1078.877792
 20
-61.73015
 30
0.0
 40
0.0
 41
0.0
  0
VERTEX
  5
296
100
AcDbEntity
  8
1
  6
Continuous
 62
     6
 48
0.75
100
AcDbVertex
100
AcDb2dVertex
 10
-1074.710292
 20
-61.79015
 30
0.0
 40
0.0
 41
0.0
  0
VERTEX
  5
297
100
AcDbEntity
  8
1
  6
Continuous
 62
     6
 48
0.75
100
AcDbVertex
100
AcDb2dVertex
 10
-1070.862792
 20
-61.87265
 30
0.0
 40
0.0
 41
0.0
  0
VERTEX
  5
298
100
AcDbEntity
  8
1
  6
Continuous
 62
     6
 48
0.75
100
AcDbVertex
100
AcDb2dVertex
 10
-1067.432792
 20
-61.97265
 30
0.0
 40
0.0
 41
0.0
  0
VERTEX
  5
299
100
AcDbEntity
  8
1
  6
Continuous
 62
     6
 48
0.75
100
AcDbVertex
100
AcDb2dVertex
 10
-1064.502792
 20
-62.09265
 30
0.0
 40
0.0
 41
0.0
  0
VERTEX
  5
29A
100
AcDbEntity
  8
1
  6
Continuous
 62
     6
 48
0.75
100
AcDbVertex
100
AcDb2dVertex
 10
-1062.145292
 20
-62.22765
 30
0.0
 40
0.0
 41
0.0
  0
VERTEX
  5
29B
100
AcDbEntity
  8
1
  6
Continuous
 62
     6
 48
0.75
100
AcDbVertex
100
AcDb2dVertex
 10
-1051.687792
 20
-63.16265
 30
0.0
 40
0.0
 41
0.0
  0
VERTEX
  5
29C
100
AcDbEntity
  8
1
  6
Continuous
 62
     6
 48
0.75
100
AcDbVertex
100
AcDb2dVertex
 10
-1046.672792
 20
-64.11265
 30
0.0
 40
0.0
 41
0.0
  0
VERTEX
  5
29D
100
AcDbEntity
  8
1
  6
Continuous
 62
     6
 48
0.75
100
AcDbVertex
100
AcDb2dVertex
 10
-1042.302792
 20
-65.12265
 30
0.0
 40
0.0
 41
0.0
  0
VERTEX
  5
29E
100
AcDbEntity
  8
1
  6
Continuous
 62
     6
 48
0.75
100
AcDbVertex
100
AcDb2dVertex
 10
-1034.580292
 20
-66.98515
 30
0.0
 40
0.0
 41
0.0
  0
VERTEX
  5
29F
100
AcDbEntity
  8
1
  6
Continuous
 62
     6
 48
0.75
100
AcDbVertex
100
AcDb2dVertex
 10
-1028.865292
 20
-68.74515
 30
0.0
 40
0.0
 41
0.0
  0
VERTEX
  5
2A0
100
AcDbEntity
  8
1
  6
Continuous
 62
     6
 48
0.75
100
AcDbVertex
100
AcDb2dVertex
 10
-1024.467792
 20
-70.70515
 30
0.0
 40
0.0
 41
0.0
  0
VERTEX
  5
2A1
100
AcDbEntity
  8
1
  6
Continuous
 62
     6
 48
0.75
100
AcDbVertex
100
AcDb2dVertex
 10
-1020.507792
 20
-72.58265
 30
0.0
 40
0.0
 41
0.0
  0
VERTEX
  5
2A2
100
AcDbEntity
  8
1
  6
Continuous
 62
     6
 48
0.75
100
AcDbVertex
100
AcDb2dVertex
 10
-1017.585292
 20
-74.39265
 30
0.0
 40
0.0
 41
0.0
  0
VERTEX
  5
2A3
100
AcDbEntity
  8
1
  6
Continuous
 62
     6
 48
0.75
100
AcDbVertex
100
AcDb2dVertex
 10
-1015.600292
 20
-76.55265
 30
0.0
 40
0.0
 41
0.0
  0
VERTEX
  5
2A4
100
AcDbEntity
  8
1
  6
Continuous
 62
     6
 48
0.75
100
AcDbVertex
100
AcDb2dVertex
 10
-1015.422792
 20
-78.84265
 30
0.0
 40
0.0
 41
0.0
  0
VERTEX
  5
2A5
100
AcDbEntity
  8
1
  6
Continuous
 62
     6
 48
0.75
100
AcDbVertex
100
AcDb2dVertex
 10
-1015.262792
 20
-81.40015
 30
0.0
 40
0.0
 41
0.0
  0
VERTEX
  5
2A6
100
AcDbEntity
  8
1
  6
Continuous
 62
     6
 48
0.75
100
AcDbVertex
100
AcDb2dVertex
 10
-1015.617792
 20
-83.95765
 30
0.0
 40
0.0
 41
0.0
  0
VERTEX
  5
2A7
100
AcDbEntity
  8
1
  6
Continuous
 62
     6
 48
0.75
100
AcDbVertex
100
AcDb2dVertex
 10
-1016.255292
 20
-86.45015
 30
0.0
 40
0.0
 41
0.0
  0
VERTEX
  5
2A8
100
AcDbEntity
  8
1
  6
Continuous
 62
     6
 48
0.75
100
AcDbVertex
100
AcDb2dVertex
 10
-1017.257792
 20
-88.67515
 30
0.0
 40
0.0
 41
0.0
  0
VERTEX
  5
2A9
100
AcDbEntity
  8
1
  6
Continuous
 62
     6
 48
0.75
100
AcDbVertex
100
AcDb2dVertex
 10
-1017.952792
 20
-90.63515
 30
0.0
 40
0.0
 41
0.0
  0
VERTEX
  5
2AA
100
AcDbEntity
  8
1
  6
Continuous
 62
     6
 48
0.75
100
AcDbVertex
100
AcDb2dVertex
 10
-1019.197792
 20
-91.53265
 30
0.0
 40
0.0
 41
0.0
  0
VERTEX
  5
2AB
100
AcDbEntity
  8
1
  6
Continuous
 62
     6
 48
0.75
100
AcDbVertex
100
AcDb2dVertex
 10
-1020.217792
 20
-91.90015
 30
0.0
 40
0.0
 41
0.0
  0
VERTEX
  5
2AC
100
AcDbEntity
  8
1
  6
Continuous
 62
     6
 48
0.75
100
AcDbVertex
100
AcDb2dVertex
 10
-1021.617792
 20
-91.73515
 30
0.0
 40
0.0
 41
0.0
  0
VERTEX
  5
2AD
100
AcDbEntity
  8
1
  6
Continuous
 62
     6
 48
0.75
100
AcDbVertex
100
AcDb2dVertex
 10
-1022.620292
 20
-91.30515
 30
0.0
 40
0.0
 41
0.0
  0
VERTEX
  5
2AE
100
AcDbEntity
  8
1
  6
Continuous
 62
     6
 48
0.75
100
AcDbVertex
100
AcDb2dVertex
 10
-1024.275292
 20
-90.74015
 30
0.0
 40
0.0
 41
0.0
  0
VERTEX
  5
2AF
100
AcDbEntity
  8
1
  6
Continuous
 62
     6
 48
0.75
100
AcDbVertex
100
AcDb2dVertex
 10
-1025.912792
 20
-89.52515
 30
0.0
 40
0.0
 41
0.0
  0
SEQEND
  5
2B0
100
AcDbEntity
  8
0
  0
POLYLINE
  5
2B1
100
AcDbEntity
  8
1
  6
Continuous
 62
     6
 48
0.75
100
AcDb2dPolyline
 66
     1
 10
0.0
 20
0.0
 30
0.0
 70
   128
  0
VERTEX
  5
2B2
100
AcDbEntity
  8
1
  6
Continuous
 62
     6
 48
0.75
100
AcDbVertex
100
AcDb2dVertex
 10
-1087.762792
 20
-61.68015
 30
0.0
 40
0.0
 41
0.0
  0
VERTEX
  5
2B3
100
AcDbEntity
  8
1
  6
Continuous
 62
     6
 48
0.75
100
AcDbVertex
100
AcDb2dVertex
 10
-1092.260292
 20
-61.69265
 30
0.0
 40
0.0
 41
0.0
  0
VERTEX
  5
2B4
100
AcDbEntity
  8
1
  6
Continuous
 62
     6
 48
0.75
100
AcDbVertex
100
AcDb2dVertex
 10
-1096.647792
 20
-61.73015
 30
0.0
 40
0.0
 41
0.0
  0
VERTEX
  5
2B5
100
AcDbEntity
  8
1
  6
Continuous
 62
     6
 48
0.75
100
AcDbVertex
100
AcDb2dVertex
 10
-1100.815292
 20
-61.79015
 30
0.0
 40
0.0
 41
0.0
  0
VERTEX
  5
2B6
100
AcDbEntity
  8
1
  6
Continuous
 62
     6
 48
0.75
100
AcDbVertex
100
AcDb2dVertex
 10
-1104.662792
 20
-61.87265
 30
0.0
 40
0.0
 41
0.0
  0
VERTEX
  5
2B7
100
AcDbEntity
  8
1
  6
Continuous
 62
     6
 48
0.75
100
AcDbVertex
100
AcDb2dVertex
 10
-1108.092792
 20
-61.97265
 30
0.0
 40
0.0
 41
0.0
  0
VERTEX
  5
2B8
100
AcDbEntity
  8
1
  6
Continuous
 62
     6
 48
0.75
100
AcDbVertex
100
AcDb2dVertex
 10
-1111.022792
 20
-62.09265
 30
0.0
 40
0.0
 41
0.0
  0
VERTEX
  5
2B9
100
AcDbEntity
  8
1
  6
Continuous
 62
     6
 48
0.75
100
AcDbVertex
100
AcDb2dVertex
 10
-1113.380292
 20
-62.22765
 30
0.0
 40
0.0
 41
0.0
  0
VERTEX
  5
2BA
100
AcDbEntity
  8
1
  6
Continuous
 62
     6
 48
0.75
100
AcDbVertex
100
AcDb2dVertex
 10
-1123.837792
 20
-63.16265
 30
0.0
 40
0.0
 41
0.0
  0
VERTEX
  5
2BB
100
AcDbEntity
  8
1
  6
Continuous
 62
     6
 48
0.75
100
AcDbVertex
100
AcDb2dVertex
 10
-1128.852792
 20
-64.11265
 30
0.0
 40
0.0
 41
0.0
  0
VERTEX
  5
2BC
100
AcDbEntity
  8
1
  6
Continuous
 62
     6
 48
0.75
100
AcDbVertex
100
AcDb2dVertex
 10
-1133.222792
 20
-65.12265
 30
0.0
 40
0.0
 41
0.0
  0
VERTEX
  5
2BD
100
AcDbEntity
  8
1
  6
Continuous
 62
     6
 48
0.75
100
AcDbVertex
100
AcDb2dVertex
 10
-1140.945292
 20
-66.98515
 30
0.0
 40
0.0
 41
0.0
  0
VERTEX
  5
2BE
100
AcDbEntity
  8
1
  6
Continuous
 62
     6
 48
0.75
100
AcDbVertex
100
AcDb2dVertex
 10
-1146.660292
 20
-68.74515
 30
0.0
 40
0.0
 41
0.0
  0
VERTEX
  5
2BF
100
AcDbEntity
  8
1
  6
Continuous
 62
     6
 48
0.75
100
AcDbVertex
100
AcDb2dVertex
 10
-1151.057792
 20
-70.70515
 30
0.0
 40
0.0
 41
0.0
  0
VERTEX
  5
2C0
100
AcDbEntity
  8
1
  6
Continuous
 62
     6
 48
0.75
100
AcDbVertex
100
AcDb2dVertex
 10
-1155.017792
 20
-72.58265
 30
0.0
 40
0.0
 41
0.0
  0
VERTEX
  5
2C1
100
AcDbEntity
  8
1
  6
Continuous
 62
     6
 48
0.75
100
AcDbVertex
100
AcDb2dVertex
 10
-1157.940292
 20
-74.39265
 30
0.0
 40
0.0
 41
0.0
  0
VERTEX
  5
2C2
100
AcDbEntity
  8
1
  6
Continuous
 62
     6
 48
0.75
100
AcDbVertex
100
AcDb2dVertex
 10
-1159.925292
 20
-76.55265
 30
0.0
 40
0.0
 41
0.0
  0
VERTEX
  5
2C3
100
AcDbEntity
  8
1
  6
Continuous
 62
     6
 48
0.75
100
AcDbVertex
100
AcDb2dVertex
 10
-1160.102792
 20
-78.84265
 30
0.0
 40
0.0
 41
0.0
  0
VERTEX
  5
2C4
100
AcDbEntity
  8
1
  6
Continuous
 62
     6
 48
0.75
100
AcDbVertex
100
AcDb2dVertex
 10
-1160.262792
 20
-81.40015
 30
0.0
 40
0.0
 41
0.0
  0
VERTEX
  5
2C5
100
AcDbEntity
  8
1
  6
Continuous
 62
     6
 48
0.75
100
AcDbVertex
100
AcDb2dVertex
 10
-1159.907792
 20
-83.95765
 30
0.0
 40
0.0
 41
0.0
  0
VERTEX
  5
2C6
100
AcDbEntity
  8
1
  6
Continuous
 62
     6
 48
0.75
100
AcDbVertex
100
AcDb2dVertex
 10
-1159.270292
 20
-86.45015
 30
0.0
 40
0.0
 41
0.0
  0
VERTEX
  5
2C7
100
AcDbEntity
  8
1
  6
Continuous
 62
     6
 48
0.75
100
AcDbVertex
100
AcDb2dVertex
 10
-1158.267792
 20
-88.67515
 30
0.0
 40
0.0
 41
0.0
  0
VERTEX
  5
2C8
100
AcDbEntity
  8
1
  6
Continuous
 62
     6
 48
0.75
100
AcDbVertex
100
AcDb2dVertex
 10
-1157.572792
 20
-90.63515
 30
0.0
 40
0.0
 41
0.0
  0
VERTEX
  5
2C9
100
AcDbEntity
  8
1
  6
Continuous
 62
     6
 48
0.75
100
AcDbVertex
100
AcDb2dVertex
 10
-1156.327792
 20
-91.53265
 30
0.0
 40
0.0
 41
0.0
  0
VERTEX
  5
2CA
100
AcDbEntity
  8
1
  6
Continuous
 62
     6
 48
0.75
100
AcDbVertex
100
AcDb2dVertex
 10
-1155.307792
 20
-91.90015
 30
0.0
 40
0.0
 41
0.0
  0
VERTEX
  5
2CB
100
AcDbEntity
  8
1
  6
Continuous
 62
     6
 48
0.75
100
AcDbVertex
100
AcDb2dVertex
 10
-1153.907792
 20
-91.73515
 30
0.0
 40
0.0
 41
0.0
  0
VERTEX
  5
2CC
100
AcDbEntity
  8
1
  6
Continuous
 62
     6
 48
0.75
100
AcDbVertex
100
AcDb2dVertex
 10
-1152.905292
 20
-91.30515
 30
0.0
 40
0.0
 41
0.0
  0
VERTEX
  5
2CD
100
AcDbEntity
  8
1
  6
Continuous
 62
     6
 48
0.75
100
AcDbVertex
100
AcDb2dVertex
 10
-1151.250292
 20
-90.74015
 30
0.0
 40
0.0
 41
0.0
  0
VERTEX
  5
2CE
100
AcDbEntity
  8
1
  6
Continuous
 62
     6
 48
0.75
100
AcDbVertex
100
AcDb2dVertex
 10
-1149.612792
 20
-89.52515
 30
0.0
 40
0.0
 41
0.0
  0
SEQEND
  5
2CF
100
AcDbEntity
  8
0
  0
POLYLINE
  5
2D0
100
AcDbEntity
  8
1
  6
Continuous
 62
     6
 48
0.75
100
AcDb2dPolyline
 66
     1
 10
0.0
 20
0.0
 30
0.0
 70
   128
  0
VERTEX
  5
2D1
100
AcDbEntity
  8
1
  6
Continuous
 62
     6
 48
0.75
100
AcDbVertex
100
AcDb2dVertex
 10
-1087.762792
 20
-81.46515
 30
0.0
 40
0.0
 41
0.0
  0
VERTEX
  5
2D2
100
AcDbEntity
  8
1
  6
Continuous
 62
     6
 48
0.75
100
AcDbVertex
100
AcDb2dVertex
 10
-1085.827792
 20
-81.47265
 30
0.0
 40
0.0
 41
0.0
  0
VERTEX
  5
2D3
100
AcDbEntity
  8
1
  6
Continuous
 62
     6
 48
0.75
100
AcDbVertex
100
AcDb2dVertex
 10
-1083.937792
 20
-81.49265
 30
0.0
 40
0.0
 41
0.0
  0
VERTEX
  5
2D4
100
AcDbEntity
  8
1
  6
Continuous
 62
     6
 48
0.75
100
AcDbVertex
100
AcDb2dVertex
 10
-1082.145292
 20
-81.52765
 30
0.0
 40
0.0
 41
0.0
  0
VERTEX
  5
2D5
100
AcDbEntity
  8
1
  6
Continuous
 62
     6
 48
0.75
100
AcDbVertex
100
AcDb2dVertex
 10
-1080.487792
 20
-81.57515
 30
0.0
 40
0.0
 41
0.0
  0
VERTEX
  5
2D6
100
AcDbEntity
  8
1
  6
Continuous
 62
     6
 48
0.75
100
AcDbVertex
100
AcDb2dVertex
 10
-1079.012792
 20
-81.63265
 30
0.0
 40
0.0
 41
0.0
  0
VERTEX
  5
2D7
100
AcDbEntity
  8
1
  6
Continuous
 62
     6
 48
0.75
100
AcDbVertex
100
AcDb2dVertex
 10
-1077.750292
 20
-81.70015
 30
0.0
 40
0.0
 41
0.0
  0
VERTEX
  5
2D8
100
AcDbEntity
  8
1
  6
Continuous
 62
     6
 48
0.75
100
AcDbVertex
100
AcDb2dVertex
 10
-1064.185292
 20
-82.88265
 30
0.0
 40
0.0
 41
0.0
  0
VERTEX
  5
2D9
100
AcDbEntity
  8
1
  6
Continuous
 62
     6
 48
0.75
100
AcDbVertex
100
AcDb2dVertex
 10
-1057.110292
 20
-83.88015
 30
0.0
 40
0.0
 41
0.0
  0
VERTEX
  5
2DA
100
AcDbEntity
  8
1
  6
Continuous
 62
     6
 48
0.75
100
AcDbVertex
100
AcDb2dVertex
 10
-1051.737792
 20
-84.87515
 30
0.0
 40
0.0
 41
0.0
  0
VERTEX
  5
2DB
100
AcDbEntity
  8
1
  6
Continuous
 62
     6
 48
0.75
100
AcDbVertex
100
AcDb2dVertex
 10
-1042.725292
 20
-86.87015
 30
0.0
 40
0.0
 41
0.0
  0
VERTEX
  5
2DC
100
AcDbEntity
  8
1
  6
Continuous
 62
     6
 48
0.75
100
AcDbVertex
100
AcDb2dVertex
 10
-1034.825292
 20
-88.89515
 30
0.0
 40
0.0
 41
0.0
  0
VERTEX
  5
2DD
100
AcDbEntity
  8
1
  6
Continuous
 62
     6
 48
0.75
100
AcDbVertex
100
AcDb2dVertex
 10
-1028.347792
 20
-91.05515
 30
0.0
 40
0.0
 41
0.0
  0
VERTEX
  5
2DE
100
AcDbEntity
  8
1
  6
Continuous
 62
     6
 48
0.75
100
AcDbVertex
100
AcDb2dVertex
 10
-1023.362792
 20
-93.01515
 30
0.0
 40
0.0
 41
0.0
  0
VERTEX
  5
2DF
100
AcDbEntity
  8
1
  6
Continuous
 62
     6
 48
0.75
100
AcDbVertex
100
AcDb2dVertex
 10
-1019.737792
 20
-95.24015
 30
0.0
 40
0.0
 41
0.0
  0
VERTEX
  5
2E0
100
AcDbEntity
  8
1
  6
Continuous
 62
     6
 48
0.75
100
AcDbVertex
100
AcDb2dVertex
 10
-1016.842792
 20
-97.46515
 30
0.0
 40
0.0
 41
0.0
  0
VERTEX
  5
2E1
100
AcDbEntity
  8
1
  6
Continuous
 62
     6
 48
0.75
100
AcDbVertex
100
AcDb2dVertex
 10
-1015.422792
 20
-99.55765
 30
0.0
 40
0.0
 41
0.0
  0
VERTEX
  5
2E2
100
AcDbEntity
  8
1
  6
Continuous
 62
     6
 48
0.75
100
AcDbVertex
100
AcDb2dVertex
 10
-1015.262792
 20
-101.78265
 30
0.0
 40
0.0
 41
0.0
  0
VERTEX
  5
2E3
100
AcDbEntity
  8
1
  6
Continuous
 62
     6
 48
0.75
100
AcDbVertex
100
AcDb2dVertex
 10
-1015.617792
 20
-104.40765
 30
0.0
 40
0.0
 41
0.0
  0
VERTEX
  5
2E4
100
AcDbEntity
  8
1
  6
Continuous
 62
     6
 48
0.75
100
AcDbVertex
100
AcDb2dVertex
 10
-1016.255292
 20
-107.16515
 30
0.0
 40
0.0
 41
0.0
  0
VERTEX
  5
2E5
100
AcDbEntity
  8
1
  6
Continuous
 62
     6
 48
0.75
100
AcDbVertex
100
AcDb2dVertex
 10
-1017.257792
 20
-109.39015
 30
0.0
 40
0.0
 41
0.0
  0
VERTEX
  5
2E6
100
AcDbEntity
  8
1
  6
Continuous
 62
     6
 48
0.75
100
AcDbVertex
100
AcDb2dVertex
 10
-1017.952792
 20
-110.28765
 30
0.0
 40
0.0
 41
0.0
  0
VERTEX
  5
2E7
100
AcDbEntity
  8
1
  6
Continuous
 62
     6
 48
0.75
100
AcDbVertex
100
AcDb2dVertex
 10
-1019.197792
 20
-110.38765
 30
0.0
 40
0.0
 41
0.0
  0
VERTEX
  5
2E8
100
AcDbEntity
  8
1
  6
Continuous
 62
     6
 48
0.75
100
AcDbVertex
100
AcDb2dVertex
 10
-1020.225292
 20
-110.38765
 30
0.0
 40
0.0
 41
0.0
  0
VERTEX
  5
2E9
100
AcDbEntity
  8
1
  6
Continuous
 62
     6
 48
0.75
100
AcDbVertex
100
AcDb2dVertex
 10
-1021.617792
 20
-110.38765
 30
0.0
 40
0.0
 41
0.0
  0
VERTEX
  5
2EA
100
AcDbEntity
  8
1
  6
Continuous
 62
     6
 48
0.75
100
AcDbVertex
100
AcDb2dVertex
 10
-1022.682792
 20
-110.38765
 30
0.0
 40
0.0
 41
0.0
  0
VERTEX
  5
2EB
100
AcDbEntity
  8
1
  6
Continuous
 62
     6
 48
0.75
100
AcDbVertex
100
AcDb2dVertex
 10
-1024.275292
 20
-110.38765
 30
0.0
 40
0.0
 41
0.0
  0
VERTEX
  5
2EC
100
AcDbEntity
  8
1
  6
Continuous
 62
     6
 48
0.75
100
AcDbVertex
100
AcDb2dVertex
 10
-1025.912792
 20
-110.38765
 30
0.0
 40
0.0
 41
0.0
  0
SEQEND
  5
2ED
100
AcDbEntity
  8
0
  0
POLYLINE
  5
2EE
100
AcDbEntity
  8
1
  6
Continuous
 62
     6
 48
0.75
100
AcDb2dPolyline
 66
     1
 10
0.0
 20
0.0
 30
0.0
 70
   128
  0
VERTEX
  5
2EF
100
AcDbEntity
  8
1
  6
Continuous
 62
     6
 48
0.75
100
AcDbVertex
100
AcDb2dVertex
 10
-1087.762792
 20
-81.46515
 30
0.0
 40
0.0
 41
0.0
  0
VERTEX
  5
2F0
100
AcDbEntity
  8
1
  6
Continuous
 62
     6
 48
0.75
100
AcDbVertex
100
AcDb2dVertex
 10
-1089.697792
 20
-81.47265
 30
0.0
 40
0.0
 41
0.0
  0
VERTEX
  5
2F1
100
AcDbEntity
  8
1
  6
Continuous
 62
     6
 48
0.75
100
AcDbVertex
100
AcDb2dVertex
 10
-1091.587792
 20
-81.49265
 30
0.0
 40
0.0
 41
0.0
  0
VERTEX
  5
2F2
100
AcDbEntity
  8
1
  6
Continuous
 62
     6
 48
0.75
100
AcDbVertex
100
AcDb2dVertex
 10
-1093.380292
 20
-81.52765
 30
0.0
 40
0.0
 41
0.0
  0
VERTEX
  5
2F3
100
AcDbEntity
  8
1
  6
Continuous
 62
     6
 48
0.75
100
AcDbVertex
100
AcDb2dVertex
 10
-1095.037792
 20
-81.57515
 30
0.0
 40
0.0
 41
0.0
  0
VERTEX
  5
2F4
100
AcDbEntity
  8
1
  6
Continuous
 62
     6
 48
0.75
100
AcDbVertex
100
AcDb2dVertex
 10
-1096.512792
 20
-81.63265
 30
0.0
 40
0.0
 41
0.0
  0
VERTEX
  5
2F5
100
AcDbEntity
  8
1
  6
Continuous
 62
     6
 48
0.75
100
AcDbVertex
100
AcDb2dVertex
 10
-1097.775292
 20
-81.70015
 30
0.0
 40
0.0
 41
0.0
  0
VERTEX
  5
2F6
100
AcDbEntity
  8
1
  6
Continuous
 62
     6
 48
0.75
100
AcDbVertex
100
AcDb2dVertex
 10
-1111.340292
 20
-82.88265
 30
0.0
 40
0.0
 41
0.0
  0
VERTEX
  5
2F7
100
AcDbEntity
  8
1
  6
Continuous
 62
     6
 48
0.75
100
AcDbVertex
100
AcDb2dVertex
 10
-1118.415292
 20
-83.88015
 30
0.0
 40
0.0
 41
0.0
  0
VERTEX
  5
2F8
100
AcDbEntity
  8
1
  6
Continuous
 62
     6
 48
0.75
100
AcDbVertex
100
AcDb2dVertex
 10
-1123.787792
 20
-84.87515
 30
0.0
 40
0.0
 41
0.0
  0
VERTEX
  5
2F9
100
AcDbEntity
  8
1
  6
Continuous
 62
     6
 48
0.75
100
AcDbVertex
100
AcDb2dVertex
 10
-1132.800292
 20
-86.87015
 30
0.0
 40
0.0
 41
0.0
  0
VERTEX
  5
2FA
100
AcDbEntity
  8
1
  6
Continuous
 62
     6
 48
0.75
100
AcDbVertex
100
AcDb2dVertex
 10
-1140.700292
 20
-88.89515
 30
0.0
 40
0.0
 41
0.0
  0
VERTEX
  5
2FB
100
AcDbEntity
  8
1
  6
Continuous
 62
     6
 48
0.75
100
AcDbVertex
100
AcDb2dVertex
 10
-1147.177792
 20
-91.05515
 30
0.0
 40
0.0
 41
0.0
  0
VERTEX
  5
2FC
100
AcDbEntity
  8
1
  6
Continuous
 62
     6
 48
0.75
100
AcDbVertex
100
AcDb2dVertex
 10
-1152.162792
 20
-93.01515
 30
0.0
 40
0.0
 41
0.0
  0
VERTEX
  5
2FD
100
AcDbEntity
  8
1
  6
Continuous
 62
     6
 48
0.75
100
AcDbVertex
100
AcDb2dVertex
 10
-1155.787792
 20
-95.24015
 30
0.0
 40
0.0
 41
0.0
  0
VERTEX
  5
2FE
100
AcDbEntity
  8
1
  6
Continuous
 62
     6
 48
0.75
100
AcDbVertex
100
AcDb2dVertex
 10
-1158.682792
 20
-97.46515
 30
0.0
 40
0.0
 41
0.0
  0
VERTEX
  5
2FF
100
AcDbEntity
  8
1
  6
Continuous
 62
     6
 48
0.75
100
AcDbVertex
100
AcDb2dVertex
 10
-1160.102792
 20
-99.55765
 30
0.0
 40
0.0
 41
0.0
  0
VERTEX
  5
300
100
AcDbEntity
  8
1
  6
Continuous
 62
     6
 48
0.75
100
AcDbVertex
100
AcDb2dVertex
 10
-1160.262792
 20
-101.78265
 30
0.0
 40
0.0
 41
0.0
  0
VERTEX
  5
301
100
AcDbEntity
  8
1
  6
Continuous
 62
     6
 48
0.75
100
AcDbVertex
100
AcDb2dVertex
 10
-1159.907792
 20
-104.40765
 30
0.0
 40
0.0
 41
0.0
  0
VERTEX
  5
302
100
AcDbEntity
  8
1
  6
Continuous
 62
     6
 48
0.75
100
AcDbVertex
100
AcDb2dVertex
 10
-1159.270292
 20
-107.16515
 30
0.0
 40
0.0
 41
0.0
  0
VERTEX
  5
303
100
AcDbEntity
  8
1
  6
Continuous
 62
     6
 48
0.75
100
AcDbVertex
100
AcDb2dVertex
 10
-1158.267792
 20
-109.39015
 30
0.0
 40
0.0
 41
0.0
  0
VERTEX
  5
304
100
AcDbEntity
  8
1
  6
Continuous
 62
     6
 48
0.75
100
AcDbVertex
100
AcDb2dVertex
 10
-1157.572792
 20
-110.28765
 30
0.0
 40
0.0
 41
0.0
  0
VERTEX
  5
305
100
AcDbEntity
  8
1
  6
Continuous
 62
     6
 48
0.75
100
AcDbVertex
100
AcDb2dVertex
 10
-1156.327792
 20
-110.38765
 30
0.0
 40
0.0
 41
0.0
  0
VERTEX
  5
306
100
AcDbEntity
  8
1
  6
Continuous
 62
     6
 48
0.75
100
AcDbVertex
100
AcDb2dVertex
 10
-1155.300292
 20
-110.38765
 30
0.0
 40
0.0
 41
0.0
  0
VERTEX
  5
307
100
AcDbEntity
  8
1
  6
Continuous
 62
     6
 48
0.75
100
AcDbVertex
100
AcDb2dVertex
 10
-1153.907792
 20
-110.38765
 30
0.0
 40
0.0
 41
0.0
  0
VERTEX
  5
308
100
AcDbEntity
  8
1
  6
Continuous
 62
     6
 48
0.75
100
AcDbVertex
100
AcDb2dVertex
 10
-1152.842792
 20
-110.38765
 30
0.0
 40
0.0
 41
0.0
  0
VERTEX
  5
309
100
AcDbEntity
  8
1
  6
Continuous
 62
     6
 48
0.75
100
AcDbVertex
100
AcDb2dVertex
 10
-1151.250292
 20
-110.38765
 30
0.0
 40
0.0
 41
0.0
  0
VERTEX
  5
30A
100
AcDbEntity
  8
1
  6
Continuous
 62
     6
 48
0.75
100
AcDbVertex
100
AcDb2dVertex
 10
-1149.612792
 20
-110.38765
 30
0.0
 40
0.0
 41
0.0
  0
SEQEND
  5
30B
100
AcDbEntity
  8
0
  0
POLYLINE
  5
30C
100
AcDbEntity
  8
1
  6
Continuous
 62
     6
 48
0.75
100
AcDb2dPolyline
 66
     1
 10
0.0
 20
0.0
 30
0.0
 70
   128
  0
VERTEX
  5
30D
100
AcDbEntity
  8
1
  6
Continuous
 62
     6
 48
0.75
100
AcDbVertex
100
AcDb2dVertex
 10
-1087.762792
 20
-116.35265
 30
0.0
 40
0.0
 41
0.0
  0
VERTEX
  5
30E
100
AcDbEntity
  8
1
  6
Continuous
 62
     6
 48
0.75
100
AcDbVertex
100
AcDb2dVertex
 10
-1087.375292
 20
-116.35515
 30
0.0
 40
0.0
 41
0.0
  0
VERTEX
  5
30F
100
AcDbEntity
  8
1
  6
Continuous
 62
     6
 48
0.75
100
AcDbVertex
100
AcDb2dVertex
 10
-1086.997792
 20
-116.36265
 30
0.0
 40
0.0
 41
0.0
  0
VERTEX
  5
310
100
AcDbEntity
  8
1
  6
Continuous
 62
     6
 48
0.75
100
AcDbVertex
100
AcDb2dVertex
 10
-1086.640292
 20
-116.37265
 30
0.0
 40
0.0
 41
0.0
  0
VERTEX
  5
311
100
AcDbEntity
  8
1
  6
Continuous
 62
     6
 48
0.75
100
AcDbVertex
100
AcDb2dVertex
 10
-1086.307792
 20
-116.38765
 30
0.0
 40
0.0
 41
0.0
  0
VERTEX
  5
312
100
AcDbEntity
  8
1
  6
Continuous
 62
     6
 48
0.75
100
AcDbVertex
100
AcDb2dVertex
 10
-1086.012792
 20
-116.40515
 30
0.0
 40
0.0
 41
0.0
  0
VERTEX
  5
313
100
AcDbEntity
  8
1
  6
Continuous
 62
     6
 48
0.75
100
AcDbVertex
100
AcDb2dVertex
 10
-1085.760292
 20
-116.42765
 30
0.0
 40
0.0
 41
0.0
  0
VERTEX
  5
314
100
AcDbEntity
  8
1
  6
Continuous
 62
     6
 48
0.75
100
AcDbVertex
100
AcDb2dVertex
 10
-1085.557792
 20
-116.45265
 30
0.0
 40
0.0
 41
0.0
  0
VERTEX
  5
315
100
AcDbEntity
  8
1
  6
Continuous
 62
     6
 48
0.75
100
AcDbVertex
100
AcDb2dVertex
 10
-1082.445292
 20
-117.08765
 30
0.0
 40
0.0
 41
0.0
  0
VERTEX
  5
316
100
AcDbEntity
  8
1
  6
Continuous
 62
     6
 48
0.75
100
AcDbVertex
100
AcDb2dVertex
 10
-1076.537792
 20
-118.74015
 30
0.0
 40
0.0
 41
0.0
  0
VERTEX
  5
317
100
AcDbEntity
  8
1
  6
Continuous
 62
     6
 48
0.75
100
AcDbVertex
100
AcDb2dVertex
 10
-1071.870292
 20
-120.59515
 30
0.0
 40
0.0
 41
0.0
  0
VERTEX
  5
318
100
AcDbEntity
  8
1
  6
Continuous
 62
     6
 48
0.75
100
AcDbVertex
100
AcDb2dVertex
 10
-1063.837792
 20
-124.19015
 30
0.0
 40
0.0
 41
0.0
  0
VERTEX
  5
319
100
AcDbEntity
  8
1
  6
Continuous
 62
     6
 48
0.75
100
AcDbVertex
100
AcDb2dVertex
 10
-1056.690292
 20
-127.76515
 30
0.0
 40
0.0
 41
0.0
  0
VERTEX
  5
31A
100
AcDbEntity
  8
1
  6
Continuous
 62
     6
 48
0.75
100
AcDbVertex
100
AcDb2dVertex
 10
-1049.952792
 20
-130.95015
 30
0.0
 40
0.0
 41
0.0
  0
VERTEX
  5
31B
100
AcDbEntity
  8
1
  6
Continuous
 62
     6
 48
0.75
100
AcDbVertex
100
AcDb2dVertex
 10
-1043.950292
 20
-134.08265
 30
0.0
 40
0.0
 41
0.0
  0
VERTEX
  5
31C
100
AcDbEntity
  8
1
  6
Continuous
 62
     6
 48
0.75
100
AcDbVertex
100
AcDb2dVertex
 10
-1038.855292
 20
-136.83265
 30
0.0
 40
0.0
 41
0.0
  0
VERTEX
  5
31D
100
AcDbEntity
  8
1
  6
Continuous
 62
     6
 48
0.75
100
AcDbVertex
100
AcDb2dVertex
 10
-1034.495292
 20
-139.48765
 30
0.0
 40
0.0
 41
0.0
  0
VERTEX
  5
31E
100
AcDbEntity
  8
1
  6
Continuous
 62
     6
 48
0.75
100
AcDbVertex
100
AcDb2dVertex
 10
-1030.645292
 20
-141.76765
 30
0.0
 40
0.0
 41
0.0
  0
VERTEX
  5
31F
100
AcDbEntity
  8
1
  6
Continuous
 62
     6
 48
0.75
100
AcDbVertex
100
AcDb2dVertex
 10
-1028.172792
 20
-143.63015
 30
0.0
 40
0.0
 41
0.0
  0
VERTEX
  5
320
100
AcDbEntity
  8
1
  6
Continuous
 62
     6
 48
0.75
100
AcDbVertex
100
AcDb2dVertex
 10
-1027.272792
 20
-145.06765
 30
0.0
 40
0.0
 41
0.0
  0
VERTEX
  5
321
100
AcDbEntity
  8
1
  6
Continuous
 62
     6
 48
0.75
100
AcDbVertex
100
AcDb2dVertex
 10
-1027.335292
 20
-146.12265
 30
0.0
 40
0.0
 41
0.0
  0
VERTEX
  5
322
100
AcDbEntity
  8
1
  6
Continuous
 62
     6
 48
0.75
100
AcDbVertex
100
AcDb2dVertex
 10
-1027.467792
 20
-147.02765
 30
0.0
 40
0.0
 41
0.0
  0
VERTEX
  5
323
100
AcDbEntity
  8
1
  6
Continuous
 62
     6
 48
0.75
100
AcDbVertex
100
AcDb2dVertex
 10
-1028.435292
 20
-147.66265
 30
0.0
 40
0.0
 41
0.0
  0
VERTEX
  5
324
100
AcDbEntity
  8
1
  6
Continuous
 62
     6
 48
0.75
100
AcDbVertex
100
AcDb2dVertex
 10
-1029.782792
 20
-148.22765
 30
0.0
 40
0.0
 41
0.0
  0
VERTEX
  5
325
100
AcDbEntity
  8
1
  6
Continuous
 62
     6
 48
0.75
100
AcDbVertex
100
AcDb2dVertex
 10
-1031.302792
 20
-148.65765
 30
0.0
 40
0.0
 41
0.0
  0
VERTEX
  5
326
100
AcDbEntity
  8
1
  6
Continuous
 62
     6
 48
0.75
100
AcDbVertex
100
AcDb2dVertex
 10
-1032.587792
 20
-149.02265
 30
0.0
 40
0.0
 41
0.0
  0
VERTEX
  5
327
100
AcDbEntity
  8
1
  6
Continuous
 62
     6
 48
0.75
100
AcDbVertex
100
AcDb2dVertex
 10
-1034.270292
 20
-149.51265
 30
0.0
 40
0.0
 41
0.0
  0
VERTEX
  5
328
100
AcDbEntity
  8
1
  6
Continuous
 62
     6
 48
0.75
100
AcDbVertex
100
AcDb2dVertex
 10
-1036.045292
 20
-150.00765
 30
0.0
 40
0.0
 41
0.0
  0
VERTEX
  5
329
100
AcDbEntity
  8
1
  6
Continuous
 62
     6
 48
0.75
100
AcDbVertex
100
AcDb2dVertex
 10
-1037.507792
 20
-150.45265
 30
0.0
 40
0.0
 41
0.0
  0
SEQEND
  5
32A
100
AcDbEntity
  8
0
  0
POLYLINE
  5
32B
100
AcDbEntity
  8
1
  6
Continuous
 62
     6
 48
0.75
100
AcDb2dPolyline
 66
     1
 10
0.0
 20
0.0
 30
0.0
 70
   128
  0
VERTEX
  5
32C
100
AcDbEntity
  8
1
  6
Continuous
 62
     6
 48
0.75
100
AcDbVertex
100
AcDb2dVertex
 10
-1087.762792
 20
-116.35265
 30
0.0
 40
0.0
 41
0.0
  0
VERTEX
  5
32D
100
AcDbEntity
  8
1
  6
Continuous
 62
     6
 48
0.75
100
AcDbVertex
100
AcDb2dVertex
 10
-1088.150292
 20
-116.35515
 30
0.0
 40
0.0
 41
0.0
  0
VERTEX
  5
32E
100
AcDbEntity
  8
1
  6
Continuous
 62
     6
 48
0.75
100
AcDbVertex
100
AcDb2dVertex
 10
-1088.527792
 20
-116.36265
 30
0.0
 40
0.0
 41
0.0
  0
VERTEX
  5
32F
100
AcDbEntity
  8
1
  6
Continuous
 62
     6
 48
0.75
100
AcDbVertex
100
AcDb2dVertex
 10
-1088.885292
 20
-116.37265
 30
0.0
 40
0.0
 41
0.0
  0
VERTEX
  5
330
100
AcDbEntity
  8
1
  6
Continuous
 62
     6
 48
0.75
100
AcDbVertex
100
AcDb2dVertex
 10
-1089.217792
 20
-116.38765
 30
0.0
 40
0.0
 41
0.0
  0
VERTEX
  5
331
100
AcDbEntity
  8
1
  6
Continuous
 62
     6
 48
0.75
100
AcDbVertex
100
AcDb2dVertex
 10
-1089.512792
 20
-116.40515
 30
0.0
 40
0.0
 41
0.0
  0
VERTEX
  5
332
100
AcDbEntity
  8
1
  6
Continuous
 62
     6
 48
0.75
100
AcDbVertex
100
AcDb2dVertex
 10
-1089.765292
 20
-116.42765
 30
0.0
 40
0.0
 41
0.0
  0
VERTEX
  5
333
100
AcDbEntity
  8
1
  6
Continuous
 62
     6
 48
0.75
100
AcDbVertex
100
AcDb2dVertex
 10
-1089.967792
 20
-116.45265
 30
0.0
 40
0.0
 41
0.0
  0
VERTEX
  5
334
100
AcDbEntity
  8
1
  6
Continuous
 62
     6
 48
0.75
100
AcDbVertex
100
AcDb2dVertex
 10
-1093.080292
 20
-117.08765
 30
0.0
 40
0.0
 41
0.0
  0
VERTEX
  5
335
100
AcDbEntity
  8
1
  6
Continuous
 62
     6
 48
0.75
100
AcDbVertex
100
AcDb2dVertex
 10
-1098.987792
 20
-118.74015
 30
0.0
 40
0.0
 41
0.0
  0
VERTEX
  5
336
100
AcDbEntity
  8
1
  6
Continuous
 62
     6
 48
0.75
100
AcDbVertex
100
AcDb2dVertex
 10
-1103.655292
 20
-120.59515
 30
0.0
 40
0.0
 41
0.0
  0
VERTEX
  5
337
100
AcDbEntity
  8
1
  6
Continuous
 62
     6
 48
0.75
100
AcDbVertex
100
AcDb2dVertex
 10
-1111.687792
 20
-124.19015
 30
0.0
 40
0.0
 41
0.0
  0
VERTEX
  5
338
100
AcDbEntity
  8
1
  6
Continuous
 62
     6
 48
0.75
100
AcDbVertex
100
AcDb2dVertex
 10
-1118.835292
 20
-127.76515
 30
0.0
 40
0.0
 41
0.0
  0
VERTEX
  5
339
100
AcDbEntity
  8
1
  6
Continuous
 62
     6
 48
0.75
100
AcDbVertex
100
AcDb2dVertex
 10
-1125.572792
 20
-130.95015
 30
0.0
 40
0.0
 41
0.0
  0
VERTEX
  5
33A
100
AcDbEntity
  8
1
  6
Continuous
 62
     6
 48
0.75
100
AcDbVertex
100
AcDb2dVertex
 10
-1131.575292
 20
-134.08265
 30
0.0
 40
0.0
 41
0.0
  0
VERTEX
  5
33B
100
AcDbEntity
  8
1
  6
Continuous
 62
     6
 48
0.75
100
AcDbVertex
100
AcDb2dVertex
 10
-1136.670292
 20
-136.83265
 30
0.0
 40
0.0
 41
0.0
  0
VERTEX
  5
33C
100
AcDbEntity
  8
1
  6
Continuous
 62
     6
 48
0.75
100
AcDbVertex
100
AcDb2dVertex
 10
-1141.030292
 20
-139.48765
 30
0.0
 40
0.0
 41
0.0
  0
VERTEX
  5
33D
100
AcDbEntity
  8
1
  6
Continuous
 62
     6
 48
0.75
100
AcDbVertex
100
AcDb2dVertex
 10
-1144.880292
 20
-141.76765
 30
0.0
 40
0.0
 41
0.0
  0
VERTEX
  5
33E
100
AcDbEntity
  8
1
  6
Continuous
 62
     6
 48
0.75
100
AcDbVertex
100
AcDb2dVertex
 10
-1147.352792
 20
-143.63015
 30
0.0
 40
0.0
 41
0.0
  0
VERTEX
  5
33F
100
AcDbEntity
  8
1
  6
Continuous
 62
     6
 48
0.75
100
AcDbVertex
100
AcDb2dVertex
 10
-1148.252792
 20
-145.06765
 30
0.0
 40
0.0
 41
0.0
  0
VERTEX
  5
340
100
AcDbEntity
  8
1
  6
Continuous
 62
     6
 48
0.75
100
AcDbVertex
100
AcDb2dVertex
 10
-1148.190292
 20
-146.12265
 30
0.0
 40
0.0
 41
0.0
  0
VERTEX
  5
341
100
AcDbEntity
  8
1
  6
Continuous
 62
     6
 48
0.75
100
AcDbVertex
100
AcDb2dVertex
 10
-1148.057792
 20
-147.02765
 30
0.0
 40
0.0
 41
0.0
  0
VERTEX
  5
342
100
AcDbEntity
  8
1
  6
Continuous
 62
     6
 48
0.75
100
AcDbVertex
100
AcDb2dVertex
 10
-1147.090292
 20
-147.66265
 30
0.0
 40
0.0
 41
0.0
  0
VERTEX
  5
343
100
AcDbEntity
  8
1
  6
Continuous
 62
     6
 48
0.75
100
AcDbVertex
100
AcDb2dVertex
 10
-1145.742792
 20
-148.22765
 30
0.0
 40
0.0
 41
0.0
  0
VERTEX
  5
344
100
AcDbEntity
  8
1
  6
Continuous
 62
     6
 48
0.75
100
AcDbVertex
100
AcDb2dVertex
 10
-1144.222792
 20
-148.65765
 30
0.0
 40
0.0
 41
0.0
  0
VERTEX
  5
345
100
AcDbEntity
  8
1
  6
Continuous
 62
     6
 48
0.75
100
AcDbVertex
100
AcDb2dVertex
 10
-1142.937792
 20
-149.02265
 30
0.0
 40
0.0
 41
0.0
  0
VERTEX
  5
346
100
AcDbEntity
  8
1
  6
Continuous
 62
     6
 48
0.75
100
AcDbVertex
100
AcDb2dVertex
 10
-1141.255292
 20
-149.51265
 30
0.0
 40
0.0
 41
0.0
  0
VERTEX
  5
347
100
AcDbEntity
  8
1
  6
Continuous
 62
     6
 48
0.75
100
AcDbVertex
100
AcDb2dVertex
 10
-1139.480292
 20
-150.00765
 30
0.0
 40
0.0
 41
0.0
  0
VERTEX
  5
348
100
AcDbEntity
  8
1
  6
Continuous
 62
     6
 48
0.75
100
AcDbVertex
100
AcDb2dVertex
 10
-1138.017792
 20
-150.45265
 30
0.0
 40
0.0
 41
0.0
  0
SEQEND
  5
349
100
AcDbEntity
  8
0
  0
POLYLINE
  5
34A
100
AcDbEntity
  8
1
  6
Continuous
 62
     6
 48
0.75
100
AcDb2dPolyline
 66
     1
 10
0.0
 20
0.0
 30
0.0
 70
   128
  0
VERTEX
  5
34B
100
AcDbEntity
  8
1
  6
Continuous
 62
     6
 48
0.75
100
AcDbVertex
100
AcDb2dVertex
 10
-1087.762792
 20
-132.88265
 30
0.0
 40
0.0
 41
0.0
  0
VERTEX
  5
34C
100
AcDbEntity
  8
1
  6
Continuous
 62
     6
 48
0.75
100
AcDbVertex
100
AcDb2dVertex
 10
-1087.762792
 20
-152.35015
 30
0.0
 40
0.0
 41
0.0
  0
VERTEX
  5
34D
100
AcDbEntity
  8
1
  6
Continuous
 62
     6
 48
0.75
100
AcDbVertex
100
AcDb2dVertex
 10
-1087.762792
 20
-161.22765
 30
0.0
 40
0.0
 41
0.0
  0
VERTEX
  5
34E
100
AcDbEntity
  8
1
  6
Continuous
 62
     6
 48
0.75
100
AcDbVertex
100
AcDb2dVertex
 10
-1087.762792
 20
-166.08015
 30
0.0
 40
0.0
 41
0.0
  0
VERTEX
  5
34F
100
AcDbEntity
  8
1
  6
Continuous
 62
     6
 48
0.75
100
AcDbVertex
100
AcDb2dVertex
 10
-1087.762792
 20
-166.14015
 30
0.0
 40
0.0
 41
0.0
  0
VERTEX
  5
350
100
AcDbEntity
  8
1
  6
Continuous
 62
     6
 48
0.75
100
AcDbVertex
100
AcDb2dVertex
 10
-1087.762792
 20
-165.56515
 30
0.0
 40
0.0
 41
0.0
  0
VERTEX
  5
351
100
AcDbEntity
  8
1
  6
Continuous
 62
     6
 48
0.75
100
AcDbVertex
100
AcDb2dVertex
 10
-1087.762792
 20
-164.89765
 30
0.0
 40
0.0
 41
0.0
  0
VERTEX
  5
352
100
AcDbEntity
  8
1
  6
Continuous
 62
     6
 48
0.75
100
AcDbVertex
100
AcDb2dVertex
 10
-1087.762792
 20
-164.00265
 30
0.0
 40
0.0
 41
0.0
  0
VERTEX
  5
353
100
AcDbEntity
  8
1
  6
Continuous
 62
     6
 48
0.75
100
AcDbVertex
100
AcDb2dVertex
 10
-1087.762792
 20
-163.53015
 30
0.0
 40
0.0
 41
0.0
  0
VERTEX
  5
354
100
AcDbEntity
  8
1
  6
Continuous
 62
     6
 48
0.75
100
AcDbVertex
100
AcDb2dVertex
 10
-1087.762792
 20
-163.07265
 30
0.0
 40
0.0
 41
0.0
  0
VERTEX
  5
355
100
AcDbEntity
  8
1
  6
Continuous
 62
     6
 48
0.75
100
AcDbVertex
100
AcDb2dVertex
 10
-1087.762792
 20
-162.75265
 30
0.0
 40
0.0
 41
0.0
  0
VERTEX
  5
356
100
AcDbEntity
  8
1
  6
Continuous
 62
     6
 48
0.75
100
AcDbVertex
100
AcDb2dVertex
 10
-1087.762792
 20
-162.20765
 30
0.0
 40
0.0
 41
0.0
  0
VERTEX
  5
357
100
AcDbEntity
  8
1
  6
Continuous
 62
     6
 48
0.75
100
AcDbVertex
100
AcDb2dVertex
 10
-1087.762792
 20
-161.52515
 30
0.0
 40
0.0
 41
0.0
  0
VERTEX
  5
358
100
AcDbEntity
  8
1
  6
Continuous
 62
     6
 48
0.75
100
AcDbVertex
100
AcDb2dVertex
 10
-1087.762792
 20
-160.83765
 30
0.0
 40
0.0
 41
0.0
  0
VERTEX
  5
359
100
AcDbEntity
  8
1
  6
Continuous
 62
     6
 48
0.75
100
AcDbVertex
100
AcDb2dVertex
 10
-1087.762792
 20
-160.01015
 30
0.0
 40
0.0
 41
0.0
  0
VERTEX
  5
35A
100
AcDbEntity
  8
1
  6
Continuous
 62
     6
 48
0.75
100
AcDbVertex
100
AcDb2dVertex
 10
-1087.762792
 20
-159.44765
 30
0.0
 40
0.0
 41
0.0
  0
VERTEX
  5
35B
100
AcDbEntity
  8
1
  6
Continuous
 62
     6
 48
0.75
100
AcDbVertex
100
AcDb2dVertex
 10
-1087.762792
 20
-158.21765
 30
0.0
 40
0.0
 41
0.0
  0
VERTEX
  5
35C
100
AcDbEntity
  8
1
  6
Continuous
 62
     6
 48
0.75
100
AcDbVertex
100
AcDb2dVertex
 10
-1087.762792
 20
-157.25515
 30
0.0
 40
0.0
 41
0.0
  0
VERTEX
  5
35D
100
AcDbEntity
  8
1
  6
Continuous
 62
     6
 48
0.75
100
AcDbVertex
100
AcDb2dVertex
 10
-1087.762792
 20
-156.41765
 30
0.0
 40
0.0
 41
0.0
  0
VERTEX
  5
35E
100
AcDbEntity
  8
1
  6
Continuous
 62
     6
 48
0.75
100
AcDbVertex
100
AcDb2dVertex
 10
-1087.762792
 20
-155.58515
 30
0.0
 40
0.0
 41
0.0
  0
VERTEX
  5
35F
100
AcDbEntity
  8
1
  6
Continuous
 62
     6
 48
0.75
100
AcDbVertex
100
AcDb2dVertex
 10
-1087.762792
 20
-155.12265
 30
0.0
 40
0.0
 41
0.0
  0
SEQEND
  5
360
100
AcDbEntity
  8
0
  0
POLYLINE
  5
361
100
AcDbEntity
  8
1
  6
Continuous
 62
     6
 48
0.75
100
AcDb2dPolyline
 66
     1
 10
0.0
 20
0.0
 30
0.0
 70
   128
  0
VERTEX
  5
362
100
AcDbEntity
  8
1
  6
Continuous
 62
     6
 48
0.75
100
AcDbVertex
100
AcDb2dVertex
 10
-1087.762792
 20
-132.88265
 30
0.0
 40
0.0
 41
0.0
  0
VERTEX
  5
363
100
AcDbEntity
  8
1
  6
Continuous
 62
     6
 48
0.75
100
AcDbVertex
100
AcDb2dVertex
 10
-1087.762792
 20
-152.35015
 30
0.0
 40
0.0
 41
0.0
  0
VERTEX
  5
364
100
AcDbEntity
  8
1
  6
Continuous
 62
     6
 48
0.75
100
AcDbVertex
100
AcDb2dVertex
 10
-1087.762792
 20
-161.22765
 30
0.0
 40
0.0
 41
0.0
  0
VERTEX
  5
365
100
AcDbEntity
  8
1
  6
Continuous
 62
     6
 48
0.75
100
AcDbVertex
100
AcDb2dVertex
 10
-1087.762792
 20
-166.08015
 30
0.0
 40
0.0
 41
0.0
  0
VERTEX
  5
366
100
AcDbEntity
  8
1
  6
Continuous
 62
     6
 48
0.75
100
AcDbVertex
100
AcDb2dVertex
 10
-1087.762792
 20
-166.14015
 30
0.0
 40
0.0
 41
0.0
  0
VERTEX
  5
367
100
AcDbEntity
  8
1
  6
Continuous
 62
     6
 48
0.75
100
AcDbVertex
100
AcDb2dVertex
 10
-1087.762792
 20
-165.56515
 30
0.0
 40
0.0
 41
0.0
  0
VERTEX
  5
368
100
AcDbEntity
  8
1
  6
Continuous
 62
     6
 48
0.75
100
AcDbVertex
100
AcDb2dVertex
 10
-1087.762792
 20
-164.89765
 30
0.0
 40
0.0
 41
0.0
  0
VERTEX
  5
369
100
AcDbEntity
  8
1
  6
Continuous
 62
     6
 48
0.75
100
AcDbVertex
100
AcDb2dVertex
 10
-1087.762792
 20
-164.00265
 30
0.0
 40
0.0
 41
0.0
  0
VERTEX
  5
36A
100
AcDbEntity
  8
1
  6
Continuous
 62
     6
 48
0.75
100
AcDbVertex
100
AcDb2dVertex
 10
-1087.762792
 20
-163.53015
 30
0.0
 40
0.0
 41
0.0
  0
VERTEX
  5
36B
100
AcDbEntity
  8
1
  6
Continuous
 62
     6
 48
0.75
100
AcDbVertex
100
AcDb2dVertex
 10
-1087.762792
 20
-163.07265
 30
0.0
 40
0.0
 41
0.0
  0
VERTEX
  5
36C
100
AcDbEntity
  8
1
  6
Continuous
 62
     6
 48
0.75
100
AcDbVertex
100
AcDb2dVertex
 10
-1087.762792
 20
-162.75265
 30
0.0
 40
0.0
 41
0.0
  0
VERTEX
  5
36D
100
AcDbEntity
  8
1
  6
Continuous
 62
     6
 48
0.75
100
AcDbVertex
100
AcDb2dVertex
 10
-1087.762792
 20
-162.20765
 30
0.0
 40
0.0
 41
0.0
  0
VERTEX
  5
36E
100
AcDbEntity
  8
1
  6
Continuous
 62
     6
 48
0.75
100
AcDbVertex
100
AcDb2dVertex
 10
-1087.762792
 20
-161.52515
 30
0.0
 40
0.0
 41
0.0
  0
VERTEX
  5
36F
100
AcDbEntity
  8
1
  6
Continuous
 62
     6
 48
0.75
100
AcDbVertex
100
AcDb2dVertex
 10
-1087.762792
 20
-160.83765
 30
0.0
 40
0.0
 41
0.0
  0
VERTEX
  5
370
100
AcDbEntity
  8
1
  6
Continuous
 62
     6
 48
0.75
100
AcDbVertex
100
AcDb2dVertex
 10
-1087.762792
 20
-160.01015
 30
0.0
 40
0.0
 41
0.0
  0
VERTEX
  5
371
100
AcDbEntity
  8
1
  6
Continuous
 62
     6
 48
0.75
100
AcDbVertex
100
AcDb2dVertex
 10
-1087.762792
 20
-159.44765
 30
0.0
 40
0.0
 41
0.0
  0
VERTEX
  5
372
100
AcDbEntity
  8
1
  6
Continuous
 62
     6
 48
0.75
100
AcDbVertex
100
AcDb2dVertex
 10
-1087.762792
 20
-158.21765
 30
0.0
 40
0.0
 41
0.0
  0
VERTEX
  5
373
100
AcDbEntity
  8
1
  6
Continuous
 62
     6
 48
0.75
100
AcDbVertex
100
AcDb2dVertex
 10
-1087.762792
 20
-157.25515
 30
0.0
 40
0.0
 41
0.0
  0
VERTEX
  5
374
100
AcDbEntity
  8
1
  6
Continuous
 62
     6
 48
0.75
100
AcDbVertex
100
AcDb2dVertex
 10
-1087.762792
 20
-156.41765
 30
0.0
 40
0.0
 41
0.0
  0
VERTEX
  5
375
100
AcDbEntity
  8
1
  6
Continuous
 62
     6
 48
0.75
100
AcDbVertex
100
AcDb2dVertex
 10
-1087.762792
 20
-155.58515
 30
0.0
 40
0.0
 41
0.0
  0
VERTEX
  5
376
100
AcDbEntity
  8
1
  6
Continuous
 62
     6
 48
0.75
100
AcDbVertex
100
AcDb2dVertex
 10
-1087.762792
 20
-155.12265
 30
0.0
 40
0.0
 41
0.0
  0
SEQEND
  5
377
100
AcDbEntity
  8
0
  0
POLYLINE
  5
378
100
AcDbEntity
  8
1
  6
Continuous
 62
     6
 48
0.75
100
AcDb2dPolyline
 66
     1
 10
0.0
 20
0.0
 30
0.0
 70
   128
  0
VERTEX
  5
379
100
AcDbEntity
  8
1
  6
Continuous
 62
     6
 48
0.75
100
AcDbVertex
100
AcDb2dVertex
 10
-1123.837792
 20
-63.16265
 30
0.0
 40
0.0
 41
0.0
  0
VERTEX
  5
37A
100
AcDbEntity
  8
1
  6
Continuous
 62
     6
 48
0.75
100
AcDbVertex
100
AcDb2dVertex
 10
-1111.340292
 20
-82.88265
 30
0.0
 40
0.0
 41
0.0
  0
VERTEX
  5
37B
100
AcDbEntity
  8
1
  6
Continuous
 62
     6
 48
0.75
100
AcDbVertex
100
AcDb2dVertex
 10
-1108.967792
 20
-85.68765
 30
0.0
 40
0.0
 41
0.0
  0
VERTEX
  5
37C
100
AcDbEntity
  8
1
  6
Continuous
 62
     6
 48
0.75
100
AcDbVertex
100
AcDb2dVertex
 10
-1106.715292
 20
-88.63015
 30
0.0
 40
0.0
 41
0.0
  0
VERTEX
  5
37D
100
AcDbEntity
  8
1
  6
Continuous
 62
     6
 48
0.75
100
AcDbVertex
100
AcDb2dVertex
 10
-1104.585292
 20
-91.70765
 30
0.0
 40
0.0
 41
0.0
  0
VERTEX
  5
37E
100
AcDbEntity
  8
1
  6
Continuous
 62
     6
 48
0.75
100
AcDbVertex
100
AcDb2dVertex
 10
-1102.577792
 20
-94.92265
 30
0.0
 40
0.0
 41
0.0
  0
VERTEX
  5
37F
100
AcDbEntity
  8
1
  6
Continuous
 62
     6
 48
0.75
100
AcDbVertex
100
AcDb2dVertex
 10
-1100.690292
 20
-98.27515
 30
0.0
 40
0.0
 41
0.0
  0
VERTEX
  5
380
100
AcDbEntity
  8
1
  6
Continuous
 62
     6
 48
0.75
100
AcDbVertex
100
AcDb2dVertex
 10
-1098.925292
 20
-101.76265
 30
0.0
 40
0.0
 41
0.0
  0
VERTEX
  5
381
100
AcDbEntity
  8
1
  6
Continuous
 62
     6
 48
0.75
100
AcDbVertex
100
AcDb2dVertex
 10
-1097.280292
 20
-105.39015
 30
0.0
 40
0.0
 41
0.0
  0
VERTEX
  5
382
100
AcDbEntity
  8
1
  6
Continuous
 62
     6
 48
0.75
100
AcDbVertex
100
AcDb2dVertex
 10
-1095.760292
 20
-109.15265
 30
0.0
 40
0.0
 41
0.0
  0
VERTEX
  5
383
100
AcDbEntity
  8
1
  6
Continuous
 62
     6
 48
0.75
100
AcDbVertex
100
AcDb2dVertex
 10
-1094.357792
 20
-113.05265
 30
0.0
 40
0.0
 41
0.0
  0
VERTEX
  5
384
100
AcDbEntity
  8
1
  6
Continuous
 62
     6
 48
0.75
100
AcDbVertex
100
AcDb2dVertex
 10
-1093.080292
 20
-117.08765
 30
0.0
 40
0.0
 41
0.0
  0
VERTEX
  5
385
100
AcDbEntity
  8
1
  6
Continuous
 62
     6
 48
0.75
100
AcDbVertex
100
AcDb2dVertex
 10
-1087.762792
 20
-132.88265
 30
0.0
 40
0.0
 41
0.0
  0
SEQEND
  5
386
100
AcDbEntity
  8
0
  0
POLYLINE
  5
387
100
AcDbEntity
  8
1
  6
Continuous
 62
     6
 48
0.75
100
AcDb2dPolyline
 66
     1
 10
0.0
 20
0.0
 30
0.0
 70
   128
  0
VERTEX
  5
388
100
AcDbEntity
  8
1
  6
Continuous
 62
     6
 48
0.75
100
AcDbVertex
100
AcDb2dVertex
 10
-1123.837792
 20
-63.16265
 30
0.0
 40
0.0
 41
0.0
  0
VERTEX
  5
389
100
AcDbEntity
  8
1
  6
Continuous
 62
     6
 48
0.75
100
AcDbVertex
100
AcDb2dVertex
 10
-1111.340292
 20
-82.88265
 30
0.0
 40
0.0
 41
0.0
  0
VERTEX
  5
38A
100
AcDbEntity
  8
1
  6
Continuous
 62
     6
 48
0.75
100
AcDbVertex
100
AcDb2dVertex
 10
-1108.820292
 20
-85.87015
 30
0.0
 40
0.0
 41
0.0
  0
VERTEX
  5
38B
100
AcDbEntity
  8
1
  6
Continuous
 62
     6
 48
0.75
100
AcDbVertex
100
AcDb2dVertex
 10
-1106.457792
 20
-88.98515
 30
0.0
 40
0.0
 41
0.0
  0
VERTEX
  5
38C
100
AcDbEntity
  8
1
  6
Continuous
 62
     6
 48
0.75
100
AcDbVertex
100
AcDb2dVertex
 10
-1104.255292
 20
-92.21265
 30
0.0
 40
0.0
 41
0.0
  0
VERTEX
  5
38D
100
AcDbEntity
  8
1
  6
Continuous
 62
     6
 48
0.75
100
AcDbVertex
100
AcDb2dVertex
 10
-1102.210292
 20
-95.54515
 30
0.0
 40
0.0
 41
0.0
  0
VERTEX
  5
38E
100
AcDbEntity
  8
1
  6
Continuous
 62
     6
 48
0.75
100
AcDbVertex
100
AcDb2dVertex
 10
-1100.325292
 20
-98.96765
 30
0.0
 40
0.0
 41
0.0
  0
VERTEX
  5
38F
100
AcDbEntity
  8
1
  6
Continuous
 62
     6
 48
0.75
100
AcDbVertex
100
AcDb2dVertex
 10
-1098.590292
 20
-102.47015
 30
0.0
 40
0.0
 41
0.0
  0
VERTEX
  5
390
100
AcDbEntity
  8
1
  6
Continuous
 62
     6
 48
0.75
100
AcDbVertex
100
AcDb2dVertex
 10
-1097.002792
 20
-106.04265
 30
0.0
 40
0.0
 41
0.0
  0
VERTEX
  5
391
100
AcDbEntity
  8
1
  6
Continuous
 62
     6
 48
0.75
100
AcDbVertex
100
AcDb2dVertex
 10
-1095.560292
 20
-109.67515
 30
0.0
 40
0.0
 41
0.0
  0
VERTEX
  5
392
100
AcDbEntity
  8
1
  6
Continuous
 62
     6
 48
0.75
100
AcDbVertex
100
AcDb2dVertex
 10
-1094.255292
 20
-113.36015
 30
0.0
 40
0.0
 41
0.0
  0
VERTEX
  5
393
100
AcDbEntity
  8
1
  6
Continuous
 62
     6
 48
0.75
100
AcDbVertex
100
AcDb2dVertex
 10
-1093.080292
 20
-117.08765
 30
0.0
 40
0.0
 41
0.0
  0
VERTEX
  5
394
100
AcDbEntity
  8
1
  6
Continuous
 62
     6
 48
0.75
100
AcDbVertex
100
AcDb2dVertex
 10
-1087.762792
 20
-132.88265
 30
0.0
 40
0.0
 41
0.0
  0
SEQEND
  5
395
100
AcDbEntity
  8
0
  0
POLYLINE
  5
396
100
AcDbEntity
  8
1
  6
Continuous
 62
     6
 48
0.75
100
AcDb2dPolyline
 66
     1
 10
0.0
 20
0.0
 30
0.0
 70
   128
  0
VERTEX
  5
397
100
AcDbEntity
  8
1
  6
Continuous
 62
     6
 48
0.75
100
AcDbVertex
100
AcDb2dVertex
 10
-1051.687792
 20
-63.16265
 30
0.0
 40
0.0
 41
0.0
  0
VERTEX
  5
398
100
AcDbEntity
  8
1
  6
Continuous
 62
     6
 48
0.75
100
AcDbVertex
100
AcDb2dVertex
 10
-1064.185292
 20
-82.88265
 30
0.0
 40
0.0
 41
0.0
  0
VERTEX
  5
399
100
AcDbEntity
  8
1
  6
Continuous
 62
     6
 48
0.75
100
AcDbVertex
100
AcDb2dVertex
 10
-1066.557792
 20
-85.68765
 30
0.0
 40
0.0
 41
0.0
  0
VERTEX
  5
39A
100
AcDbEntity
  8
1
  6
Continuous
 62
     6
 48
0.75
100
AcDbVertex
100
AcDb2dVertex
 10
-1068.810292
 20
-88.63015
 30
0.0
 40
0.0
 41
0.0
  0
VERTEX
  5
39B
100
AcDbEntity
  8
1
  6
Continuous
 62
     6
 48
0.75
100
AcDbVertex
100
AcDb2dVertex
 10
-1070.940292
 20
-91.70765
 30
0.0
 40
0.0
 41
0.0
  0
VERTEX
  5
39C
100
AcDbEntity
  8
1
  6
Continuous
 62
     6
 48
0.75
100
AcDbVertex
100
AcDb2dVertex
 10
-1072.947792
 20
-94.92265
 30
0.0
 40
0.0
 41
0.0
  0
VERTEX
  5
39D
100
AcDbEntity
  8
1
  6
Continuous
 62
     6
 48
0.75
100
AcDbVertex
100
AcDb2dVertex
 10
-1074.835292
 20
-98.27515
 30
0.0
 40
0.0
 41
0.0
  0
VERTEX
  5
39E
100
AcDbEntity
  8
1
  6
Continuous
 62
     6
 48
0.75
100
AcDbVertex
100
AcDb2dVertex
 10
-1076.600292
 20
-101.76265
 30
0.0
 40
0.0
 41
0.0
  0
VERTEX
  5
39F
100
AcDbEntity
  8
1
  6
Continuous
 62
     6
 48
0.75
100
AcDbVertex
100
AcDb2dVertex
 10
-1078.245292
 20
-105.39015
 30
0.0
 40
0.0
 41
0.0
  0
VERTEX
  5
3A0
100
AcDbEntity
  8
1
  6
Continuous
 62
     6
 48
0.75
100
AcDbVertex
100
AcDb2dVertex
 10
-1079.765292
 20
-109.15265
 30
0.0
 40
0.0
 41
0.0
  0
VERTEX
  5
3A1
100
AcDbEntity
  8
1
  6
Continuous
 62
     6
 48
0.75
100
AcDbVertex
100
AcDb2dVertex
 10
-1081.167792
 20
-113.05265
 30
0.0
 40
0.0
 41
0.0
  0
VERTEX
  5
3A2
100
AcDbEntity
  8
1
  6
Continuous
 62
     6
 48
0.75
100
AcDbVertex
100
AcDb2dVertex
 10
-1082.445292
 20
-117.08765
 30
0.0
 40
0.0
 41
0.0
  0
VERTEX
  5
3A3
100
AcDbEntity
  8
1
  6
Continuous
 62
     6
 48
0.75
100
AcDbVertex
100
AcDb2dVertex
 10
-1087.762792
 20
-132.88265
 30
0.0
 40
0.0
 41
0.0
  0
SEQEND
  5
3A4
100
AcDbEntity
  8
0
  0
POLYLINE
  5
3A5
100
AcDbEntity
  8
1
  6
Continuous
 62
     6
 48
0.75
100
AcDb2dPolyline
 66
     1
 10
0.0
 20
0.0
 30
0.0
 70
   128
  0
VERTEX
  5
3A6
100
AcDbEntity
  8
1
  6
Continuous
 62
     6
 48
0.75
100
AcDbVertex
100
AcDb2dVertex
 10
-1128.852792
 20
-64.11265
 30
0.0
 40
0.0
 41
0.0
  0
VERTEX
  5
3A7
100
AcDbEntity
  8
1
  6
Continuous
 62
     6
 48
0.75
100
AcDbVertex
100
AcDb2dVertex
 10
-1118.415292
 20
-83.88015
 30
0.0
 40
0.0
 41
0.0
  0
VERTEX
  5
3A8
100
AcDbEntity
  8
1
  6
Continuous
 62
     6
 48
0.75
100
AcDbVertex
100
AcDb2dVertex
 10
-1116.462792
 20
-86.11015
 30
0.0
 40
0.0
 41
0.0
  0
VERTEX
  5
3A9
100
AcDbEntity
  8
1
  6
Continuous
 62
     6
 48
0.75
100
AcDbVertex
100
AcDb2dVertex
 10
-1114.510292
 20
-88.62015
 30
0.0
 40
0.0
 41
0.0
  0
VERTEX
  5
3AA
100
AcDbEntity
  8
1
  6
Continuous
 62
     6
 48
0.75
100
AcDbVertex
100
AcDb2dVertex
 10
-1112.562792
 20
-91.41015
 30
0.0
 40
0.0
 41
0.0
  0
VERTEX
  5
3AB
100
AcDbEntity
  8
1
  6
Continuous
 62
     6
 48
0.75
100
AcDbVertex
100
AcDb2dVertex
 10
-1110.615292
 20
-94.47765
 30
0.0
 40
0.0
 41
0.0
  0
VERTEX
  5
3AC
100
AcDbEntity
  8
1
  6
Continuous
 62
     6
 48
0.75
100
AcDbVertex
100
AcDb2dVertex
 10
-1108.672792
 20
-97.82515
 30
0.0
 40
0.0
 41
0.0
  0
VERTEX
  5
3AD
100
AcDbEntity
  8
1
  6
Continuous
 62
     6
 48
0.75
100
AcDbVertex
100
AcDb2dVertex
 10
-1106.730292
 20
-101.45015
 30
0.0
 40
0.0
 41
0.0
  0
VERTEX
  5
3AE
100
AcDbEntity
  8
1
  6
Continuous
 62
     6
 48
0.75
100
AcDbVertex
100
AcDb2dVertex
 10
-1104.792792
 20
-105.35515
 30
0.0
 40
0.0
 41
0.0
  0
VERTEX
  5
3AF
100
AcDbEntity
  8
1
  6
Continuous
 62
     6
 48
0.75
100
AcDbVertex
100
AcDb2dVertex
 10
-1102.855292
 20
-109.53765
 30
0.0
 40
0.0
 41
0.0
  0
VERTEX
  5
3B0
100
AcDbEntity
  8
1
  6
Continuous
 62
     6
 48
0.75
100
AcDbVertex
100
AcDb2dVertex
 10
-1100.920292
 20
-114.00015
 30
0.0
 40
0.0
 41
0.0
  0
VERTEX
  5
3B1
100
AcDbEntity
  8
1
  6
Continuous
 62
     6
 48
0.75
100
AcDbVertex
100
AcDb2dVertex
 10
-1098.987792
 20
-118.74015
 30
0.0
 40
0.0
 41
0.0
  0
VERTEX
  5
3B2
100
AcDbEntity
  8
1
  6
Continuous
 62
     6
 48
0.75
100
AcDbVertex
100
AcDb2dVertex
 10
-1087.762792
 20
-152.35015
 30
0.0
 40
0.0
 41
0.0
  0
SEQEND
  5
3B3
100
AcDbEntity
  8
0
  0
POLYLINE
  5
3B4
100
AcDbEntity
  8
1
  6
Continuous
 62
     6
 48
0.75
100
AcDb2dPolyline
 66
     1
 10
0.0
 20
0.0
 30
0.0
 70
   128
  0
VERTEX
  5
3B5
100
AcDbEntity
  8
1
  6
Continuous
 62
     6
 48
0.75
100
AcDbVertex
100
AcDb2dVertex
 10
-1128.852792
 20
-64.11265
 30
0.0
 40
0.0
 41
0.0
  0
VERTEX
  5
3B6
100
AcDbEntity
  8
1
  6
Continuous
 62
     6
 48
0.75
100
AcDbVertex
100
AcDb2dVertex
 10
-1118.415292
 20
-83.88015
 30
0.0
 40
0.0
 41
0.0
  0
VERTEX
  5
3B7
100
AcDbEntity
  8
1
  6
Continuous
 62
     6
 48
0.75
100
AcDbVertex
100
AcDb2dVertex
 10
-1115.805292
 20
-86.92515
 30
0.0
 40
0.0
 41
0.0
  0
VERTEX
  5
3B8
100
AcDbEntity
  8
1
  6
Continuous
 62
     6
 48
0.75
100
AcDbVertex
100
AcDb2dVertex
 10
-1113.420292
 20
-90.15015
 30
0.0
 40
0.0
 41
0.0
  0
VERTEX
  5
3B9
100
AcDbEntity
  8
1
  6
Continuous
 62
     6
 48
0.75
100
AcDbVertex
100
AcDb2dVertex
 10
-1111.215292
 20
-93.50265
 30
0.0
 40
0.0
 41
0.0
  0
VERTEX
  5
3BA
100
AcDbEntity
  8
1
  6
Continuous
 62
     6
 48
0.75
100
AcDbVertex
100
AcDb2dVertex
 10
-1109.165292
 20
-96.95015
 30
0.0
 40
0.0
 41
0.0
  0
VERTEX
  5
3BB
100
AcDbEntity
  8
1
  6
Continuous
 62
     6
 48
0.75
100
AcDbVertex
100
AcDb2dVertex
 10
-1107.240292
 20
-100.47015
 30
0.0
 40
0.0
 41
0.0
  0
VERTEX
  5
3BC
100
AcDbEntity
  8
1
  6
Continuous
 62
     6
 48
0.75
100
AcDbVertex
100
AcDb2dVertex
 10
-1105.425292
 20
-104.04515
 30
0.0
 40
0.0
 41
0.0
  0
VERTEX
  5
3BD
100
AcDbEntity
  8
1
  6
Continuous
 62
     6
 48
0.75
100
AcDbVertex
100
AcDb2dVertex
 10
-1103.702792
 20
-107.67015
 30
0.0
 40
0.0
 41
0.0
  0
VERTEX
  5
3BE
100
AcDbEntity
  8
1
  6
Continuous
 62
     6
 48
0.75
100
AcDbVertex
100
AcDb2dVertex
 10
-1102.062792
 20
-111.33015
 30
0.0
 40
0.0
 41
0.0
  0
VERTEX
  5
3BF
100
AcDbEntity
  8
1
  6
Continuous
 62
     6
 48
0.75
100
AcDbVertex
100
AcDb2dVertex
 10
-1100.492792
 20
-115.02265
 30
0.0
 40
0.0
 41
0.0
  0
VERTEX
  5
3C0
100
AcDbEntity
  8
1
  6
Continuous
 62
     6
 48
0.75
100
AcDbVertex
100
AcDb2dVertex
 10
-1098.987792
 20
-118.74015
 30
0.0
 40
0.0
 41
0.0
  0
VERTEX
  5
3C1
100
AcDbEntity
  8
1
  6
Continuous
 62
     6
 48
0.75
100
AcDbVertex
100
AcDb2dVertex
 10
-1087.762792
 20
-152.35015
 30
0.0
 40
0.0
 41
0.0
  0
SEQEND
  5
3C2
100
AcDbEntity
  8
0
  0
POLYLINE
  5
3C3
100
AcDbEntity
  8
1
  6
Continuous
 62
     6
 48
0.75
100
AcDb2dPolyline
 66
     1
 10
0.0
 20
0.0
 30
0.0
 70
   128
  0
VERTEX
  5
3C4
100
AcDbEntity
  8
1
  6
Continuous
 62
     6
 48
0.75
100
AcDbVertex
100
AcDb2dVertex
 10
-1046.672792
 20
-64.11265
 30
0.0
 40
0.0
 41
0.0
  0
VERTEX
  5
3C5
100
AcDbEntity
  8
1
  6
Continuous
 62
     6
 48
0.75
100
AcDbVertex
100
AcDb2dVertex
 10
-1057.110292
 20
-83.88015
 30
0.0
 40
0.0
 41
0.0
  0
VERTEX
  5
3C6
100
AcDbEntity
  8
1
  6
Continuous
 62
     6
 48
0.75
100
AcDbVertex
100
AcDb2dVertex
 10
-1059.062792
 20
-86.11015
 30
0.0
 40
0.0
 41
0.0
  0
VERTEX
  5
3C7
100
AcDbEntity
  8
1
  6
Continuous
 62
     6
 48
0.75
100
AcDbVertex
100
AcDb2dVertex
 10
-1061.015292
 20
-88.62015
 30
0.0
 40
0.0
 41
0.0
  0
VERTEX
  5
3C8
100
AcDbEntity
  8
1
  6
Continuous
 62
     6
 48
0.75
100
AcDbVertex
100
AcDb2dVertex
 10
-1062.962792
 20
-91.41015
 30
0.0
 40
0.0
 41
0.0
  0
VERTEX
  5
3C9
100
AcDbEntity
  8
1
  6
Continuous
 62
     6
 48
0.75
100
AcDbVertex
100
AcDb2dVertex
 10
-1064.910292
 20
-94.47765
 30
0.0
 40
0.0
 41
0.0
  0
VERTEX
  5
3CA
100
AcDbEntity
  8
1
  6
Continuous
 62
     6
 48
0.75
100
AcDbVertex
100
AcDb2dVertex
 10
-1066.852792
 20
-97.82515
 30
0.0
 40
0.0
 41
0.0
  0
VERTEX
  5
3CB
100
AcDbEntity
  8
1
  6
Continuous
 62
     6
 48
0.75
100
AcDbVertex
100
AcDb2dVertex
 10
-1068.795292
 20
-101.45015
 30
0.0
 40
0.0
 41
0.0
  0
VERTEX
  5
3CC
100
AcDbEntity
  8
1
  6
Continuous
 62
     6
 48
0.75
100
AcDbVertex
100
AcDb2dVertex
 10
-1070.732792
 20
-105.35515
 30
0.0
 40
0.0
 41
0.0
  0
VERTEX
  5
3CD
100
AcDbEntity
  8
1
  6
Continuous
 62
     6
 48
0.75
100
AcDbVertex
100
AcDb2dVertex
 10
-1072.670292
 20
-109.53765
 30
0.0
 40
0.0
 41
0.0
  0
VERTEX
  5
3CE
100
AcDbEntity
  8
1
  6
Continuous
 62
     6
 48
0.75
100
AcDbVertex
100
AcDb2dVertex
 10
-1074.605292
 20
-114.00015
 30
0.0
 40
0.0
 41
0.0
  0
VERTEX
  5
3CF
100
AcDbEntity
  8
1
  6
Continuous
 62
     6
 48
0.75
100
AcDbVertex
100
AcDb2dVertex
 10
-1076.537792
 20
-118.74015
 30
0.0
 40
0.0
 41
0.0
  0
VERTEX
  5
3D0
100
AcDbEntity
  8
1
  6
Continuous
 62
     6
 48
0.75
100
AcDbVertex
100
AcDb2dVertex
 10
-1087.762792
 20
-152.35015
 30
0.0
 40
0.0
 41
0.0
  0
SEQEND
  5
3D1
100
AcDbEntity
  8
0
  0
POLYLINE
  5
3D2
100
AcDbEntity
  8
1
  6
Continuous
 62
     6
 48
0.75
100
AcDb2dPolyline
 66
     1
 10
0.0
 20
0.0
 30
0.0
 70
   128
  0
VERTEX
  5
3D3
100
AcDbEntity
  8
1
  6
Continuous
 62
     6
 48
0.75
100
AcDbVertex
100
AcDb2dVertex
 10
-1133.222792
 20
-65.12265
 30
0.0
 40
0.0
 41
0.0
  0
VERTEX
  5
3D4
100
AcDbEntity
  8
1
  6
Continuous
 62
     6
 48
0.75
100
AcDbVertex
100
AcDb2dVertex
 10
-1123.787792
 20
-84.87515
 30
0.0
 40
0.0
 41
0.0
  0
VERTEX
  5
3D5
100
AcDbEntity
  8
1
  6
Continuous
 62
     6
 48
0.75
100
AcDbVertex
100
AcDb2dVertex
 10
-1122.220292
 20
-86.58265
 30
0.0
 40
0.0
 41
0.0
  0
VERTEX
  5
3D6
100
AcDbEntity
  8
1
  6
Continuous
 62
     6
 48
0.75
100
AcDbVertex
100
AcDb2dVertex
 10
-1120.555292
 20
-88.70515
 30
0.0
 40
0.0
 41
0.0
  0
VERTEX
  5
3D7
100
AcDbEntity
  8
1
  6
Continuous
 62
     6
 48
0.75
100
AcDbVertex
100
AcDb2dVertex
 10
-1118.790292
 20
-91.24015
 30
0.0
 40
0.0
 41
0.0
  0
VERTEX
  5
3D8
100
AcDbEntity
  8
1
  6
Continuous
 62
     6
 48
0.75
100
AcDbVertex
100
AcDb2dVertex
 10
-1116.927792
 20
-94.19015
 30
0.0
 40
0.0
 41
0.0
  0
VERTEX
  5
3D9
100
AcDbEntity
  8
1
  6
Continuous
 62
     6
 48
0.75
100
AcDbVertex
100
AcDb2dVertex
 10
-1114.962792
 20
-97.55515
 30
0.0
 40
0.0
 41
0.0
  0
VERTEX
  5
3DA
100
AcDbEntity
  8
1
  6
Continuous
 62
     6
 48
0.75
100
AcDbVertex
100
AcDb2dVertex
 10
-1112.900292
 20
-101.33515
 30
0.0
 40
0.0
 41
0.0
  0
VERTEX
  5
3DB
100
AcDbEntity
  8
1
  6
Continuous
 62
     6
 48
0.75
100
AcDbVertex
100
AcDb2dVertex
 10
-1110.737792
 20
-105.52765
 30
0.0
 40
0.0
 41
0.0
  0
VERTEX
  5
3DC
100
AcDbEntity
  8
1
  6
Continuous
 62
     6
 48
0.75
100
AcDbVertex
100
AcDb2dVertex
 10
-1108.475292
 20
-110.13515
 30
0.0
 40
0.0
 41
0.0
  0
VERTEX
  5
3DD
100
AcDbEntity
  8
1
  6
Continuous
 62
     6
 48
0.75
100
AcDbVertex
100
AcDb2dVertex
 10
-1106.115292
 20
-115.15765
 30
0.0
 40
0.0
 41
0.0
  0
VERTEX
  5
3DE
100
AcDbEntity
  8
1
  6
Continuous
 62
     6
 48
0.75
100
AcDbVertex
100
AcDb2dVertex
 10
-1103.655292
 20
-120.59515
 30
0.0
 40
0.0
 41
0.0
  0
VERTEX
  5
3DF
100
AcDbEntity
  8
1
  6
Continuous
 62
     6
 48
0.75
100
AcDbVertex
100
AcDb2dVertex
 10
-1087.762792
 20
-161.22765
 30
0.0
 40
0.0
 41
0.0
  0
SEQEND
  5
3E0
100
AcDbEntity
  8
0
  0
POLYLINE
  5
3E1
100
AcDbEntity
  8
1
  6
Continuous
 62
     6
 48
0.75
100
AcDb2dPolyline
 66
     1
 10
0.0
 20
0.0
 30
0.0
 70
   128
  0
VERTEX
  5
3E2
100
AcDbEntity
  8
1
  6
Continuous
 62
     6
 48
0.75
100
AcDbVertex
100
AcDb2dVertex
 10
-1133.222792
 20
-65.12265
 30
0.0
 40
0.0
 41
0.0
  0
VERTEX
  5
3E3
100
AcDbEntity
  8
1
  6
Continuous
 62
     6
 48
0.75
100
AcDbVertex
100
AcDb2dVertex
 10
-1123.787792
 20
-84.87515
 30
0.0
 40
0.0
 41
0.0
  0
VERTEX
  5
3E4
100
AcDbEntity
  8
1
  6
Continuous
 62
     6
 48
0.75
100
AcDbVertex
100
AcDb2dVertex
 10
-1121.095292
 20
-87.98515
 30
0.0
 40
0.0
 41
0.0
  0
VERTEX
  5
3E5
100
AcDbEntity
  8
1
  6
Continuous
 62
     6
 48
0.75
100
AcDbVertex
100
AcDb2dVertex
 10
-1118.720292
 20
-91.34765
 30
0.0
 40
0.0
 41
0.0
  0
VERTEX
  5
3E6
100
AcDbEntity
  8
1
  6
Continuous
 62
     6
 48
0.75
100
AcDbVertex
100
AcDb2dVertex
 10
-1116.537792
 20
-94.83765
 30
0.0
 40
0.0
 41
0.0
  0
VERTEX
  5
3E7
100
AcDbEntity
  8
1
  6
Continuous
 62
     6
 48
0.75
100
AcDbVertex
100
AcDb2dVertex
 10
-1114.487792
 20
-98.40515
 30
0.0
 40
0.0
 41
0.0
  0
VERTEX
  5
3E8
100
AcDbEntity
  8
1
  6
Continuous
 62
     6
 48
0.75
100
AcDbVertex
100
AcDb2dVertex
 10
-1112.532792
 20
-102.03015
 30
0.0
 40
0.0
 41
0.0
  0
VERTEX
  5
3E9
100
AcDbEntity
  8
1
  6
Continuous
 62
     6
 48
0.75
100
AcDbVertex
100
AcDb2dVertex
 10
-1110.655292
 20
-105.69265
 30
0.0
 40
0.0
 41
0.0
  0
VERTEX
  5
3EA
100
AcDbEntity
  8
1
  6
Continuous
 62
     6
 48
0.75
100
AcDbVertex
100
AcDb2dVertex
 10
-1108.837792
 20
-109.38515
 30
0.0
 40
0.0
 41
0.0
  0
VERTEX
  5
3EB
100
AcDbEntity
  8
1
  6
Continuous
 62
     6
 48
0.75
100
AcDbVertex
100
AcDb2dVertex
 10
-1107.070292
 20
-113.10265
 30
0.0
 40
0.0
 41
0.0
  0
VERTEX
  5
3EC
100
AcDbEntity
  8
1
  6
Continuous
 62
     6
 48
0.75
100
AcDbVertex
100
AcDb2dVertex
 10
-1105.345292
 20
-116.84015
 30
0.0
 40
0.0
 41
0.0
  0
VERTEX
  5
3ED
100
AcDbEntity
  8
1
  6
Continuous
 62
     6
 48
0.75
100
AcDbVertex
100
AcDb2dVertex
 10
-1103.655292
 20
-120.59515
 30
0.0
 40
0.0
 41
0.0
  0
VERTEX
  5
3EE
100
AcDbEntity
  8
1
  6
Continuous
 62
     6
 48
0.75
100
AcDbVertex
100
AcDb2dVertex
 10
-1087.762792
 20
-161.22765
 30
0.0
 40
0.0
 41
0.0
  0
SEQEND
  5
3EF
100
AcDbEntity
  8
0
  0
POLYLINE
  5
3F0
100
AcDbEntity
  8
1
  6
Continuous
 62
     6
 48
0.75
100
AcDb2dPolyline
 66
     1
 10
0.0
 20
0.0
 30
0.0
 70
   128
  0
VERTEX
  5
3F1
100
AcDbEntity
  8
1
  6
Continuous
 62
     6
 48
0.75
100
AcDbVertex
100
AcDb2dVertex
 10
-1042.302792
 20
-65.12265
 30
0.0
 40
0.0
 41
0.0
  0
VERTEX
  5
3F2
100
AcDbEntity
  8
1
  6
Continuous
 62
     6
 48
0.75
100
AcDbVertex
100
AcDb2dVertex
 10
-1051.737792
 20
-84.87515
 30
0.0
 40
0.0
 41
0.0
  0
VERTEX
  5
3F3
100
AcDbEntity
  8
1
  6
Continuous
 62
     6
 48
0.75
100
AcDbVertex
100
AcDb2dVertex
 10
-1053.305292
 20
-86.58265
 30
0.0
 40
0.0
 41
0.0
  0
VERTEX
  5
3F4
100
AcDbEntity
  8
1
  6
Continuous
 62
     6
 48
0.75
100
AcDbVertex
100
AcDb2dVertex
 10
-1054.970292
 20
-88.70515
 30
0.0
 40
0.0
 41
0.0
  0
VERTEX
  5
3F5
100
AcDbEntity
  8
1
  6
Continuous
 62
     6
 48
0.75
100
AcDbVertex
100
AcDb2dVertex
 10
-1056.735292
 20
-91.24015
 30
0.0
 40
0.0
 41
0.0
  0
VERTEX
  5
3F6
100
AcDbEntity
  8
1
  6
Continuous
 62
     6
 48
0.75
100
AcDbVertex
100
AcDb2dVertex
 10
-1058.597792
 20
-94.19015
 30
0.0
 40
0.0
 41
0.0
  0
VERTEX
  5
3F7
100
AcDbEntity
  8
1
  6
Continuous
 62
     6
 48
0.75
100
AcDbVertex
100
AcDb2dVertex
 10
-1060.562792
 20
-97.55515
 30
0.0
 40
0.0
 41
0.0
  0
VERTEX
  5
3F8
100
AcDbEntity
  8
1
  6
Continuous
 62
     6
 48
0.75
100
AcDbVertex
100
AcDb2dVertex
 10
-1062.625292
 20
-101.33515
 30
0.0
 40
0.0
 41
0.0
  0
VERTEX
  5
3F9
100
AcDbEntity
  8
1
  6
Continuous
 62
     6
 48
0.75
100
AcDbVertex
100
AcDb2dVertex
 10
-1064.787792
 20
-105.52765
 30
0.0
 40
0.0
 41
0.0
  0
VERTEX
  5
3FA
100
AcDbEntity
  8
1
  6
Continuous
 62
     6
 48
0.75
100
AcDbVertex
100
AcDb2dVertex
 10
-1067.050292
 20
-110.13515
 30
0.0
 40
0.0
 41
0.0
  0
VERTEX
  5
3FB
100
AcDbEntity
  8
1
  6
Continuous
 62
     6
 48
0.75
100
AcDbVertex
100
AcDb2dVertex
 10
-1069.410292
 20
-115.15765
 30
0.0
 40
0.0
 41
0.0
  0
VERTEX
  5
3FC
100
AcDbEntity
  8
1
  6
Continuous
 62
     6
 48
0.75
100
AcDbVertex
100
AcDb2dVertex
 10
-1071.870292
 20
-120.59515
 30
0.0
 40
0.0
 41
0.0
  0
VERTEX
  5
3FD
100
AcDbEntity
  8
1
  6
Continuous
 62
     6
 48
0.75
100
AcDbVertex
100
AcDb2dVertex
 10
-1087.762792
 20
-161.22765
 30
0.0
 40
0.0
 41
0.0
  0
SEQEND
  5
3FE
100
AcDbEntity
  8
0
  0
POLYLINE
  5
3FF
100
AcDbEntity
  8
1
  6
Continuous
 62
     6
 48
0.75
100
AcDb2dPolyline
 66
     1
 10
0.0
 20
0.0
 30
0.0
 70
   128
  0
VERTEX
  5
400
100
AcDbEntity
  8
1
  6
Continuous
 62
     6
 48
0.75
100
AcDbVertex
100
AcDb2dVertex
 10
-1140.945292
 20
-66.98515
 30
0.0
 40
0.0
 41
0.0
  0
VERTEX
  5
401
100
AcDbEntity
  8
1
  6
Continuous
 62
     6
 48
0.75
100
AcDbVertex
100
AcDb2dVertex
 10
-1132.800292
 20
-86.87015
 30
0.0
 40
0.0
 41
0.0
  0
VERTEX
  5
402
100
AcDbEntity
  8
1
  6
Continuous
 62
     6
 48
0.75
100
AcDbVertex
100
AcDb2dVertex
 10
-1131.775292
 20
-87.80265
 30
0.0
 40
0.0
 41
0.0
  0
VERTEX
  5
403
100
AcDbEntity
  8
1
  6
Continuous
 62
     6
 48
0.75
100
AcDbVertex
100
AcDb2dVertex
 10
-1130.507792
 20
-89.36015
 30
0.0
 40
0.0
 41
0.0
  0
VERTEX
  5
404
100
AcDbEntity
  8
1
  6
Continuous
 62
     6
 48
0.75
100
AcDbVertex
100
AcDb2dVertex
 10
-1129.000292
 20
-91.53515
 30
0.0
 40
0.0
 41
0.0
  0
VERTEX
  5
405
100
AcDbEntity
  8
1
  6
Continuous
 62
     6
 48
0.75
100
AcDbVertex
100
AcDb2dVertex
 10
-1127.250292
 20
-94.33515
 30
0.0
 40
0.0
 41
0.0
  0
VERTEX
  5
406
100
AcDbEntity
  8
1
  6
Continuous
 62
     6
 48
0.75
100
AcDbVertex
100
AcDb2dVertex
 10
-1125.260292
 20
-97.75515
 30
0.0
 40
0.0
 41
0.0
  0
VERTEX
  5
407
100
AcDbEntity
  8
1
  6
Continuous
 62
     6
 48
0.75
100
AcDbVertex
100
AcDb2dVertex
 10
-1123.027792
 20
-101.80015
 30
0.0
 40
0.0
 41
0.0
  0
VERTEX
  5
408
100
AcDbEntity
  8
1
  6
Continuous
 62
     6
 48
0.75
100
AcDbVertex
100
AcDb2dVertex
 10
-1120.555292
 20
-106.46515
 30
0.0
 40
0.0
 41
0.0
  0
VERTEX
  5
409
100
AcDbEntity
  8
1
  6
Continuous
 62
     6
 48
0.75
100
AcDbVertex
100
AcDb2dVertex
 10
-1117.840292
 20
-111.75015
 30
0.0
 40
0.0
 41
0.0
  0
VERTEX
  5
40A
100
AcDbEntity
  8
1
  6
Continuous
 62
     6
 48
0.75
100
AcDbVertex
100
AcDb2dVertex
 10
-1114.885292
 20
-117.66015
 30
0.0
 40
0.0
 41
0.0
  0
VERTEX
  5
40B
100
AcDbEntity
  8
1
  6
Continuous
 62
     6
 48
0.75
100
AcDbVertex
100
AcDb2dVertex
 10
-1111.687792
 20
-124.19015
 30
0.0
 40
0.0
 41
0.0
  0
VERTEX
  5
40C
100
AcDbEntity
  8
1
  6
Continuous
 62
     6
 48
0.75
100
AcDbVertex
100
AcDb2dVertex
 10
-1087.762792
 20
-166.08015
 30
0.0
 40
0.0
 41
0.0
  0
SEQEND
  5
40D
100
AcDbEntity
  8
0
  0
POLYLINE
  5
40E
100
AcDbEntity
  8
1
  6
Continuous
 62
     6
 48
0.75
100
AcDb2dPolyline
 66
     1
 10
0.0
 20
0.0
 30
0.0
 70
   128
  0
VERTEX
  5
40F
100
AcDbEntity
  8
1
  6
Continuous
 62
     6
 48
0.75
100
AcDbVertex
100
AcDb2dVertex
 10
-1140.945292
 20
-66.98515
 30
0.0
 40
0.0
 41
0.0
  0
VERTEX
  5
410
100
AcDbEntity
  8
1
  6
Continuous
 62
     6
 48
0.75
100
AcDbVertex
100
AcDb2dVertex
 10
-1132.800292
 20
-86.87015
 30
0.0
 40
0.0
 41
0.0
  0
VERTEX
  5
411
100
AcDbEntity
  8
1
  6
Continuous
 62
     6
 48
0.75
100
AcDbVertex
100
AcDb2dVertex
 10
-1129.977792
 20
-90.09265
 30
0.0
 40
0.0
 41
0.0
  0
VERTEX
  5
412
100
AcDbEntity
  8
1
  6
Continuous
 62
     6
 48
0.75
100
AcDbVertex
100
AcDb2dVertex
 10
-1127.635292
 20
-93.70015
 30
0.0
 40
0.0
 41
0.0
  0
VERTEX
  5
413
100
AcDbEntity
  8
1
  6
Continuous
 62
     6
 48
0.75
100
AcDbVertex
100
AcDb2dVertex
 10
-1125.455292
 20
-97.41015
 30
0.0
 40
0.0
 41
0.0
  0
VERTEX
  5
414
100
AcDbEntity
  8
1
  6
Continuous
 62
     6
 48
0.75
100
AcDbVertex
100
AcDb2dVertex
 10
-1123.367792
 20
-101.17265
 30
0.0
 40
0.0
 41
0.0
  0
VERTEX
  5
415
100
AcDbEntity
  8
1
  6
Continuous
 62
     6
 48
0.75
100
AcDbVertex
100
AcDb2dVertex
 10
-1121.340292
 20
-104.96515
 30
0.0
 40
0.0
 41
0.0
  0
VERTEX
  5
416
100
AcDbEntity
  8
1
  6
Continuous
 62
     6
 48
0.75
100
AcDbVertex
100
AcDb2dVertex
 10
-1119.355292
 20
-108.78265
 30
0.0
 40
0.0
 41
0.0
  0
VERTEX
  5
417
100
AcDbEntity
  8
1
  6
Continuous
 62
     6
 48
0.75
100
AcDbVertex
100
AcDb2dVertex
 10
-1117.402792
 20
-112.61765
 30
0.0
 40
0.0
 41
0.0
  0
VERTEX
  5
418
100
AcDbEntity
  8
1
  6
Continuous
 62
     6
 48
0.75
100
AcDbVertex
100
AcDb2dVertex
 10
-1115.477792
 20
-116.46515
 30
0.0
 40
0.0
 41
0.0
  0
VERTEX
  5
419
100
AcDbEntity
  8
1
  6
Continuous
 62
     6
 48
0.75
100
AcDbVertex
100
AcDb2dVertex
 10
-1113.572792
 20
-120.32265
 30
0.0
 40
0.0
 41
0.0
  0
VERTEX
  5
41A
100
AcDbEntity
  8
1
  6
Continuous
 62
     6
 48
0.75
100
AcDbVertex
100
AcDb2dVertex
 10
-1111.687792
 20
-124.19015
 30
0.0
 40
0.0
 41
0.0
  0
VERTEX
  5
41B
100
AcDbEntity
  8
1
  6
Continuous
 62
     6
 48
0.75
100
AcDbVertex
100
AcDb2dVertex
 10
-1087.762792
 20
-166.08015
 30
0.0
 40
0.0
 41
0.0
  0
SEQEND
  5
41C
100
AcDbEntity
  8
0
  0
POLYLINE
  5
41D
100
AcDbEntity
  8
1
  6
Continuous
 62
     6
 48
0.75
100
AcDb2dPolyline
 66
     1
 10
0.0
 20
0.0
 30
0.0
 70
   128
  0
VERTEX
  5
41E
100
AcDbEntity
  8
1
  6
Continuous
 62
     6
 48
0.75
100
AcDbVertex
100
AcDb2dVertex
 10
-1034.580292
 20
-66.98515
 30
0.0
 40
0.0
 41
0.0
  0
VERTEX
  5
41F
100
AcDbEntity
  8
1
  6
Continuous
 62
     6
 48
0.75
100
AcDbVertex
100
AcDb2dVertex
 10
-1042.725292
 20
-86.87015
 30
0.0
 40
0.0
 41
0.0
  0
VERTEX
  5
420
100
AcDbEntity
  8
1
  6
Continuous
 62
     6
 48
0.75
100
AcDbVertex
100
AcDb2dVertex
 10
-1043.750292
 20
-87.80265
 30
0.0
 40
0.0
 41
0.0
  0
VERTEX
  5
421
100
AcDbEntity
  8
1
  6
Continuous
 62
     6
 48
0.75
100
AcDbVertex
100
AcDb2dVertex
 10
-1045.017792
 20
-89.36015
 30
0.0
 40
0.0
 41
0.0
  0
VERTEX
  5
422
100
AcDbEntity
  8
1
  6
Continuous
 62
     6
 48
0.75
100
AcDbVertex
100
AcDb2dVertex
 10
-1046.525292
 20
-91.53515
 30
0.0
 40
0.0
 41
0.0
  0
VERTEX
  5
423
100
AcDbEntity
  8
1
  6
Continuous
 62
     6
 48
0.75
100
AcDbVertex
100
AcDb2dVertex
 10
-1048.275292
 20
-94.33515
 30
0.0
 40
0.0
 41
0.0
  0
VERTEX
  5
424
100
AcDbEntity
  8
1
  6
Continuous
 62
     6
 48
0.75
100
AcDbVertex
100
AcDb2dVertex
 10
-1050.265292
 20
-97.75515
 30
0.0
 40
0.0
 41
0.0
  0
VERTEX
  5
425
100
AcDbEntity
  8
1
  6
Continuous
 62
     6
 48
0.75
100
AcDbVertex
100
AcDb2dVertex
 10
-1052.497792
 20
-101.80015
 30
0.0
 40
0.0
 41
0.0
  0
VERTEX
  5
426
100
AcDbEntity
  8
1
  6
Continuous
 62
     6
 48
0.75
100
AcDbVertex
100
AcDb2dVertex
 10
-1054.970292
 20
-106.46515
 30
0.0
 40
0.0
 41
0.0
  0
VERTEX
  5
427
100
AcDbEntity
  8
1
  6
Continuous
 62
     6
 48
0.75
100
AcDbVertex
100
AcDb2dVertex
 10
-1057.685292
 20
-111.75015
 30
0.0
 40
0.0
 41
0.0
  0
VERTEX
  5
428
100
AcDbEntity
  8
1
  6
Continuous
 62
     6
 48
0.75
100
AcDbVertex
100
AcDb2dVertex
 10
-1060.640292
 20
-117.66015
 30
0.0
 40
0.0
 41
0.0
  0
VERTEX
  5
429
100
AcDbEntity
  8
1
  6
Continuous
 62
     6
 48
0.75
100
AcDbVertex
100
AcDb2dVertex
 10
-1063.837792
 20
-124.19015
 30
0.0
 40
0.0
 41
0.0
  0
VERTEX
  5
42A
100
AcDbEntity
  8
1
  6
Continuous
 62
     6
 48
0.75
100
AcDbVertex
100
AcDb2dVertex
 10
-1087.762792
 20
-166.08015
 30
0.0
 40
0.0
 41
0.0
  0
SEQEND
  5
42B
100
AcDbEntity
  8
0
  0
POLYLINE
  5
42C
100
AcDbEntity
  8
1
  6
Continuous
 62
     6
 48
0.75
100
AcDb2dPolyline
 66
     1
 10
0.0
 20
0.0
 30
0.0
 70
   128
  0
VERTEX
  5
42D
100
AcDbEntity
  8
1
  6
Continuous
 62
     6
 48
0.75
100
AcDbVertex
100
AcDb2dVertex
 10
-1146.660292
 20
-68.74515
 30
0.0
 40
0.0
 41
0.0
  0
VERTEX
  5
42E
100
AcDbEntity
  8
1
  6
Continuous
 62
     6
 48
0.75
100
AcDbVertex
100
AcDb2dVertex
 10
-1140.700292
 20
-88.89515
 30
0.0
 40
0.0
 41
0.0
  0
VERTEX
  5
42F
100
AcDbEntity
  8
1
  6
Continuous
 62
     6
 48
0.75
100
AcDbVertex
100
AcDb2dVertex
 10
-1140.170292
 20
-89.42265
 30
0.0
 40
0.0
 41
0.0
  0
VERTEX
  5
430
100
AcDbEntity
  8
1
  6
Continuous
 62
     6
 48
0.75
100
AcDbVertex
100
AcDb2dVertex
 10
-1139.272792
 20
-90.69765
 30
0.0
 40
0.0
 41
0.0
  0
VERTEX
  5
431
100
AcDbEntity
  8
1
  6
Continuous
 62
     6
 48
0.75
100
AcDbVertex
100
AcDb2dVertex
 10
-1138.005292
 20
-92.72015
 30
0.0
 40
0.0
 41
0.0
  0
VERTEX
  5
432
100
AcDbEntity
  8
1
  6
Continuous
 62
     6
 48
0.75
100
AcDbVertex
100
AcDb2dVertex
 10
-1136.370292
 20
-95.48765
 30
0.0
 40
0.0
 41
0.0
  0
VERTEX
  5
433
100
AcDbEntity
  8
1
  6
Continuous
 62
     6
 48
0.75
100
AcDbVertex
100
AcDb2dVertex
 10
-1134.370292
 20
-99.00015
 30
0.0
 40
0.0
 41
0.0
  0
VERTEX
  5
434
100
AcDbEntity
  8
1
  6
Continuous
 62
     6
 48
0.75
100
AcDbVertex
100
AcDb2dVertex
 10
-1131.997792
 20
-103.26265
 30
0.0
 40
0.0
 41
0.0
  0
VERTEX
  5
435
100
AcDbEntity
  8
1
  6
Continuous
 62
     6
 48
0.75
100
AcDbVertex
100
AcDb2dVertex
 10
-1129.260292
 20
-108.26765
 30
0.0
 40
0.0
 41
0.0
  0
VERTEX
  5
436
100
AcDbEntity
  8
1
  6
Continuous
 62
     6
 48
0.75
100
AcDbVertex
100
AcDb2dVertex
 10
-1126.152792
 20
-114.02015
 30
0.0
 40
0.0
 41
0.0
  0
VERTEX
  5
437
100
AcDbEntity
  8
1
  6
Continuous
 62
     6
 48
0.75
100
AcDbVertex
100
AcDb2dVertex
 10
-1122.677792
 20
-120.52015
 30
0.0
 40
0.0
 41
0.0
  0
VERTEX
  5
438
100
AcDbEntity
  8
1
  6
Continuous
 62
     6
 48
0.75
100
AcDbVertex
100
AcDb2dVertex
 10
-1118.835292
 20
-127.76515
 30
0.0
 40
0.0
 41
0.0
  0
VERTEX
  5
439
100
AcDbEntity
  8
1
  6
Continuous
 62
     6
 48
0.75
100
AcDbVertex
100
AcDb2dVertex
 10
-1087.762792
 20
-166.14015
 30
0.0
 40
0.0
 41
0.0
  0
SEQEND
  5
43A
100
AcDbEntity
  8
0
  0
POLYLINE
  5
43B
100
AcDbEntity
  8
1
  6
Continuous
 62
     6
 48
0.75
100
AcDb2dPolyline
 66
     1
 10
0.0
 20
0.0
 30
0.0
 70
   128
  0
VERTEX
  5
43C
100
AcDbEntity
  8
1
  6
Continuous
 62
     6
 48
0.75
100
AcDbVertex
100
AcDb2dVertex
 10
-1146.660292
 20
-68.74515
 30
0.0
 40
0.0
 41
0.0
  0
VERTEX
  5
43D
100
AcDbEntity
  8
1
  6
Continuous
 62
     6
 48
0.75
100
AcDbVertex
100
AcDb2dVertex
 10
-1140.700292
 20
-88.89515
 30
0.0
 40
0.0
 41
0.0
  0
VERTEX
  5
43E
100
AcDbEntity
  8
1
  6
Continuous
 62
     6
 48
0.75
100
AcDbVertex
100
AcDb2dVertex
 10
-1138.127792
 20
-92.52015
 30
0.0
 40
0.0
 41
0.0
  0
VERTEX
  5
43F
100
AcDbEntity
  8
1
  6
Continuous
 62
     6
 48
0.75
100
AcDbVertex
100
AcDb2dVertex
 10
-1135.862792
 20
-96.36765
 30
0.0
 40
0.0
 41
0.0
  0
VERTEX
  5
440
100
AcDbEntity
  8
1
  6
Continuous
 62
     6
 48
0.75
100
AcDbVertex
100
AcDb2dVertex
 10
-1133.665292
 20
-100.25515
 30
0.0
 40
0.0
 41
0.0
  0
VERTEX
  5
441
100
AcDbEntity
  8
1
  6
Continuous
 62
     6
 48
0.75
100
AcDbVertex
100
AcDb2dVertex
 10
-1131.502792
 20
-104.16015
 30
0.0
 40
0.0
 41
0.0
  0
VERTEX
  5
442
100
AcDbEntity
  8
1
  6
Continuous
 62
     6
 48
0.75
100
AcDbVertex
100
AcDb2dVertex
 10
-1129.362792
 20
-108.08015
 30
0.0
 40
0.0
 41
0.0
  0
VERTEX
  5
443
100
AcDbEntity
  8
1
  6
Continuous
 62
     6
 48
0.75
100
AcDbVertex
100
AcDb2dVertex
 10
-1127.237792
 20
-112.00515
 30
0.0
 40
0.0
 41
0.0
  0
VERTEX
  5
444
100
AcDbEntity
  8
1
  6
Continuous
 62
     6
 48
0.75
100
AcDbVertex
100
AcDb2dVertex
 10
-1125.125292
 20
-115.93765
 30
0.0
 40
0.0
 41
0.0
  0
VERTEX
  5
445
100
AcDbEntity
  8
1
  6
Continuous
 62
     6
 48
0.75
100
AcDbVertex
100
AcDb2dVertex
 10
-1123.020292
 20
-119.87765
 30
0.0
 40
0.0
 41
0.0
  0
VERTEX
  5
446
100
AcDbEntity
  8
1
  6
Continuous
 62
     6
 48
0.75
100
AcDbVertex
100
AcDb2dVertex
 10
-1120.925292
 20
-123.82015
 30
0.0
 40
0.0
 41
0.0
  0
VERTEX
  5
447
100
AcDbEntity
  8
1
  6
Continuous
 62
     6
 48
0.75
100
AcDbVertex
100
AcDb2dVertex
 10
-1118.835292
 20
-127.76515
 30
0.0
 40
0.0
 41
0.0
  0
VERTEX
  5
448
100
AcDbEntity
  8
1
  6
Continuous
 62
     6
 48
0.75
100
AcDbVertex
100
AcDb2dVertex
 10
-1087.762792
 20
-166.14015
 30
0.0
 40
0.0
 41
0.0
  0
SEQEND
  5
449
100
AcDbEntity
  8
0
  0
POLYLINE
  5
44A
100
AcDbEntity
  8
1
  6
Continuous
 62
     6
 48
0.75
100
AcDb2dPolyline
 66
     1
 10
0.0
 20
0.0
 30
0.0
 70
   128
  0
VERTEX
  5
44B
100
AcDbEntity
  8
1
  6
Continuous
 62
     6
 48
0.75
100
AcDbVertex
100
AcDb2dVertex
 10
-1028.865292
 20
-68.74515
 30
0.0
 40
0.0
 41
0.0
  0
VERTEX
  5
44C
100
AcDbEntity
  8
1
  6
Continuous
 62
     6
 48
0.75
100
AcDbVertex
100
AcDb2dVertex
 10
-1034.825292
 20
-88.89515
 30
0.0
 40
0.0
 41
0.0
  0
VERTEX
  5
44D
100
AcDbEntity
  8
1
  6
Continuous
 62
     6
 48
0.75
100
AcDbVertex
100
AcDb2dVertex
 10
-1035.355292
 20
-89.42265
 30
0.0
 40
0.0
 41
0.0
  0
VERTEX
  5
44E
100
AcDbEntity
  8
1
  6
Continuous
 62
     6
 48
0.75
100
AcDbVertex
100
AcDb2dVertex
 10
-1036.252792
 20
-90.69765
 30
0.0
 40
0.0
 41
0.0
  0
VERTEX
  5
44F
100
AcDbEntity
  8
1
  6
Continuous
 62
     6
 48
0.75
100
AcDbVertex
100
AcDb2dVertex
 10
-1037.520292
 20
-92.72015
 30
0.0
 40
0.0
 41
0.0
  0
VERTEX
  5
450
100
AcDbEntity
  8
1
  6
Continuous
 62
     6
 48
0.75
100
AcDbVertex
100
AcDb2dVertex
 10
-1039.155292
 20
-95.48765
 30
0.0
 40
0.0
 41
0.0
  0
VERTEX
  5
451
100
AcDbEntity
  8
1
  6
Continuous
 62
     6
 48
0.75
100
AcDbVertex
100
AcDb2dVertex
 10
-1041.155292
 20
-99.00015
 30
0.0
 40
0.0
 41
0.0
  0
VERTEX
  5
452
100
AcDbEntity
  8
1
  6
Continuous
 62
     6
 48
0.75
100
AcDbVertex
100
AcDb2dVertex
 10
-1043.527792
 20
-103.26265
 30
0.0
 40
0.0
 41
0.0
  0
VERTEX
  5
453
100
AcDbEntity
  8
1
  6
Continuous
 62
     6
 48
0.75
100
AcDbVertex
100
AcDb2dVertex
 10
-1046.265292
 20
-108.26765
 30
0.0
 40
0.0
 41
0.0
  0
VERTEX
  5
454
100
AcDbEntity
  8
1
  6
Continuous
 62
     6
 48
0.75
100
AcDbVertex
100
AcDb2dVertex
 10
-1049.372792
 20
-114.02015
 30
0.0
 40
0.0
 41
0.0
  0
VERTEX
  5
455
100
AcDbEntity
  8
1
  6
Continuous
 62
     6
 48
0.75
100
AcDbVertex
100
AcDb2dVertex
 10
-1052.847792
 20
-120.52015
 30
0.0
 40
0.0
 41
0.0
  0
VERTEX
  5
456
100
AcDbEntity
  8
1
  6
Continuous
 62
     6
 48
0.75
100
AcDbVertex
100
AcDb2dVertex
 10
-1056.690292
 20
-127.76515
 30
0.0
 40
0.0
 41
0.0
  0
VERTEX
  5
457
100
AcDbEntity
  8
1
  6
Continuous
 62
     6
 48
0.75
100
AcDbVertex
100
AcDb2dVertex
 10
-1087.762792
 20
-166.14015
 30
0.0
 40
0.0
 41
0.0
  0
SEQEND
  5
458
100
AcDbEntity
  8
0
  0
POLYLINE
  5
459
100
AcDbEntity
  8
1
  6
Continuous
 62
     6
 48
0.75
100
AcDb2dPolyline
 66
     1
 10
0.0
 20
0.0
 30
0.0
 70
   128
  0
VERTEX
  5
45A
100
AcDbEntity
  8
1
  6
Continuous
 62
     6
 48
0.75
100
AcDbVertex
100
AcDb2dVertex
 10
-1151.057792
 20
-70.70515
 30
0.0
 40
0.0
 41
0.0
  0
VERTEX
  5
45B
100
AcDbEntity
  8
1
  6
Continuous
 62
     6
 48
0.75
100
AcDbVertex
100
AcDb2dVertex
 10
-1147.177792
 20
-91.05515
 30
0.0
 40
0.0
 41
0.0
  0
VERTEX
  5
45C
100
AcDbEntity
  8
1
  6
Continuous
 62
     6
 48
0.75
100
AcDbVertex
100
AcDb2dVertex
 10
-1125.572792
 20
-130.95015
 30
0.0
 40
0.0
 41
0.0
  0
VERTEX
  5
45D
100
AcDbEntity
  8
1
  6
Continuous
 62
     6
 48
0.75
100
AcDbVertex
100
AcDb2dVertex
 10
-1087.762792
 20
-165.56515
 30
0.0
 40
0.0
 41
0.0
  0
SEQEND
  5
45E
100
AcDbEntity
  8
0
  0
POLYLINE
  5
45F
100
AcDbEntity
  8
1
  6
Continuous
 62
     6
 48
0.75
100
AcDb2dPolyline
 66
     1
 10
0.0
 20
0.0
 30
0.0
 70
   128
  0
VERTEX
  5
460
100
AcDbEntity
  8
1
  6
Continuous
 62
     6
 48
0.75
100
AcDbVertex
100
AcDb2dVertex
 10
-1151.057792
 20
-70.70515
 30
0.0
 40
0.0
 41
0.0
  0
VERTEX
  5
461
100
AcDbEntity
  8
1
  6
Continuous
 62
     6
 48
0.75
100
AcDbVertex
100
AcDb2dVertex
 10
-1147.177792
 20
-91.05515
 30
0.0
 40
0.0
 41
0.0
  0
VERTEX
  5
462
100
AcDbEntity
  8
1
  6
Continuous
 62
     6
 48
0.75
100
AcDbVertex
100
AcDb2dVertex
 10
-1125.572792
 20
-130.95015
 30
0.0
 40
0.0
 41
0.0
  0
VERTEX
  5
463
100
AcDbEntity
  8
1
  6
Continuous
 62
     6
 48
0.75
100
AcDbVertex
100
AcDb2dVertex
 10
-1087.762792
 20
-165.56515
 30
0.0
 40
0.0
 41
0.0
  0
SEQEND
  5
464
100
AcDbEntity
  8
0
  0
POLYLINE
  5
465
100
AcDbEntity
  8
1
  6
Continuous
 62
     6
 48
0.75
100
AcDb2dPolyline
 66
     1
 10
0.0
 20
0.0
 30
0.0
 70
   128
  0
VERTEX
  5
466
100
AcDbEntity
  8
1
  6
Continuous
 62
     6
 48
0.75
100
AcDbVertex
100
AcDb2dVertex
 10
-1024.467792
 20
-70.70515
 30
0.0
 40
0.0
 41
0.0
  0
VERTEX
  5
467
100
AcDbEntity
  8
1
  6
Continuous
 62
     6
 48
0.75
100
AcDbVertex
100
AcDb2dVertex
 10
-1028.347792
 20
-91.05515
 30
0.0
 40
0.0
 41
0.0
  0
VERTEX
  5
468
100
AcDbEntity
  8
1
  6
Continuous
 62
     6
 48
0.75
100
AcDbVertex
100
AcDb2dVertex
 10
-1049.952792
 20
-130.95015
 30
0.0
 40
0.0
 41
0.0
  0
VERTEX
  5
469
100
AcDbEntity
  8
1
  6
Continuous
 62
     6
 48
0.75
100
AcDbVertex
100
AcDb2dVertex
 10
-1087.762792
 20
-165.56515
 30
0.0
 40
0.0
 41
0.0
  0
SEQEND
  5
46A
100
AcDbEntity
  8
0
  0
POLYLINE
  5
46B
100
AcDbEntity
  8
1
  6
Continuous
 62
     6
 48
0.75
100
AcDb2dPolyline
 66
     1
 10
0.0
 20
0.0
 30
0.0
 70
   128
  0
VERTEX
  5
46C
100
AcDbEntity
  8
1
  6
Continuous
 62
     6
 48
0.75
100
AcDbVertex
100
AcDb2dVertex
 10
-1155.017792
 20
-72.58265
 30
0.0
 40
0.0
 41
0.0
  0
VERTEX
  5
46D
100
AcDbEntity
  8
1
  6
Continuous
 62
     6
 48
0.75
100
AcDbVertex
100
AcDb2dVertex
 10
-1152.162792
 20
-93.01515
 30
0.0
 40
0.0
 41
0.0
  0
VERTEX
  5
46E
100
AcDbEntity
  8
1
  6
Continuous
 62
     6
 48
0.75
100
AcDbVertex
100
AcDb2dVertex
 10
-1131.575292
 20
-134.08265
 30
0.0
 40
0.0
 41
0.0
  0
VERTEX
  5
46F
100
AcDbEntity
  8
1
  6
Continuous
 62
     6
 48
0.75
100
AcDbVertex
100
AcDb2dVertex
 10
-1087.762792
 20
-164.89765
 30
0.0
 40
0.0
 41
0.0
  0
SEQEND
  5
470
100
AcDbEntity
  8
0
  0
POLYLINE
  5
471
100
AcDbEntity
  8
1
  6
Continuous
 62
     6
 48
0.75
100
AcDb2dPolyline
 66
     1
 10
0.0
 20
0.0
 30
0.0
 70
   128
  0
VERTEX
  5
472
100
AcDbEntity
  8
1
  6
Continuous
 62
     6
 48
0.75
100
AcDbVertex
100
AcDb2dVertex
 10
-1155.017792
 20
-72.58265
 30
0.0
 40
0.0
 41
0.0
  0
VERTEX
  5
473
100
AcDbEntity
  8
1
  6
Continuous
 62
     6
 48
0.75
100
AcDbVertex
100
AcDb2dVertex
 10
-1152.162792
 20
-93.01515
 30
0.0
 40
0.0
 41
0.0
  0
VERTEX
  5
474
100
AcDbEntity
  8
1
  6
Continuous
 62
     6
 48
0.75
100
AcDbVertex
100
AcDb2dVertex
 10
-1131.575292
 20
-134.08265
 30
0.0
 40
0.0
 41
0.0
  0
VERTEX
  5
475
100
AcDbEntity
  8
1
  6
Continuous
 62
     6
 48
0.75
100
AcDbVertex
100
AcDb2dVertex
 10
-1087.762792
 20
-164.89765
 30
0.0
 40
0.0
 41
0.0
  0
SEQEND
  5
476
100
AcDbEntity
  8
0
  0
POLYLINE
  5
477
100
AcDbEntity
  8
1
  6
Continuous
 62
     6
 48
0.75
100
AcDb2dPolyline
 66
     1
 10
0.0
 20
0.0
 30
0.0
 70
   128
  0
VERTEX
  5
478
100
AcDbEntity
  8
1
  6
Continuous
 62
     6
 48
0.75
100
AcDbVertex
100
AcDb2dVertex
 10
-1020.507792
 20
-72.58265
 30
0.0
 40
0.0
 41
0.0
  0
VERTEX
  5
479
100
AcDbEntity
  8
1
  6
Continuous
 62
     6
 48
0.75
100
AcDbVertex
100
AcDb2dVertex
 10
-1023.362792
 20
-93.01515
 30
0.0
 40
0.0
 41
0.0
  0
VERTEX
  5
47A
100
AcDbEntity
  8
1
  6
Continuous
 62
     6
 48
0.75
100
AcDbVertex
100
AcDb2dVertex
 10
-1043.950292
 20
-134.08265
 30
0.0
 40
0.0
 41
0.0
  0
VERTEX
  5
47B
100
AcDbEntity
  8
1
  6
Continuous
 62
     6
 48
0.75
100
AcDbVertex
100
AcDb2dVertex
 10
-1087.762792
 20
-164.89765
 30
0.0
 40
0.0
 41
0.0
  0
SEQEND
  5
47C
100
AcDbEntity
  8
0
  0
POLYLINE
  5
47D
100
AcDbEntity
  8
1
  6
Continuous
 62
     6
 48
0.75
100
AcDb2dPolyline
 66
     1
 10
0.0
 20
0.0
 30
0.0
 70
   128
  0
VERTEX
  5
47E
100
AcDbEntity
  8
1
  6
Continuous
 62
     6
 48
0.75
100
AcDbVertex
100
AcDb2dVertex
 10
-1157.940292
 20
-74.39265
 30
0.0
 40
0.0
 41
0.0
  0
VERTEX
  5
47F
100
AcDbEntity
  8
1
  6
Continuous
 62
     6
 48
0.75
100
AcDbVertex
100
AcDb2dVertex
 10
-1155.787792
 20
-95.24015
 30
0.0
 40
0.0
 41
0.0
  0
VERTEX
  5
480
100
AcDbEntity
  8
1
  6
Continuous
 62
     6
 48
0.75
100
AcDbVertex
100
AcDb2dVertex
 10
-1136.670292
 20
-136.83265
 30
0.0
 40
0.0
 41
0.0
  0
VERTEX
  5
481
100
AcDbEntity
  8
1
  6
Continuous
 62
     6
 48
0.75
100
AcDbVertex
100
AcDb2dVertex
 10
-1087.762792
 20
-164.00265
 30
0.0
 40
0.0
 41
0.0
  0
SEQEND
  5
482
100
AcDbEntity
  8
0
  0
POLYLINE
  5
483
100
AcDbEntity
  8
1
  6
Continuous
 62
     6
 48
0.75
100
AcDb2dPolyline
 66
     1
 10
0.0
 20
0.0
 30
0.0
 70
   128
  0
VERTEX
  5
484
100
AcDbEntity
  8
1
  6
Continuous
 62
     6
 48
0.75
100
AcDbVertex
100
AcDb2dVertex
 10
-1157.940292
 20
-74.39265
 30
0.0
 40
0.0
 41
0.0
  0
VERTEX
  5
485
100
AcDbEntity
  8
1
  6
Continuous
 62
     6
 48
0.75
100
AcDbVertex
100
AcDb2dVertex
 10
-1155.787792
 20
-95.24015
 30
0.0
 40
0.0
 41
0.0
  0
VERTEX
  5
486
100
AcDbEntity
  8
1
  6
Continuous
 62
     6
 48
0.75
100
AcDbVertex
100
AcDb2dVertex
 10
-1136.670292
 20
-136.83265
 30
0.0
 40
0.0
 41
0.0
  0
VERTEX
  5
487
100
AcDbEntity
  8
1
  6
Continuous
 62
     6
 48
0.75
100
AcDbVertex
100
AcDb2dVertex
 10
-1087.762792
 20
-164.00265
 30
0.0
 40
0.0
 41
0.0
  0
SEQEND
  5
488
100
AcDbEntity
  8
0
  0
POLYLINE
  5
489
100
AcDbEntity
  8
1
  6
Continuous
 62
     6
 48
0.75
100
AcDb2dPolyline
 66
     1
 10
0.0
 20
0.0
 30
0.0
 70
   128
  0
VERTEX
  5
48A
100
AcDbEntity
  8
1
  6
Continuous
 62
     6
 48
0.75
100
AcDbVertex
100
AcDb2dVertex
 10
-1017.585292
 20
-74.39265
 30
0.0
 40
0.0
 41
0.0
  0
VERTEX
  5
48B
100
AcDbEntity
  8
1
  6
Continuous
 62
     6
 48
0.75
100
AcDbVertex
100
AcDb2dVertex
 10
-1019.737792
 20
-95.24015
 30
0.0
 40
0.0
 41
0.0
  0
VERTEX
  5
48C
100
AcDbEntity
  8
1
  6
Continuous
 62
     6
 48
0.75
100
AcDbVertex
100
AcDb2dVertex
 10
-1038.855292
 20
-136.83265
 30
0.0
 40
0.0
 41
0.0
  0
VERTEX
  5
48D
100
AcDbEntity
  8
1
  6
Continuous
 62
     6
 48
0.75
100
AcDbVertex
100
AcDb2dVertex
 10
-1087.762792
 20
-164.00265
 30
0.0
 40
0.0
 41
0.0
  0
SEQEND
  5
48E
100
AcDbEntity
  8
0
  0
POLYLINE
  5
48F
100
AcDbEntity
  8
1
  6
Continuous
 62
     6
 48
0.75
100
AcDb2dPolyline
 66
     1
 10
0.0
 20
0.0
 30
0.0
 70
   128
  0
VERTEX
  5
490
100
AcDbEntity
  8
1
  6
Continuous
 62
     6
 48
0.75
100
AcDbVertex
100
AcDb2dVertex
 10
-1159.925292
 20
-76.55265
 30
0.0
 40
0.0
 41
0.0
  0
VERTEX
  5
491
100
AcDbEntity
  8
1
  6
Continuous
 62
     6
 48
0.75
100
AcDbVertex
100
AcDb2dVertex
 10
-1158.682792
 20
-97.46515
 30
0.0
 40
0.0
 41
0.0
  0
VERTEX
  5
492
100
AcDbEntity
  8
1
  6
Continuous
 62
     6
 48
0.75
100
AcDbVertex
100
AcDb2dVertex
 10
-1141.030292
 20
-139.48765
 30
0.0
 40
0.0
 41
0.0
  0
VERTEX
  5
493
100
AcDbEntity
  8
1
  6
Continuous
 62
     6
 48
0.75
100
AcDbVertex
100
AcDb2dVertex
 10
-1087.762792
 20
-163.53015
 30
0.0
 40
0.0
 41
0.0
  0
SEQEND
  5
494
100
AcDbEntity
  8
0
  0
POLYLINE
  5
495
100
AcDbEntity
  8
1
  6
Continuous
 62
     6
 48
0.75
100
AcDb2dPolyline
 66
     1
 10
0.0
 20
0.0
 30
0.0
 70
   128
  0
VERTEX
  5
496
100
AcDbEntity
  8
1
  6
Continuous
 62
     6
 48
0.75
100
AcDbVertex
100
AcDb2dVertex
 10
-1159.925292
 20
-76.55265
 30
0.0
 40
0.0
 41
0.0
  0
VERTEX
  5
497
100
AcDbEntity
  8
1
  6
Continuous
 62
     6
 48
0.75
100
AcDbVertex
100
AcDb2dVertex
 10
-1158.682792
 20
-97.46515
 30
0.0
 40
0.0
 41
0.0
  0
VERTEX
  5
498
100
AcDbEntity
  8
1
  6
Continuous
 62
     6
 48
0.75
100
AcDbVertex
100
AcDb2dVertex
 10
-1141.030292
 20
-139.48765
 30
0.0
 40
0.0
 41
0.0
  0
VERTEX
  5
499
100
AcDbEntity
  8
1
  6
Continuous
 62
     6
 48
0.75
100
AcDbVertex
100
AcDb2dVertex
 10
-1087.762792
 20
-163.53015
 30
0.0
 40
0.0
 41
0.0
  0
SEQEND
  5
49A
100
AcDbEntity
  8
0
  0
POLYLINE
  5
49B
100
AcDbEntity
  8
1
  6
Continuous
 62
     6
 48
0.75
100
AcDb2dPolyline
 66
     1
 10
0.0
 20
0.0
 30
0.0
 70
   128
  0
VERTEX
  5
49C
100
AcDbEntity
  8
1
  6
Continuous
 62
     6
 48
0.75
100
AcDbVertex
100
AcDb2dVertex
 10
-1015.600292
 20
-76.55265
 30
0.0
 40
0.0
 41
0.0
  0
VERTEX
  5
49D
100
AcDbEntity
  8
1
  6
Continuous
 62
     6
 48
0.75
100
AcDbVertex
100
AcDb2dVertex
 10
-1016.842792
 20
-97.46515
 30
0.0
 40
0.0
 41
0.0
  0
VERTEX
  5
49E
100
AcDbEntity
  8
1
  6
Continuous
 62
     6
 48
0.75
100
AcDbVertex
100
AcDb2dVertex
 10
-1034.495292
 20
-139.48765
 30
0.0
 40
0.0
 41
0.0
  0
VERTEX
  5
49F
100
AcDbEntity
  8
1
  6
Continuous
 62
     6
 48
0.75
100
AcDbVertex
100
AcDb2dVertex
 10
-1087.762792
 20
-163.53015
 30
0.0
 40
0.0
 41
0.0
  0
SEQEND
  5
4A0
100
AcDbEntity
  8
0
  0
POLYLINE
  5
4A1
100
AcDbEntity
  8
1
  6
Continuous
 62
     6
 48
0.75
100
AcDb2dPolyline
 66
     1
 10
0.0
 20
0.0
 30
0.0
 70
   128
  0
VERTEX
  5
4A2
100
AcDbEntity
  8
1
  6
Continuous
 62
     6
 48
0.75
100
AcDbVertex
100
AcDb2dVertex
 10
-1160.102792
 20
-78.84265
 30
0.0
 40
0.0
 41
0.0
  0
VERTEX
  5
4A3
100
AcDbEntity
  8
1
  6
Continuous
 62
     6
 48
0.75
100
AcDbVertex
100
AcDb2dVertex
 10
-1160.102792
 20
-99.55765
 30
0.0
 40
0.0
 41
0.0
  0
VERTEX
  5
4A4
100
AcDbEntity
  8
1
  6
Continuous
 62
     6
 48
0.75
100
AcDbVertex
100
AcDb2dVertex
 10
-1144.880292
 20
-141.76765
 30
0.0
 40
0.0
 41
0.0
  0
VERTEX
  5
4A5
100
AcDbEntity
  8
1
  6
Continuous
 62
     6
 48
0.75
100
AcDbVertex
100
AcDb2dVertex
 10
-1087.762792
 20
-163.07265
 30
0.0
 40
0.0
 41
0.0
  0
SEQEND
  5
4A6
100
AcDbEntity
  8
0
  0
POLYLINE
  5
4A7
100
AcDbEntity
  8
1
  6
Continuous
 62
     6
 48
0.75
100
AcDb2dPolyline
 66
     1
 10
0.0
 20
0.0
 30
0.0
 70
   128
  0
VERTEX
  5
4A8
100
AcDbEntity
  8
1
  6
Continuous
 62
     6
 48
0.75
100
AcDbVertex
100
AcDb2dVertex
 10
-1160.102792
 20
-78.84265
 30
0.0
 40
0.0
 41
0.0
  0
VERTEX
  5
4A9
100
AcDbEntity
  8
1
  6
Continuous
 62
     6
 48
0.75
100
AcDbVertex
100
AcDb2dVertex
 10
-1160.102792
 20
-99.55765
 30
0.0
 40
0.0
 41
0.0
  0
VERTEX
  5
4AA
100
AcDbEntity
  8
1
  6
Continuous
 62
     6
 48
0.75
100
AcDbVertex
100
AcDb2dVertex
 10
-1144.880292
 20
-141.76765
 30
0.0
 40
0.0
 41
0.0
  0
VERTEX
  5
4AB
100
AcDbEntity
  8
1
  6
Continuous
 62
     6
 48
0.75
100
AcDbVertex
100
AcDb2dVertex
 10
-1087.762792
 20
-163.07265
 30
0.0
 40
0.0
 41
0.0
  0
SEQEND
  5
4AC
100
AcDbEntity
  8
0
  0
POLYLINE
  5
4AD
100
AcDbEntity
  8
1
  6
Continuous
 62
     6
 48
0.75
100
AcDb2dPolyline
 66
     1
 10
0.0
 20
0.0
 30
0.0
 70
   128
  0
VERTEX
  5
4AE
100
AcDbEntity
  8
1
  6
Continuous
 62
     6
 48
0.75
100
AcDbVertex
100
AcDb2dVertex
 10
-1015.422792
 20
-78.84265
 30
0.0
 40
0.0
 41
0.0
  0
VERTEX
  5
4AF
100
AcDbEntity
  8
1
  6
Continuous
 62
     6
 48
0.75
100
AcDbVertex
100
AcDb2dVertex
 10
-1015.422792
 20
-99.55765
 30
0.0
 40
0.0
 41
0.0
  0
VERTEX
  5
4B0
100
AcDbEntity
  8
1
  6
Continuous
 62
     6
 48
0.75
100
AcDbVertex
100
AcDb2dVertex
 10
-1030.645292
 20
-141.76765
 30
0.0
 40
0.0
 41
0.0
  0
VERTEX
  5
4B1
100
AcDbEntity
  8
1
  6
Continuous
 62
     6
 48
0.75
100
AcDbVertex
100
AcDb2dVertex
 10
-1087.762792
 20
-163.07265
 30
0.0
 40
0.0
 41
0.0
  0
SEQEND
  5
4B2
100
AcDbEntity
  8
0
  0
POLYLINE
  5
4B3
100
AcDbEntity
  8
1
  6
Continuous
 62
     6
 48
0.75
100
AcDb2dPolyline
 66
     1
 10
0.0
 20
0.0
 30
0.0
 70
   128
  0
VERTEX
  5
4B4
100
AcDbEntity
  8
1
  6
Continuous
 62
     6
 48
0.75
100
AcDbVertex
100
AcDb2dVertex
 10
-1160.262792
 20
-81.40015
 30
0.0
 40
0.0
 41
0.0
  0
VERTEX
  5
4B5
100
AcDbEntity
  8
1
  6
Continuous
 62
     6
 48
0.75
100
AcDbVertex
100
AcDb2dVertex
 10
-1160.262792
 20
-101.78265
 30
0.0
 40
0.0
 41
0.0
  0
VERTEX
  5
4B6
100
AcDbEntity
  8
1
  6
Continuous
 62
     6
 48
0.75
100
AcDbVertex
100
AcDb2dVertex
 10
-1147.352792
 20
-143.63015
 30
0.0
 40
0.0
 41
0.0
  0
VERTEX
  5
4B7
100
AcDbEntity
  8
1
  6
Continuous
 62
     6
 48
0.75
100
AcDbVertex
100
AcDb2dVertex
 10
-1087.762792
 20
-162.75265
 30
0.0
 40
0.0
 41
0.0
  0
SEQEND
  5
4B8
100
AcDbEntity
  8
0
  0
POLYLINE
  5
4B9
100
AcDbEntity
  8
1
  6
Continuous
 62
     6
 48
0.75
100
AcDb2dPolyline
 66
     1
 10
0.0
 20
0.0
 30
0.0
 70
   128
  0
VERTEX
  5
4BA
100
AcDbEntity
  8
1
  6
Continuous
 62
     6
 48
0.75
100
AcDbVertex
100
AcDb2dVertex
 10
-1160.262792
 20
-81.40015
 30
0.0
 40
0.0
 41
0.0
  0
VERTEX
  5
4BB
100
AcDbEntity
  8
1
  6
Continuous
 62
     6
 48
0.75
100
AcDbVertex
100
AcDb2dVertex
 10
-1160.262792
 20
-101.78265
 30
0.0
 40
0.0
 41
0.0
  0
VERTEX
  5
4BC
100
AcDbEntity
  8
1
  6
Continuous
 62
     6
 48
0.75
100
AcDbVertex
100
AcDb2dVertex
 10
-1147.352792
 20
-143.63015
 30
0.0
 40
0.0
 41
0.0
  0
VERTEX
  5
4BD
100
AcDbEntity
  8
1
  6
Continuous
 62
     6
 48
0.75
100
AcDbVertex
100
AcDb2dVertex
 10
-1087.762792
 20
-162.75265
 30
0.0
 40
0.0
 41
0.0
  0
SEQEND
  5
4BE
100
AcDbEntity
  8
0
  0
POLYLINE
  5
4BF
100
AcDbEntity
  8
1
  6
Continuous
 62
     6
 48
0.75
100
AcDb2dPolyline
 66
     1
 10
0.0
 20
0.0
 30
0.0
 70
   128
  0
VERTEX
  5
4C0
100
AcDbEntity
  8
1
  6
Continuous
 62
     6
 48
0.75
100
AcDbVertex
100
AcDb2dVertex
 10
-1015.262792
 20
-81.40015
 30
0.0
 40
0.0
 41
0.0
  0
VERTEX
  5
4C1
100
AcDbEntity
  8
1
  6
Continuous
 62
     6
 48
0.75
100
AcDbVertex
100
AcDb2dVertex
 10
-1015.262792
 20
-101.78265
 30
0.0
 40
0.0
 41
0.0
  0
VERTEX
  5
4C2
100
AcDbEntity
  8
1
  6
Continuous
 62
     6
 48
0.75
100
AcDbVertex
100
AcDb2dVertex
 10
-1028.172792
 20
-143.63015
 30
0.0
 40
0.0
 41
0.0
  0
VERTEX
  5
4C3
100
AcDbEntity
  8
1
  6
Continuous
 62
     6
 48
0.75
100
AcDbVertex
100
AcDb2dVertex
 10
-1087.762792
 20
-162.75265
 30
0.0
 40
0.0
 41
0.0
  0
SEQEND
  5
4C4
100
AcDbEntity
  8
0
  0
POLYLINE
  5
4C5
100
AcDbEntity
  8
1
  6
Continuous
 62
     6
 48
0.75
100
AcDb2dPolyline
 66
     1
 10
0.0
 20
0.0
 30
0.0
 70
   128
  0
VERTEX
  5
4C6
100
AcDbEntity
  8
1
  6
Continuous
 62
     6
 48
0.75
100
AcDbVertex
100
AcDb2dVertex
 10
-1159.907792
 20
-83.95765
 30
0.0
 40
0.0
 41
0.0
  0
VERTEX
  5
4C7
100
AcDbEntity
  8
1
  6
Continuous
 62
     6
 48
0.75
100
AcDbVertex
100
AcDb2dVertex
 10
-1159.907792
 20
-104.40765
 30
0.0
 40
0.0
 41
0.0
  0
VERTEX
  5
4C8
100
AcDbEntity
  8
1
  6
Continuous
 62
     6
 48
0.75
100
AcDbVertex
100
AcDb2dVertex
 10
-1148.252792
 20
-145.06765
 30
0.0
 40
0.0
 41
0.0
  0
VERTEX
  5
4C9
100
AcDbEntity
  8
1
  6
Continuous
 62
     6
 48
0.75
100
AcDbVertex
100
AcDb2dVertex
 10
-1087.762792
 20
-162.20765
 30
0.0
 40
0.0
 41
0.0
  0
SEQEND
  5
4CA
100
AcDbEntity
  8
0
  0
POLYLINE
  5
4CB
100
AcDbEntity
  8
1
  6
Continuous
 62
     6
 48
0.75
100
AcDb2dPolyline
 66
     1
 10
0.0
 20
0.0
 30
0.0
 70
   128
  0
VERTEX
  5
4CC
100
AcDbEntity
  8
1
  6
Continuous
 62
     6
 48
0.75
100
AcDbVertex
100
AcDb2dVertex
 10
-1159.907792
 20
-83.95765
 30
0.0
 40
0.0
 41
0.0
  0
VERTEX
  5
4CD
100
AcDbEntity
  8
1
  6
Continuous
 62
     6
 48
0.75
100
AcDbVertex
100
AcDb2dVertex
 10
-1159.907792
 20
-104.40765
 30
0.0
 40
0.0
 41
0.0
  0
VERTEX
  5
4CE
100
AcDbEntity
  8
1
  6
Continuous
 62
     6
 48
0.75
100
AcDbVertex
100
AcDb2dVertex
 10
-1148.252792
 20
-145.06765
 30
0.0
 40
0.0
 41
0.0
  0
VERTEX
  5
4CF
100
AcDbEntity
  8
1
  6
Continuous
 62
     6
 48
0.75
100
AcDbVertex
100
AcDb2dVertex
 10
-1087.762792
 20
-162.20765
 30
0.0
 40
0.0
 41
0.0
  0
SEQEND
  5
4D0
100
AcDbEntity
  8
0
  0
POLYLINE
  5
4D1
100
AcDbEntity
  8
1
  6
Continuous
 62
     6
 48
0.75
100
AcDb2dPolyline
 66
     1
 10
0.0
 20
0.0
 30
0.0
 70
   128
  0
VERTEX
  5
4D2
100
AcDbEntity
  8
1
  6
Continuous
 62
     6
 48
0.75
100
AcDbVertex
100
AcDb2dVertex
 10
-1015.617792
 20
-83.95765
 30
0.0
 40
0.0
 41
0.0
  0
VERTEX
  5
4D3
100
AcDbEntity
  8
1
  6
Continuous
 62
     6
 48
0.75
100
AcDbVertex
100
AcDb2dVertex
 10
-1015.617792
 20
-104.40765
 30
0.0
 40
0.0
 41
0.0
  0
VERTEX
  5
4D4
100
AcDbEntity
  8
1
  6
Continuous
 62
     6
 48
0.75
100
AcDbVertex
100
AcDb2dVertex
 10
-1027.272792
 20
-145.06765
 30
0.0
 40
0.0
 41
0.0
  0
VERTEX
  5
4D5
100
AcDbEntity
  8
1
  6
Continuous
 62
     6
 48
0.75
100
AcDbVertex
100
AcDb2dVertex
 10
-1087.762792
 20
-162.20765
 30
0.0
 40
0.0
 41
0.0
  0
SEQEND
  5
4D6
100
AcDbEntity
  8
0
  0
POLYLINE
  5
4D7
100
AcDbEntity
  8
1
  6
Continuous
 62
     6
 48
0.75
100
AcDb2dPolyline
 66
     1
 10
0.0
 20
0.0
 30
0.0
 70
   128
  0
VERTEX
  5
4D8
100
AcDbEntity
  8
1
  6
Continuous
 62
     6
 48
0.75
100
AcDbVertex
100
AcDb2dVertex
 10
-1159.270292
 20
-86.45015
 30
0.0
 40
0.0
 41
0.0
  0
VERTEX
  5
4D9
100
AcDbEntity
  8
1
  6
Continuous
 62
     6
 48
0.75
100
AcDbVertex
100
AcDb2dVertex
 10
-1159.270292
 20
-107.16515
 30
0.0
 40
0.0
 41
0.0
  0
VERTEX
  5
4DA
100
AcDbEntity
  8
1
  6
Continuous
 62
     6
 48
0.75
100
AcDbVertex
100
AcDb2dVertex
 10
-1148.190292
 20
-146.12265
 30
0.0
 40
0.0
 41
0.0
  0
VERTEX
  5
4DB
100
AcDbEntity
  8
1
  6
Continuous
 62
     6
 48
0.75
100
AcDbVertex
100
AcDb2dVertex
 10
-1087.762792
 20
-161.52515
 30
0.0
 40
0.0
 41
0.0
  0
SEQEND
  5
4DC
100
AcDbEntity
  8
0
  0
POLYLINE
  5
4DD
100
AcDbEntity
  8
1
  6
Continuous
 62
     6
 48
0.75
100
AcDb2dPolyline
 66
     1
 10
0.0
 20
0.0
 30
0.0
 70
   128
  0
VERTEX
  5
4DE
100
AcDbEntity
  8
1
  6
Continuous
 62
     6
 48
0.75
100
AcDbVertex
100
AcDb2dVertex
 10
-1159.270292
 20
-86.45015
 30
0.0
 40
0.0
 41
0.0
  0
VERTEX
  5
4DF
100
AcDbEntity
  8
1
  6
Continuous
 62
     6
 48
0.75
100
AcDbVertex
100
AcDb2dVertex
 10
-1159.270292
 20
-107.16515
 30
0.0
 40
0.0
 41
0.0
  0
VERTEX
  5
4E0
100
AcDbEntity
  8
1
  6
Continuous
 62
     6
 48
0.75
100
AcDbVertex
100
AcDb2dVertex
 10
-1148.190292
 20
-146.12265
 30
0.0
 40
0.0
 41
0.0
  0
VERTEX
  5
4E1
100
AcDbEntity
  8
1
  6
Continuous
 62
     6
 48
0.75
100
AcDbVertex
100
AcDb2dVertex
 10
-1087.762792
 20
-161.52515
 30
0.0
 40
0.0
 41
0.0
  0
SEQEND
  5
4E2
100
AcDbEntity
  8
0
  0
POLYLINE
  5
4E3
100
AcDbEntity
  8
1
  6
Continuous
 62
     6
 48
0.75
100
AcDb2dPolyline
 66
     1
 10
0.0
 20
0.0
 30
0.0
 70
   128
  0
VERTEX
  5
4E4
100
AcDbEntity
  8
1
  6
Continuous
 62
     6
 48
0.75
100
AcDbVertex
100
AcDb2dVertex
 10
-1016.255292
 20
-86.45015
 30
0.0
 40
0.0
 41
0.0
  0
VERTEX
  5
4E5
100
AcDbEntity
  8
1
  6
Continuous
 62
     6
 48
0.75
100
AcDbVertex
100
AcDb2dVertex
 10
-1016.255292
 20
-107.16515
 30
0.0
 40
0.0
 41
0.0
  0
VERTEX
  5
4E6
100
AcDbEntity
  8
1
  6
Continuous
 62
     6
 48
0.75
100
AcDbVertex
100
AcDb2dVertex
 10
-1027.335292
 20
-146.12265
 30
0.0
 40
0.0
 41
0.0
  0
VERTEX
  5
4E7
100
AcDbEntity
  8
1
  6
Continuous
 62
     6
 48
0.75
100
AcDbVertex
100
AcDb2dVertex
 10
-1087.762792
 20
-161.52515
 30
0.0
 40
0.0
 41
0.0
  0
SEQEND
  5
4E8
100
AcDbEntity
  8
0
  0
POLYLINE
  5
4E9
100
AcDbEntity
  8
1
  6
Continuous
 62
     6
 48
0.75
100
AcDb2dPolyline
 66
     1
 10
0.0
 20
0.0
 30
0.0
 70
   128
  0
VERTEX
  5
4EA
100
AcDbEntity
  8
1
  6
Continuous
 62
     6
 48
0.75
100
AcDbVertex
100
AcDb2dVertex
 10
-1158.267792
 20
-88.67515
 30
0.0
 40
0.0
 41
0.0
  0
VERTEX
  5
4EB
100
AcDbEntity
  8
1
  6
Continuous
 62
     6
 48
0.75
100
AcDbVertex
100
AcDb2dVertex
 10
-1158.267792
 20
-109.39015
 30
0.0
 40
0.0
 41
0.0
  0
VERTEX
  5
4EC
100
AcDbEntity
  8
1
  6
Continuous
 62
     6
 48
0.75
100
AcDbVertex
100
AcDb2dVertex
 10
-1148.057792
 20
-147.02765
 30
0.0
 40
0.0
 41
0.0
  0
VERTEX
  5
4ED
100
AcDbEntity
  8
1
  6
Continuous
 62
     6
 48
0.75
100
AcDbVertex
100
AcDb2dVertex
 10
-1087.762792
 20
-160.83765
 30
0.0
 40
0.0
 41
0.0
  0
SEQEND
  5
4EE
100
AcDbEntity
  8
0
  0
POLYLINE
  5
4EF
100
AcDbEntity
  8
1
  6
Continuous
 62
     6
 48
0.75
100
AcDb2dPolyline
 66
     1
 10
0.0
 20
0.0
 30
0.0
 70
   128
  0
VERTEX
  5
4F0
100
AcDbEntity
  8
1
  6
Continuous
 62
     6
 48
0.75
100
AcDbVertex
100
AcDb2dVertex
 10
-1158.267792
 20
-88.67515
 30
0.0
 40
0.0
 41
0.0
  0
VERTEX
  5
4F1
100
AcDbEntity
  8
1
  6
Continuous
 62
     6
 48
0.75
100
AcDbVertex
100
AcDb2dVertex
 10
-1158.267792
 20
-109.39015
 30
0.0
 40
0.0
 41
0.0
  0
VERTEX
  5
4F2
100
AcDbEntity
  8
1
  6
Continuous
 62
     6
 48
0.75
100
AcDbVertex
100
AcDb2dVertex
 10
-1148.057792
 20
-147.02765
 30
0.0
 40
0.0
 41
0.0
  0
VERTEX
  5
4F3
100
AcDbEntity
  8
1
  6
Continuous
 62
     6
 48
0.75
100
AcDbVertex
100
AcDb2dVertex
 10
-1087.762792
 20
-160.83765
 30
0.0
 40
0.0
 41
0.0
  0
SEQEND
  5
4F4
100
AcDbEntity
  8
0
  0
POLYLINE
  5
4F5
100
AcDbEntity
  8
1
  6
Continuous
 62
     6
 48
0.75
100
AcDb2dPolyline
 66
     1
 10
0.0
 20
0.0
 30
0.0
 70
   128
  0
VERTEX
  5
4F6
100
AcDbEntity
  8
1
  6
Continuous
 62
     6
 48
0.75
100
AcDbVertex
100
AcDb2dVertex
 10
-1017.257792
 20
-88.67515
 30
0.0
 40
0.0
 41
0.0
  0
VERTEX
  5
4F7
100
AcDbEntity
  8
1
  6
Continuous
 62
     6
 48
0.75
100
AcDbVertex
100
AcDb2dVertex
 10
-1017.257792
 20
-109.39015
 30
0.0
 40
0.0
 41
0.0
  0
VERTEX
  5
4F8
100
AcDbEntity
  8
1
  6
Continuous
 62
     6
 48
0.75
100
AcDbVertex
100
AcDb2dVertex
 10
-1027.467792
 20
-147.02765
 30
0.0
 40
0.0
 41
0.0
  0
VERTEX
  5
4F9
100
AcDbEntity
  8
1
  6
Continuous
 62
     6
 48
0.75
100
AcDbVertex
100
AcDb2dVertex
 10
-1087.762792
 20
-160.83765
 30
0.0
 40
0.0
 41
0.0
  0
SEQEND
  5
4FA
100
AcDbEntity
  8
0
  0
POLYLINE
  5
4FB
100
AcDbEntity
  8
1
  6
Continuous
 62
     6
 48
0.75
100
AcDb2dPolyline
 66
     1
 10
0.0
 20
0.0
 30
0.0
 70
   128
  0
VERTEX
  5
4FC
100
AcDbEntity
  8
1
  6
Continuous
 62
     6
 48
0.75
100
AcDbVertex
100
AcDb2dVertex
 10
-1157.572792
 20
-90.63515
 30
0.0
 40
0.0
 41
0.0
  0
VERTEX
  5
4FD
100
AcDbEntity
  8
1
  6
Continuous
 62
     6
 48
0.75
100
AcDbVertex
100
AcDb2dVertex
 10
-1157.572792
 20
-110.28765
 30
0.0
 40
0.0
 41
0.0
  0
VERTEX
  5
4FE
100
AcDbEntity
  8
1
  6
Continuous
 62
     6
 48
0.75
100
AcDbVertex
100
AcDb2dVertex
 10
-1147.090292
 20
-147.66265
 30
0.0
 40
0.0
 41
0.0
  0
VERTEX
  5
4FF
100
AcDbEntity
  8
1
  6
Continuous
 62
     6
 48
0.75
100
AcDbVertex
100
AcDb2dVertex
 10
-1087.762792
 20
-160.01015
 30
0.0
 40
0.0
 41
0.0
  0
SEQEND
  5
500
100
AcDbEntity
  8
0
  0
POLYLINE
  5
501
100
AcDbEntity
  8
1
  6
Continuous
 62
     6
 48
0.75
100
AcDb2dPolyline
 66
     1
 10
0.0
 20
0.0
 30
0.0
 70
   128
  0
VERTEX
  5
502
100
AcDbEntity
  8
1
  6
Continuous
 62
     6
 48
0.75
100
AcDbVertex
100
AcDb2dVertex
 10
-1157.572792
 20
-90.63515
 30
0.0
 40
0.0
 41
0.0
  0
VERTEX
  5
503
100
AcDbEntity
  8
1
  6
Continuous
 62
     6
 48
0.75
100
AcDbVertex
100
AcDb2dVertex
 10
-1157.572792
 20
-110.28765
 30
0.0
 40
0.0
 41
0.0
  0
VERTEX
  5
504
100
AcDbEntity
  8
1
  6
Continuous
 62
     6
 48
0.75
100
AcDbVertex
100
AcDb2dVertex
 10
-1147.090292
 20
-147.66265
 30
0.0
 40
0.0
 41
0.0
  0
VERTEX
  5
505
100
AcDbEntity
  8
1
  6
Continuous
 62
     6
 48
0.75
100
AcDbVertex
100
AcDb2dVertex
 10
-1087.762792
 20
-160.01015
 30
0.0
 40
0.0
 41
0.0
  0
SEQEND
  5
506
100
AcDbEntity
  8
0
  0
POLYLINE
  5
507
100
AcDbEntity
  8
1
  6
Continuous
 62
     6
 48
0.75
100
AcDb2dPolyline
 66
     1
 10
0.0
 20
0.0
 30
0.0
 70
   128
  0
VERTEX
  5
508
100
AcDbEntity
  8
1
  6
Continuous
 62
     6
 48
0.75
100
AcDbVertex
100
AcDb2dVertex
 10
-1017.952792
 20
-90.63515
 30
0.0
 40
0.0
 41
0.0
  0
VERTEX
  5
509
100
AcDbEntity
  8
1
  6
Continuous
 62
     6
 48
0.75
100
AcDbVertex
100
AcDb2dVertex
 10
-1017.952792
 20
-110.28765
 30
0.0
 40
0.0
 41
0.0
  0
VERTEX
  5
50A
100
AcDbEntity
  8
1
  6
Continuous
 62
     6
 48
0.75
100
AcDbVertex
100
AcDb2dVertex
 10
-1028.435292
 20
-147.66265
 30
0.0
 40
0.0
 41
0.0
  0
VERTEX
  5
50B
100
AcDbEntity
  8
1
  6
Continuous
 62
     6
 48
0.75
100
AcDbVertex
100
AcDb2dVertex
 10
-1087.762792
 20
-160.01015
 30
0.0
 40
0.0
 41
0.0
  0
SEQEND
  5
50C
100
AcDbEntity
  8
0
  0
POLYLINE
  5
50D
100
AcDbEntity
  8
1
  6
Continuous
 62
     6
 48
0.75
100
AcDb2dPolyline
 66
     1
 10
0.0
 20
0.0
 30
0.0
 70
   128
  0
VERTEX
  5
50E
100
AcDbEntity
  8
1
  6
Continuous
 62
     6
 48
0.75
100
AcDbVertex
100
AcDb2dVertex
 10
-1156.327792
 20
-91.53265
 30
0.0
 40
0.0
 41
0.0
  0
VERTEX
  5
50F
100
AcDbEntity
  8
1
  6
Continuous
 62
     6
 48
0.75
100
AcDbVertex
100
AcDb2dVertex
 10
-1156.327792
 20
-110.38765
 30
0.0
 40
0.0
 41
0.0
  0
VERTEX
  5
510
100
AcDbEntity
  8
1
  6
Continuous
 62
     6
 48
0.75
100
AcDbVertex
100
AcDb2dVertex
 10
-1145.742792
 20
-148.22765
 30
0.0
 40
0.0
 41
0.0
  0
VERTEX
  5
511
100
AcDbEntity
  8
1
  6
Continuous
 62
     6
 48
0.75
100
AcDbVertex
100
AcDb2dVertex
 10
-1087.762792
 20
-159.44765
 30
0.0
 40
0.0
 41
0.0
  0
SEQEND
  5
512
100
AcDbEntity
  8
0
  0
POLYLINE
  5
513
100
AcDbEntity
  8
1
  6
Continuous
 62
     6
 48
0.75
100
AcDb2dPolyline
 66
     1
 10
0.0
 20
0.0
 30
0.0
 70
   128
  0
VERTEX
  5
514
100
AcDbEntity
  8
1
  6
Continuous
 62
     6
 48
0.75
100
AcDbVertex
100
AcDb2dVertex
 10
-1156.327792
 20
-91.53265
 30
0.0
 40
0.0
 41
0.0
  0
VERTEX
  5
515
100
AcDbEntity
  8
1
  6
Continuous
 62
     6
 48
0.75
100
AcDbVertex
100
AcDb2dVertex
 10
-1156.327792
 20
-110.38765
 30
0.0
 40
0.0
 41
0.0
  0
VERTEX
  5
516
100
AcDbEntity
  8
1
  6
Continuous
 62
     6
 48
0.75
100
AcDbVertex
100
AcDb2dVertex
 10
-1145.742792
 20
-148.22765
 30
0.0
 40
0.0
 41
0.0
  0
VERTEX
  5
517
100
AcDbEntity
  8
1
  6
Continuous
 62
     6
 48
0.75
100
AcDbVertex
100
AcDb2dVertex
 10
-1087.762792
 20
-159.44765
 30
0.0
 40
0.0
 41
0.0
  0
SEQEND
  5
518
100
AcDbEntity
  8
0
  0
POLYLINE
  5
519
100
AcDbEntity
  8
1
  6
Continuous
 62
     6
 48
0.75
100
AcDb2dPolyline
 66
     1
 10
0.0
 20
0.0
 30
0.0
 70
   128
  0
VERTEX
  5
51A
100
AcDbEntity
  8
1
  6
Continuous
 62
     6
 48
0.75
100
AcDbVertex
100
AcDb2dVertex
 10
-1019.197792
 20
-91.53265
 30
0.0
 40
0.0
 41
0.0
  0
VERTEX
  5
51B
100
AcDbEntity
  8
1
  6
Continuous
 62
     6
 48
0.75
100
AcDbVertex
100
AcDb2dVertex
 10
-1019.197792
 20
-110.38765
 30
0.0
 40
0.0
 41
0.0
  0
VERTEX
  5
51C
100
AcDbEntity
  8
1
  6
Continuous
 62
     6
 48
0.75
100
AcDbVertex
100
AcDb2dVertex
 10
-1029.782792
 20
-148.22765
 30
0.0
 40
0.0
 41
0.0
  0
VERTEX
  5
51D
100
AcDbEntity
  8
1
  6
Continuous
 62
     6
 48
0.75
100
AcDbVertex
100
AcDb2dVertex
 10
-1087.762792
 20
-159.44765
 30
0.0
 40
0.0
 41
0.0
  0
SEQEND
  5
51E
100
AcDbEntity
  8
0
  0
POLYLINE
  5
51F
100
AcDbEntity
  8
1
  6
Continuous
 62
     6
 48
0.75
100
AcDb2dPolyline
 66
     1
 10
0.0
 20
0.0
 30
0.0
 70
   128
  0
VERTEX
  5
520
100
AcDbEntity
  8
1
  6
Continuous
 62
     6
 48
0.75
100
AcDbVertex
100
AcDb2dVertex
 10
-1155.307792
 20
-91.90015
 30
0.0
 40
0.0
 41
0.0
  0
VERTEX
  5
521
100
AcDbEntity
  8
1
  6
Continuous
 62
     6
 48
0.75
100
AcDbVertex
100
AcDb2dVertex
 10
-1155.300292
 20
-110.38765
 30
0.0
 40
0.0
 41
0.0
  0
VERTEX
  5
522
100
AcDbEntity
  8
1
  6
Continuous
 62
     6
 48
0.75
100
AcDbVertex
100
AcDb2dVertex
 10
-1144.222792
 20
-148.65765
 30
0.0
 40
0.0
 41
0.0
  0
VERTEX
  5
523
100
AcDbEntity
  8
1
  6
Continuous
 62
     6
 48
0.75
100
AcDbVertex
100
AcDb2dVertex
 10
-1087.762792
 20
-158.21765
 30
0.0
 40
0.0
 41
0.0
  0
SEQEND
  5
524
100
AcDbEntity
  8
0
  0
POLYLINE
  5
525
100
AcDbEntity
  8
1
  6
Continuous
 62
     6
 48
0.75
100
AcDb2dPolyline
 66
     1
 10
0.0
 20
0.0
 30
0.0
 70
   128
  0
VERTEX
  5
526
100
AcDbEntity
  8
1
  6
Continuous
 62
     6
 48
0.75
100
AcDbVertex
100
AcDb2dVertex
 10
-1155.307792
 20
-91.90015
 30
0.0
 40
0.0
 41
0.0
  0
VERTEX
  5
527
100
AcDbEntity
  8
1
  6
Continuous
 62
     6
 48
0.75
100
AcDbVertex
100
AcDb2dVertex
 10
-1155.300292
 20
-110.38765
 30
0.0
 40
0.0
 41
0.0
  0
VERTEX
  5
528
100
AcDbEntity
  8
1
  6
Continuous
 62
     6
 48
0.75
100
AcDbVertex
100
AcDb2dVertex
 10
-1144.222792
 20
-148.65765
 30
0.0
 40
0.0
 41
0.0
  0
VERTEX
  5
529
100
AcDbEntity
  8
1
  6
Continuous
 62
     6
 48
0.75
100
AcDbVertex
100
AcDb2dVertex
 10
-1087.762792
 20
-158.21765
 30
0.0
 40
0.0
 41
0.0
  0
SEQEND
  5
52A
100
AcDbEntity
  8
0
  0
POLYLINE
  5
52B
100
AcDbEntity
  8
1
  6
Continuous
 62
     6
 48
0.75
100
AcDb2dPolyline
 66
     1
 10
0.0
 20
0.0
 30
0.0
 70
   128
  0
VERTEX
  5
52C
100
AcDbEntity
  8
1
  6
Continuous
 62
     6
 48
0.75
100
AcDbVertex
100
AcDb2dVertex
 10
-1020.217792
 20
-91.90015
 30
0.0
 40
0.0
 41
0.0
  0
VERTEX
  5
52D
100
AcDbEntity
  8
1
  6
Continuous
 62
     6
 48
0.75
100
AcDbVertex
100
AcDb2dVertex
 10
-1020.225292
 20
-110.38765
 30
0.0
 40
0.0
 41
0.0
  0
VERTEX
  5
52E
100
AcDbEntity
  8
1
  6
Continuous
 62
     6
 48
0.75
100
AcDbVertex
100
AcDb2dVertex
 10
-1031.302792
 20
-148.65765
 30
0.0
 40
0.0
 41
0.0
  0
VERTEX
  5
52F
100
AcDbEntity
  8
1
  6
Continuous
 62
     6
 48
0.75
100
AcDbVertex
100
AcDb2dVertex
 10
-1087.762792
 20
-158.21765
 30
0.0
 40
0.0
 41
0.0
  0
SEQEND
  5
530
100
AcDbEntity
  8
0
  0
POLYLINE
  5
531
100
AcDbEntity
  8
1
  6
Continuous
 62
     6
 48
0.75
100
AcDb2dPolyline
 66
     1
 10
0.0
 20
0.0
 30
0.0
 70
   128
  0
VERTEX
  5
532
100
AcDbEntity
  8
1
  6
Continuous
 62
     6
 48
0.75
100
AcDbVertex
100
AcDb2dVertex
 10
-1153.907792
 20
-91.73515
 30
0.0
 40
0.0
 41
0.0
  0
VERTEX
  5
533
100
AcDbEntity
  8
1
  6
Continuous
 62
     6
 48
0.75
100
AcDbVertex
100
AcDb2dVertex
 10
-1153.907792
 20
-110.38765
 30
0.0
 40
0.0
 41
0.0
  0
VERTEX
  5
534
100
AcDbEntity
  8
1
  6
Continuous
 62
     6
 48
0.75
100
AcDbVertex
100
AcDb2dVertex
 10
-1153.797792
 20
-110.77515
 30
0.0
 40
0.0
 41
0.0
  0
VERTEX
  5
535
100
AcDbEntity
  8
1
  6
Continuous
 62
     6
 48
0.75
100
AcDbVertex
100
AcDb2dVertex
 10
-1153.470292
 20
-111.93265
 30
0.0
 40
0.0
 41
0.0
  0
VERTEX
  5
536
100
AcDbEntity
  8
1
  6
Continuous
 62
     6
 48
0.75
100
AcDbVertex
100
AcDb2dVertex
 10
-1152.922792
 20
-113.86515
 30
0.0
 40
0.0
 41
0.0
  0
VERTEX
  5
537
100
AcDbEntity
  8
1
  6
Continuous
 62
     6
 48
0.75
100
AcDbVertex
100
AcDb2dVertex
 10
-1152.152792
 20
-116.57015
 30
0.0
 40
0.0
 41
0.0
  0
VERTEX
  5
538
100
AcDbEntity
  8
1
  6
Continuous
 62
     6
 48
0.75
100
AcDbVertex
100
AcDb2dVertex
 10
-1151.167792
 20
-120.04765
 30
0.0
 40
0.0
 41
0.0
  0
VERTEX
  5
539
100
AcDbEntity
  8
1
  6
Continuous
 62
     6
 48
0.75
100
AcDbVertex
100
AcDb2dVertex
 10
-1149.960292
 20
-124.29515
 30
0.0
 40
0.0
 41
0.0
  0
VERTEX
  5
53A
100
AcDbEntity
  8
1
  6
Continuous
 62
     6
 48
0.75
100
AcDbVertex
100
AcDb2dVertex
 10
-1148.532792
 20
-129.31765
 30
0.0
 40
0.0
 41
0.0
  0
VERTEX
  5
53B
100
AcDbEntity
  8
1
  6
Continuous
 62
     6
 48
0.75
100
AcDbVertex
100
AcDb2dVertex
 10
-1146.887792
 20
-135.11515
 30
0.0
 40
0.0
 41
0.0
  0
VERTEX
  5
53C
100
AcDbEntity
  8
1
  6
Continuous
 62
     6
 48
0.75
100
AcDbVertex
100
AcDb2dVertex
 10
-1145.022792
 20
-141.68265
 30
0.0
 40
0.0
 41
0.0
  0
VERTEX
  5
53D
100
AcDbEntity
  8
1
  6
Continuous
 62
     6
 48
0.75
100
AcDbVertex
100
AcDb2dVertex
 10
-1142.937792
 20
-149.02265
 30
0.0
 40
0.0
 41
0.0
  0
VERTEX
  5
53E
100
AcDbEntity
  8
1
  6
Continuous
 62
     6
 48
0.75
100
AcDbVertex
100
AcDb2dVertex
 10
-1087.762792
 20
-157.25515
 30
0.0
 40
0.0
 41
0.0
  0
SEQEND
  5
53F
100
AcDbEntity
  8
0
  0
POLYLINE
  5
540
100
AcDbEntity
  8
1
  6
Continuous
 62
     6
 48
0.75
100
AcDb2dPolyline
 66
     1
 10
0.0
 20
0.0
 30
0.0
 70
   128
  0
VERTEX
  5
541
100
AcDbEntity
  8
1
  6
Continuous
 62
     6
 48
0.75
100
AcDbVertex
100
AcDb2dVertex
 10
-1153.907792
 20
-91.73515
 30
0.0
 40
0.0
 41
0.0
  0
VERTEX
  5
542
100
AcDbEntity
  8
1
  6
Continuous
 62
     6
 48
0.75
100
AcDbVertex
100
AcDb2dVertex
 10
-1153.907792
 20
-110.38765
 30
0.0
 40
0.0
 41
0.0
  0
VERTEX
  5
543
100
AcDbEntity
  8
1
  6
Continuous
 62
     6
 48
0.75
100
AcDbVertex
100
AcDb2dVertex
 10
-1142.937792
 20
-149.02265
 30
0.0
 40
0.0
 41
0.0
  0
VERTEX
  5
544
100
AcDbEntity
  8
1
  6
Continuous
 62
     6
 48
0.75
100
AcDbVertex
100
AcDb2dVertex
 10
-1087.762792
 20
-157.25515
 30
0.0
 40
0.0
 41
0.0
  0
SEQEND
  5
545
100
AcDbEntity
  8
0
  0
POLYLINE
  5
546
100
AcDbEntity
  8
1
  6
Continuous
 62
     6
 48
0.75
100
AcDb2dPolyline
 66
     1
 10
0.0
 20
0.0
 30
0.0
 70
   128
  0
VERTEX
  5
547
100
AcDbEntity
  8
1
  6
Continuous
 62
     6
 48
0.75
100
AcDbVertex
100
AcDb2dVertex
 10
-1021.617792
 20
-91.73515
 30
0.0
 40
0.0
 41
0.0
  0
VERTEX
  5
548
100
AcDbEntity
  8
1
  6
Continuous
 62
     6
 48
0.75
100
AcDbVertex
100
AcDb2dVertex
 10
-1021.617792
 20
-110.38765
 30
0.0
 40
0.0
 41
0.0
  0
VERTEX
  5
549
100
AcDbEntity
  8
1
  6
Continuous
 62
     6
 48
0.75
100
AcDbVertex
100
AcDb2dVertex
 10
-1021.727792
 20
-110.77515
 30
0.0
 40
0.0
 41
0.0
  0
VERTEX
  5
54A
100
AcDbEntity
  8
1
  6
Continuous
 62
     6
 48
0.75
100
AcDbVertex
100
AcDb2dVertex
 10
-1022.055292
 20
-111.93265
 30
0.0
 40
0.0
 41
0.0
  0
VERTEX
  5
54B
100
AcDbEntity
  8
1
  6
Continuous
 62
     6
 48
0.75
100
AcDbVertex
100
AcDb2dVertex
 10
-1022.602792
 20
-113.86515
 30
0.0
 40
0.0
 41
0.0
  0
VERTEX
  5
54C
100
AcDbEntity
  8
1
  6
Continuous
 62
     6
 48
0.75
100
AcDbVertex
100
AcDb2dVertex
 10
-1023.372792
 20
-116.57015
 30
0.0
 40
0.0
 41
0.0
  0
VERTEX
  5
54D
100
AcDbEntity
  8
1
  6
Continuous
 62
     6
 48
0.75
100
AcDbVertex
100
AcDb2dVertex
 10
-1024.357792
 20
-120.04765
 30
0.0
 40
0.0
 41
0.0
  0
VERTEX
  5
54E
100
AcDbEntity
  8
1
  6
Continuous
 62
     6
 48
0.75
100
AcDbVertex
100
AcDb2dVertex
 10
-1025.565292
 20
-124.29515
 30
0.0
 40
0.0
 41
0.0
  0
VERTEX
  5
54F
100
AcDbEntity
  8
1
  6
Continuous
 62
     6
 48
0.75
100
AcDbVertex
100
AcDb2dVertex
 10
-1026.992792
 20
-129.31765
 30
0.0
 40
0.0
 41
0.0
  0
VERTEX
  5
550
100
AcDbEntity
  8
1
  6
Continuous
 62
     6
 48
0.75
100
AcDbVertex
100
AcDb2dVertex
 10
-1028.637792
 20
-135.11515
 30
0.0
 40
0.0
 41
0.0
  0
VERTEX
  5
551
100
AcDbEntity
  8
1
  6
Continuous
 62
     6
 48
0.75
100
AcDbVertex
100
AcDb2dVertex
 10
-1030.502792
 20
-141.68265
 30
0.0
 40
0.0
 41
0.0
  0
VERTEX
  5
552
100
AcDbEntity
  8
1
  6
Continuous
 62
     6
 48
0.75
100
AcDbVertex
100
AcDb2dVertex
 10
-1032.587792
 20
-149.02265
 30
0.0
 40
0.0
 41
0.0
  0
VERTEX
  5
553
100
AcDbEntity
  8
1
  6
Continuous
 62
     6
 48
0.75
100
AcDbVertex
100
AcDb2dVertex
 10
-1087.762792
 20
-157.25515
 30
0.0
 40
0.0
 41
0.0
  0
SEQEND
  5
554
100
AcDbEntity
  8
0
  0
POLYLINE
  5
555
100
AcDbEntity
  8
1
  6
Continuous
 62
     6
 48
0.75
100
AcDb2dPolyline
 66
     1
 10
0.0
 20
0.0
 30
0.0
 70
   128
  0
VERTEX
  5
556
100
AcDbEntity
  8
1
  6
Continuous
 62
     6
 48
0.75
100
AcDbVertex
100
AcDb2dVertex
 10
-1152.905292
 20
-91.30515
 30
0.0
 40
0.0
 41
0.0
  0
VERTEX
  5
557
100
AcDbEntity
  8
1
  6
Continuous
 62
     6
 48
0.75
100
AcDbVertex
100
AcDb2dVertex
 10
-1152.842792
 20
-110.38765
 30
0.0
 40
0.0
 41
0.0
  0
VERTEX
  5
558
100
AcDbEntity
  8
1
  6
Continuous
 62
     6
 48
0.75
100
AcDbVertex
100
AcDb2dVertex
 10
-1141.255292
 20
-149.51265
 30
0.0
 40
0.0
 41
0.0
  0
VERTEX
  5
559
100
AcDbEntity
  8
1
  6
Continuous
 62
     6
 48
0.75
100
AcDbVertex
100
AcDb2dVertex
 10
-1087.762792
 20
-156.41765
 30
0.0
 40
0.0
 41
0.0
  0
SEQEND
  5
55A
100
AcDbEntity
  8
0
  0
POLYLINE
  5
55B
100
AcDbEntity
  8
1
  6
Continuous
 62
     6
 48
0.75
100
AcDb2dPolyline
 66
     1
 10
0.0
 20
0.0
 30
0.0
 70
   128
  0
VERTEX
  5
55C
100
AcDbEntity
  8
1
  6
Continuous
 62
     6
 48
0.75
100
AcDbVertex
100
AcDb2dVertex
 10
-1152.905292
 20
-91.30515
 30
0.0
 40
0.0
 41
0.0
  0
VERTEX
  5
55D
100
AcDbEntity
  8
1
  6
Continuous
 62
     6
 48
0.75
100
AcDbVertex
100
AcDb2dVertex
 10
-1152.842792
 20
-110.38765
 30
0.0
 40
0.0
 41
0.0
  0
VERTEX
  5
55E
100
AcDbEntity
  8
1
  6
Continuous
 62
     6
 48
0.75
100
AcDbVertex
100
AcDb2dVertex
 10
-1141.255292
 20
-149.51265
 30
0.0
 40
0.0
 41
0.0
  0
VERTEX
  5
55F
100
AcDbEntity
  8
1
  6
Continuous
 62
     6
 48
0.75
100
AcDbVertex
100
AcDb2dVertex
 10
-1087.762792
 20
-156.41765
 30
0.0
 40
0.0
 41
0.0
  0
SEQEND
  5
560
100
AcDbEntity
  8
0
  0
POLYLINE
  5
561
100
AcDbEntity
  8
1
  6
Continuous
 62
     6
 48
0.75
100
AcDb2dPolyline
 66
     1
 10
0.0
 20
0.0
 30
0.0
 70
   128
  0
VERTEX
  5
562
100
AcDbEntity
  8
1
  6
Continuous
 62
     6
 48
0.75
100
AcDbVertex
100
AcDb2dVertex
 10
-1022.620292
 20
-91.30515
 30
0.0
 40
0.0
 41
0.0
  0
VERTEX
  5
563
100
AcDbEntity
  8
1
  6
Continuous
 62
     6
 48
0.75
100
AcDbVertex
100
AcDb2dVertex
 10
-1022.682792
 20
-110.38765
 30
0.0
 40
0.0
 41
0.0
  0
VERTEX
  5
564
100
AcDbEntity
  8
1
  6
Continuous
 62
     6
 48
0.75
100
AcDbVertex
100
AcDb2dVertex
 10
-1034.270292
 20
-149.51265
 30
0.0
 40
0.0
 41
0.0
  0
VERTEX
  5
565
100
AcDbEntity
  8
1
  6
Continuous
 62
     6
 48
0.75
100
AcDbVertex
100
AcDb2dVertex
 10
-1087.762792
 20
-156.41765
 30
0.0
 40
0.0
 41
0.0
  0
SEQEND
  5
566
100
AcDbEntity
  8
0
  0
POLYLINE
  5
567
100
AcDbEntity
  8
1
  6
Continuous
 62
     6
 48
0.75
100
AcDb2dPolyline
 66
     1
 10
0.0
 20
0.0
 30
0.0
 70
   128
  0
VERTEX
  5
568
100
AcDbEntity
  8
1
  6
Continuous
 62
     6
 48
0.75
100
AcDbVertex
100
AcDb2dVertex
 10
-1151.250292
 20
-90.74015
 30
0.0
 40
0.0
 41
0.0
  0
VERTEX
  5
569
100
AcDbEntity
  8
1
  6
Continuous
 62
     6
 48
0.75
100
AcDbVertex
100
AcDb2dVertex
 10
-1151.250292
 20
-110.38765
 30
0.0
 40
0.0
 41
0.0
  0
VERTEX
  5
56A
100
AcDbEntity
  8
1
  6
Continuous
 62
     6
 48
0.75
100
AcDbVertex
100
AcDb2dVertex
 10
-1151.132792
 20
-110.78515
 30
0.0
 40
0.0
 41
0.0
  0
VERTEX
  5
56B
100
AcDbEntity
  8
1
  6
Continuous
 62
     6
 48
0.75
100
AcDbVertex
100
AcDb2dVertex
 10
-1150.777792
 20
-111.97265
 30
0.0
 40
0.0
 41
0.0
  0
VERTEX
  5
56C
100
AcDbEntity
  8
1
  6
Continuous
 62
     6
 48
0.75
100
AcDbVertex
100
AcDb2dVertex
 10
-1150.190292
 20
-113.95515
 30
0.0
 40
0.0
 41
0.0
  0
VERTEX
  5
56D
100
AcDbEntity
  8
1
  6
Continuous
 62
     6
 48
0.75
100
AcDbVertex
100
AcDb2dVertex
 10
-1149.365292
 20
-116.72765
 30
0.0
 40
0.0
 41
0.0
  0
VERTEX
  5
56E
100
AcDbEntity
  8
1
  6
Continuous
 62
     6
 48
0.75
100
AcDbVertex
100
AcDb2dVertex
 10
-1148.307792
 20
-120.29515
 30
0.0
 40
0.0
 41
0.0
  0
VERTEX
  5
56F
100
AcDbEntity
  8
1
  6
Continuous
 62
     6
 48
0.75
100
AcDbVertex
100
AcDb2dVertex
 10
-1147.012792
 20
-124.65265
 30
0.0
 40
0.0
 41
0.0
  0
VERTEX
  5
570
100
AcDbEntity
  8
1
  6
Continuous
 62
     6
 48
0.75
100
AcDbVertex
100
AcDb2dVertex
 10
-1145.482792
 20
-129.80265
 30
0.0
 40
0.0
 41
0.0
  0
VERTEX
  5
571
100
AcDbEntity
  8
1
  6
Continuous
 62
     6
 48
0.75
100
AcDbVertex
100
AcDb2dVertex
 10
-1143.717792
 20
-135.74515
 30
0.0
 40
0.0
 41
0.0
  0
VERTEX
  5
572
100
AcDbEntity
  8
1
  6
Continuous
 62
     6
 48
0.75
100
AcDbVertex
100
AcDb2dVertex
 10
-1141.715292
 20
-142.48015
 30
0.0
 40
0.0
 41
0.0
  0
VERTEX
  5
573
100
AcDbEntity
  8
1
  6
Continuous
 62
     6
 48
0.75
100
AcDbVertex
100
AcDb2dVertex
 10
-1139.480292
 20
-150.00765
 30
0.0
 40
0.0
 41
0.0
  0
VERTEX
  5
574
100
AcDbEntity
  8
1
  6
Continuous
 62
     6
 48
0.75
100
AcDbVertex
100
AcDb2dVertex
 10
-1087.762792
 20
-155.58515
 30
0.0
 40
0.0
 41
0.0
  0
SEQEND
  5
575
100
AcDbEntity
  8
0
  0
POLYLINE
  5
576
100
AcDbEntity
  8
1
  6
Continuous
 62
     6
 48
0.75
100
AcDb2dPolyline
 66
     1
 10
0.0
 20
0.0
 30
0.0
 70
   128
  0
VERTEX
  5
577
100
AcDbEntity
  8
1
  6
Continuous
 62
     6
 48
0.75
100
AcDbVertex
100
AcDb2dVertex
 10
-1151.250292
 20
-90.74015
 30
0.0
 40
0.0
 41
0.0
  0
VERTEX
  5
578
100
AcDbEntity
  8
1
  6
Continuous
 62
     6
 48
0.75
100
AcDbVertex
100
AcDb2dVertex
 10
-1151.250292
 20
-110.38765
 30
0.0
 40
0.0
 41
0.0
  0
VERTEX
  5
579
100
AcDbEntity
  8
1
  6
Continuous
 62
     6
 48
0.75
100
AcDbVertex
100
AcDb2dVertex
 10
-1139.480292
 20
-150.00765
 30
0.0
 40
0.0
 41
0.0
  0
VERTEX
  5
57A
100
AcDbEntity
  8
1
  6
Continuous
 62
     6
 48
0.75
100
AcDbVertex
100
AcDb2dVertex
 10
-1087.762792
 20
-155.58515
 30
0.0
 40
0.0
 41
0.0
  0
SEQEND
  5
57B
100
AcDbEntity
  8
0
  0
POLYLINE
  5
57C
100
AcDbEntity
  8
1
  6
Continuous
 62
     6
 48
0.75
100
AcDb2dPolyline
 66
     1
 10
0.0
 20
0.0
 30
0.0
 70
   128
  0
VERTEX
  5
57D
100
AcDbEntity
  8
1
  6
Continuous
 62
     6
 48
0.75
100
AcDbVertex
100
AcDb2dVertex
 10
-1024.275292
 20
-90.74015
 30
0.0
 40
0.0
 41
0.0
  0
VERTEX
  5
57E
100
AcDbEntity
  8
1
  6
Continuous
 62
     6
 48
0.75
100
AcDbVertex
100
AcDb2dVertex
 10
-1024.275292
 20
-110.38765
 30
0.0
 40
0.0
 41
0.0
  0
VERTEX
  5
57F
100
AcDbEntity
  8
1
  6
Continuous
 62
     6
 48
0.75
100
AcDbVertex
100
AcDb2dVertex
 10
-1024.392792
 20
-110.78515
 30
0.0
 40
0.0
 41
0.0
  0
VERTEX
  5
580
100
AcDbEntity
  8
1
  6
Continuous
 62
     6
 48
0.75
100
AcDbVertex
100
AcDb2dVertex
 10
-1024.747792
 20
-111.97265
 30
0.0
 40
0.0
 41
0.0
  0
VERTEX
  5
581
100
AcDbEntity
  8
1
  6
Continuous
 62
     6
 48
0.75
100
AcDbVertex
100
AcDb2dVertex
 10
-1025.335292
 20
-113.95515
 30
0.0
 40
0.0
 41
0.0
  0
VERTEX
  5
582
100
AcDbEntity
  8
1
  6
Continuous
 62
     6
 48
0.75
100
AcDbVertex
100
AcDb2dVertex
 10
-1026.160292
 20
-116.72765
 30
0.0
 40
0.0
 41
0.0
  0
VERTEX
  5
583
100
AcDbEntity
  8
1
  6
Continuous
 62
     6
 48
0.75
100
AcDbVertex
100
AcDb2dVertex
 10
-1027.217792
 20
-120.29515
 30
0.0
 40
0.0
 41
0.0
  0
VERTEX
  5
584
100
AcDbEntity
  8
1
  6
Continuous
 62
     6
 48
0.75
100
AcDbVertex
100
AcDb2dVertex
 10
-1028.512792
 20
-124.65265
 30
0.0
 40
0.0
 41
0.0
  0
VERTEX
  5
585
100
AcDbEntity
  8
1
  6
Continuous
 62
     6
 48
0.75
100
AcDbVertex
100
AcDb2dVertex
 10
-1030.042792
 20
-129.80265
 30
0.0
 40
0.0
 41
0.0
  0
VERTEX
  5
586
100
AcDbEntity
  8
1
  6
Continuous
 62
     6
 48
0.75
100
AcDbVertex
100
AcDb2dVertex
 10
-1031.807792
 20
-135.74515
 30
0.0
 40
0.0
 41
0.0
  0
VERTEX
  5
587
100
AcDbEntity
  8
1
  6
Continuous
 62
     6
 48
0.75
100
AcDbVertex
100
AcDb2dVertex
 10
-1033.810292
 20
-142.48015
 30
0.0
 40
0.0
 41
0.0
  0
VERTEX
  5
588
100
AcDbEntity
  8
1
  6
Continuous
 62
     6
 48
0.75
100
AcDbVertex
100
AcDb2dVertex
 10
-1036.045292
 20
-150.00765
 30
0.0
 40
0.0
 41
0.0
  0
VERTEX
  5
589
100
AcDbEntity
  8
1
  6
Continuous
 62
     6
 48
0.75
100
AcDbVertex
100
AcDb2dVertex
 10
-1087.762792
 20
-155.58515
 30
0.0
 40
0.0
 41
0.0
  0
SEQEND
  5
58A
100
AcDbEntity
  8
0
  0
POLYLINE
  5
58B
100
AcDbEntity
  8
1
  6
Continuous
 62
     6
 48
0.75
100
AcDb2dPolyline
 66
     1
 10
0.0
 20
0.0
 30
0.0
 70
   128
  0
VERTEX
  5
58C
100
AcDbEntity
  8
1
  6
Continuous
 62
     6
 48
0.75
100
AcDbVertex
100
AcDb2dVertex
 10
-1149.612792
 20
-89.52515
 30
0.0
 40
0.0
 41
0.0
  0
VERTEX
  5
58D
100
AcDbEntity
  8
1
  6
Continuous
 62
     6
 48
0.75
100
AcDbVertex
100
AcDb2dVertex
 10
-1149.612792
 20
-110.38765
 30
0.0
 40
0.0
 41
0.0
  0
VERTEX
  5
58E
100
AcDbEntity
  8
1
  6
Continuous
 62
     6
 48
0.75
100
AcDbVertex
100
AcDb2dVertex
 10
-1138.017792
 20
-150.45265
 30
0.0
 40
0.0
 41
0.0
  0
VERTEX
  5
58F
100
AcDbEntity
  8
1
  6
Continuous
 62
     6
 48
0.75
100
AcDbVertex
100
AcDb2dVertex
 10
-1087.762792
 20
-155.12265
 30
0.0
 40
0.0
 41
0.0
  0
SEQEND
  5
590
100
AcDbEntity
  8
0
  0
POLYLINE
  5
591
100
AcDbEntity
  8
1
  6
Continuous
 62
     6
 48
0.75
100
AcDb2dPolyline
 66
     1
 10
0.0
 20
0.0
 30
0.0
 70
   128
  0
VERTEX
  5
592
100
AcDbEntity
  8
1
  6
Continuous
 62
     6
 48
0.75
100
AcDbVertex
100
AcDb2dVertex
 10
-1149.612792
 20
-89.52515
 30
0.0
 40
0.0
 41
0.0
  0
VERTEX
  5
593
100
AcDbEntity
  8
1
  6
Continuous
 62
     6
 48
0.75
100
AcDbVertex
100
AcDb2dVertex
 10
-1149.612792
 20
-110.38765
 30
0.0
 40
0.0
 41
0.0
  0
VERTEX
  5
594
100
AcDbEntity
  8
1
  6
Continuous
 62
     6
 48
0.75
100
AcDbVertex
100
AcDb2dVertex
 10
-1138.017792
 20
-150.45265
 30
0.0
 40
0.0
 41
0.0
  0
VERTEX
  5
595
100
AcDbEntity
  8
1
  6
Continuous
 62
     6
 48
0.75
100
AcDbVertex
100
AcDb2dVertex
 10
-1087.762792
 20
-155.12265
 30
0.0
 40
0.0
 41
0.0
  0
SEQEND
  5
596
100
AcDbEntity
  8
0
  0
POLYLINE
  5
597
100
AcDbEntity
  8
1
  6
Continuous
 62
     6
 48
0.75
100
AcDb2dPolyline
 66
     1
 10
0.0
 20
0.0
 30
0.0
 70
   128
  0
VERTEX
  5
598
100
AcDbEntity
  8
1
  6
Continuous
 62
     6
 48
0.75
100
AcDbVertex
100
AcDb2dVertex
 10
-1025.912792
 20
-89.52515
 30
0.0
 40
0.0
 41
0.0
  0
VERTEX
  5
599
100
AcDbEntity
  8
1
  6
Continuous
 62
     6
 48
0.75
100
AcDbVertex
100
AcDb2dVertex
 10
-1025.912792
 20
-110.38765
 30
0.0
 40
0.0
 41
0.0
  0
VERTEX
  5
59A
100
AcDbEntity
  8
1
  6
Continuous
 62
     6
 48
0.75
100
AcDbVertex
100
AcDb2dVertex
 10
-1037.507792
 20
-150.45265
 30
0.0
 40
0.0
 41
0.0
  0
VERTEX
  5
59B
100
AcDbEntity
  8
1
  6
Continuous
 62
     6
 48
0.75
100
AcDbVertex
100
AcDb2dVertex
 10
-1087.762792
 20
-155.12265
 30
0.0
 40
0.0
 41
0.0
  0
SEQEND
  5
59C
100
AcDbEntity
  8
0
  0
TEXT
  5
59D
100
AcDbEntity
  8
0
 62
     6
 48
0.0
100
AcDbText
 10
-940.288773
 20
-3.082343
 30
0.0
 40
30.0
  1
ÇEMBERCI TASARLANAN MODEL = 0347
 72
     5
 11
-79.745787
 21
-3.082343
 31
0.0
210
0.0
220
0.0
230
1.0
100
AcDbText
  0
POLYLINE
  5
59E
100
AcDbEntity
  8
0
  6
Continuous
 62
     6
 48
2.0
100
AcDb2dPolyline
 66
     1
 10
0.0
 20
0.0
 30
0.0
 70
   128
  0
VERTEX
  5
59F
100
AcDbEntity
  8
0
  6
Continuous
 62
     6
 48
2.0
100
AcDbVertex
100
AcDb2dVertex
 10
-1179.004941
 20
87.66926
 30
0.0
 40
0.0
 41
0.0
  0
VERTEX
  5
5A0
100
AcDbEntity
  8
0
  6
Continuous
 62
     6
 48
2.0
100
AcDbVertex
100
AcDb2dVertex
 10
95.463194
 20
87.66926
 30
0.0
 40
0.0
 41
0.0
  0
VERTEX
  5
5A1
100
AcDbEntity
  8
0
  6
Continuous
 62
     6
 48
2.0
100
AcDbVertex
100
AcDb2dVertex
 10
95.463194
 20
-600.859207
 30
0.0
 40
0.0
 41
0.0
  0
VERTEX
  5
5A2
100
AcDbEntity
  8
0
  6
Continuous
 62
     6
 48
2.0
100
AcDbVertex
100
AcDb2dVertex
 10
-1179.004941
 20
-600.859207
 30
0.0
 40
0.0
 41
0.0
  0
VERTEX
  5
5A3
100
AcDbEntity
  8
0
  6
Continuous
 62
     6
 48
2.0
100
AcDbVertex
100
AcDb2dVertex
 10
-1179.004941
 20
87.66926
 30
0.0
 40
0.0
 41
0.0
  0
SEQEND
  5
5A4
100
AcDbEntity
  8
0
  0
TEXT
  5
5A5
100
AcDbEntity
  8
0
 62
     6
 48
0.0
100
AcDbText
 10
-1150.638424
 20
-217.901186
 30
0.0
 40
15.0
  1
Loa = 33.70 metre
 72
     5
 11
-980.638424
 21
-217.901186
 31
0.0
210
0.0
220
0.0
230
1.0
100
AcDbText
  0
TEXT
  5
5A6
100
AcDbEntity
  8
0
 62
     6
 48
0.0
100
AcDbText
 10
-1150.638424
 20
-247.901186
 30
0.0
 40
15.0
  1
Lwl = 32.00 metre
 72
     5
 11
-981.882768
 21
-247.901186
 31
0.0
210
0.0
220
0.0
230
1.0
100
AcDbText
  0
TEXT
  5
5A7
100
AcDbEntity
  8
0
 62
     6
 48
0.0
100
AcDbText
 10
-1150.638424
 20
-277.901186
 30
0.0
 40
15.0
  1
Boa = 5.80  metre
 72
     5
 11
-985.027564
 21
-277.901186
 31
0.0
210
0.0
220
0.0
230
1.0
100
AcDbText
  0
TEXT
  5
5A8
100
AcDbEntity
  8
0
 62
     6
 48
0.0
100
AcDbText
 10
-1150.638424
 20
-307.901186
 30
0.0
 40
15.0
  1
Bwl = 5.14  metre
 72
     5
 11
-986.271908
 21
-307.901186
 31
0.0
210
0.0
220
0.0
230
1.0
100
AcDbText
  0
TEXT
  5
5A9
100
AcDbEntity
  8
0
 62
     6
 48
0.0
100
AcDbText
 10
-1150.638424
 20
-337.901186
 30
0.0
 40
15.0
  1
Twl = 1.33  metre
 72
     5
 11
-987.538877
 21
-337.901186
 31
0.0
210
0.0
220
0.0
230
1.0
100
AcDbText
  0
TEXT
  5
5AA
100
AcDbEntity
  8
0
 62
     6
 48
0.0
100
AcDbText
 10
-1150.638424
 20
-367.901186
 30
0.0
 40
15.0
  1
Dep = 98.82 ton
 72
     5
 11
-1001.99589
 21
-367.901186
 31
0.0
210
0.0
220
0.0
230
1.0
100
AcDbText
  0
TEXT
  5
5AB
100
AcDbEntity
  8
0
 62
     6
 48
0.0
100
AcDbText
 10
-1150.638424
 20
-397.901186
 30
0.0
 40
15.0
  1
S    = 160.33 mkare
 72
     5
 11
-969.937067
 21
-397.901186
 31
0.0
210
0.0
220
0.0
230
1.0
100
AcDbText
  0
TEXT
  5
5AC
100
AcDbEntity
  8
0
 62
     6
 48
0.0
100
AcDbText
 10
-1150.638424
 20
-427.901186
 30
0.0
 40
15.0
  1
Cb  = 0.441
 72
     5
 11
-1043.466478
 21
-427.901186
 31
0.0
210
0.0
220
0.0
230
1.0
100
AcDbText
  0
TEXT
  5
5AD
100
AcDbEntity
  8
0
 62
     6
 48
0.0
100
AcDbText
 10
-1150.638424
 20
-457.901186
 30
0.0
 40
15.0
  1
Cx  = 0.607
 72
     5
 11
-1043.466478
 21
-457.901186
 31
0.0
210
0.0
220
0.0
230
1.0
100
AcDbText
  0
TEXT
  5
5AE
100
AcDbEntity
  8
0
 62
     6
 48
0.0
100
AcDbText
 10
-1150.638424
 20
-487.901186
 30
0.0
 40
15.0
  1
Cwp = =0.778
 72
     5
 11
-1021.136162
 21
-487.901186
 31
0.0
210
0.0
220
0.0
230
1.0
100
AcDbText
  0
TEXT
  5
5AF
100
AcDbEntity
  8
0
 62
     6
 48
0.0
100
AcDbText
 10
-1150.638424
 20
-517.901186
 30
0.0
 40
15.0
  1
Lcb = % 59.24 
 72
     5
 11
-1010.185935
 21
-517.901186
 31
0.0
210
0.0
220
0.0
230
1.0
100
AcDbText
  0
TEXT
  5
5B0
100
AcDbEntity
  8
0
 62
     6
 48
0.0
100
AcDbText
 10
-1150.638424
 20
-547.901186
 30
0.0
 40
15.0
  1
>     = 11.84 derece
 72
     5
 11
-974.054714
 21
-547.901186
 31
0.0
210
0.0
220
0.0
230
1.0
100
AcDbText
  0
TEXT
  5
5B1
100
AcDbEntity
  8
0
 62
     6
 48
0.0
100
AcDbText
 10
-1150.638424
 20
-577.901186
 30
0.0
 40
15.0
  1
At/Ax= 0.806
 72
     5
 11
-1027.109012
 21
-577.901186
 31
0.0
210
0.0
220
0.0
230
1.0
100
AcDbText
  0
ENDSEC
  0
SECTION
  2
OBJECTS
  0
DICTIONARY
  5
19
100
AcDbDictionary
280
     0
281
     1
  3
ACAD_GROUP
350
1A
  3
ACAD_MLINESTYLE
350
1B
  3
ACAD_LAYOUT
350
1E
  3
ACAD_PLOTSETTINGS
350
22
  3
ACAD_PLOTSTYLENAME
350
1F
  3
ACAD_WIPEOUT_VARS
350
23
  0
DICTIONARY
  5
1A
102
{ACAD_REACTORS
330
19
102
}
100
AcDbDictionary
280
     0
281
     1
  0
DICTIONARY
  5
1B
102
{ACAD_REACTORS
330
19
102
}
100
AcDbDictionary
280
     0
281
     1
  3
Standard
350
1C
  0
MLINESTYLE
  5
1C
102
{ACAD_REACTORS
330
1B
102
}
100
AcDbMlineStyle
  2
Standard
 70
     0
  3

 62
     0
 51
90.0
 52
90.0
 71
     2
 49
0.5
 62
   256
  6
BYLAYER
 49
-0.5
 62
   256
  6
BYLAYER
  0
ACDBDICTIONARYWDFLT
  5
1F
102
{ACAD_REACTORS
330
19
102
}
100
AcDbDictionary
281
     1
  3
Normal
350
1D
100
AcDbDictionaryWithDefault
340
1D
  0
ACDBPLACEHOLDER
  5
1D
102
{ACAD_REACTORS
330
1F
102
}
  0
LAYOUT
  5
20
102
{ACAD_REACTORS
330
1E
102
}
100
AcDbPlotSettings
  1

  2

  4

  6

 40
0.0
 41
0.0
 42
0.0
 43
0.0
 44
0.0
 45
0.0
 46
0.0
 47
0.0
 48
0.0
 49
0.0
140
0.0
141
0.0
142
1.0
143
1.0
 70
  1024
 72
     0
 73
     0
 74
     0
  7

 75
     0
147
1.0
148
0.0
149
0.0
100
AcDbLayout
  1
Model
 70
     0
 71
     0
 10
0.0
 20
0.0
 11
0.0
 21
0.0
 12
0.0
 22
0.0
 32
0.0
 14
0.0
 24
0.0
 34
0.0
 15
0.0
 25
0.0
 35
0.0
146
0.0
 13
0.0
 23
0.0
 33
0.0
 16
0.0
 26
0.0
 36
0.0
 17
0.0
 27
0.0
 37
0.0
 76
     0
330
A
331
0
345
0
346
0
  0
LAYOUT
  5
21
102
{ACAD_REACTORS
330
1E
102
}
100
AcDbPlotSettings
  1

  2

  4

  6

 40
0.0
 41
0.0
 42
0.0
 43
0.0
 44
0.0
 45
0.0
 46
0.0
 47
0.0
 48
0.0
 49
0.0
140
0.0
141
0.0
142
1.0
143
1.0
 70
     0
 72
     0
 73
     0
 74
     0
  7

 75
     0
147
1.0
148
0.0
149
0.0
100
AcDbLayout
  1
Layout1
 70
     0
 71
     0
 10
0.0
 20
0.0
 11
0.0
 21
0.0
 12
0.0
 22
0.0
 32
0.0
 14
0.0
 24
0.0
 34
0.0
 15
0.0
 25
0.0
 35
0.0
146
0.0
 13
0.0
 23
0.0
 33
0.0
 16
0.0
 26
0.0
 36
0.0
 17
0.0
 27
0.0
 37
0.0
 76
     0
330
B
331
0
345
0
346
0
  0
DICTIONARY
  5
1E
102
{ACAD_REACTORS
330
19
102
}
100
AcDbDictionary
280
     0
281
     1
  3
Layout1
350
21
  3
Model
350
20
  0
DICTIONARY
  5
22
102
{ACAD_REACTORS
330
19
102
}
100
AcDbDictionary
280
     0
281
     1
  0
WIPEOUTVARIABLES
  5
23
100
AcDbWipeoutVariables
 70
     1
  0
ENDSEC
  0
EOF
