  0
SECTION
  2
HEADER
  9
$ACADVER
  1
AC1015
  9
$ACADMAINTVER
 70
     6
  9
$DWGCODEPAGE
  3
ANSI_1252
  9
$INSBASE
 10
0.0
 20
0.0
 30
0.0
  9
$EXTMIN
 10
-1249.693757
 20
-429.139422
 30
0.0
  9
$EXTMAX
 10
93.27674
 20
92.076017
 30
0.0
  9
$LIMMIN
 10
0.0
 20
0.0
  9
$LIMMAX
 10
0.0
 20
0.0
  9
$ORTHOMODE
 70
     0
  9
$REGENMODE
 70
     1
  9
$FILLMODE
 70
     1
  9
$QTEXTMODE
 70
     0
  9
$MIRRTEXT
 70
     1
  9
$LTSCALE
 40
1.0
  9
$ATTMODE
 70
     1
  9
$TEXTSIZE
 40
0.2
  9
$TRACEWID
 40
0.05
  9
$TEXTSTYLE
  7
Standard
  9
$CLAYER
  8
0
  9
$CELTYPE
  6
Continuous
  9
$CECOLOR
 62
   256
  9
$CELTSCALE
 40
1.0
  9
$DISPSILH
 70
     0
  9
$DIMSCALE
 40
1.0
  9
$DIMASZ
 40
0.18
  9
$DIMEXO
 40
0.0625
  9
$DIMDLI
 40
0.38
  9
$DIMRND
 40
0.0
  9
$DIMDLE
 40
0.0
  9
$DIMEXE
 40
0.18
  9
$DIMTP
 40
0.0
  9
$DIMTM
 40
0.0
  9
$DIMTXT
 40
0.18
  9
$DIMCEN
 40
0.09
  9
$DIMTSZ
 40
0.0
  9
$DIMTOL
 70
     0
  9
$DIMLIM
 70
     0
  9
$DIMTIH
 70
     1
  9
$DIMTOH
 70
     1
  9
$DIMSE1
 70
     0
  9
$DIMSE2
 70
     0
  9
$DIMTAD
 70
     0
  9
$DIMZIN
 70
     0
  9
$DIMBLK
  1

  9
$DIMASO
 70
     1
  9
$DIMSHO
 70
     1
  9
$DIMPOST
  1

  9
$DIMAPOST
  1

  9
$DIMALT
 70
     0
  9
$DIMALTD
 70
     2
  9
$DIMALTF
 40
25.4
  9
$DIMLFAC
 40
1.0
  9
$DIMTOFL
 70
     0
  9
$DIMTVP
 40
0.0
  9
$DIMTIX
 70
     0
  9
$DIMSOXD
 70
     0
  9
$DIMSAH
 70
     0
  9
$DIMBLK1
  1

  9
$DIMBLK2
  1

  9
$DIMSTYLE
  2
Standard
  9
$DIMCLRD
 70
     0
  9
$DIMCLRE
 70
     0
  9
$DIMCLRT
 70
     0
  9
$DIMTFAC
 40
1.0
  9
$DIMGAP
 40
0.09
  9
$DIMJUST
 70
     0
  9
$DIMSD1
 70
     0
  9
$DIMSD2
 70
     0
  9
$DIMTOLJ
 70
     1
  9
$DIMTZIN
 70
     0
  9
$DIMALTZ
 70
     0
  9
$DIMALTTZ
 70
     0
  9
$DIMUPT
 70
     0
  9
$DIMDEC
 70
     4
  9
$DIMTDEC
 70
     4
  9
$DIMALTU
 70
     2
  9
$DIMALTTD
 70
     2
  9
$DIMTXSTY
  7
Standard
  9
$DIMAUNIT
 70
     0
  9
$DIMADEC
 70
     0
  9
$DIMALTRND
 40
0.0
  9
$DIMAZIN
 70
     0
  9
$DIMDSEP
 70
     0
  9
$DIMATFIT
 70
     3
  9
$DIMFRAC
 70
     0
  9
$DIMLDRBLK
  1

  9
$DIMLUNIT
 70
     2
  9
$DIMLWD
 70
     0
  9
$DIMLWE
 70
     0
  9
$DIMTMOVE
 70
     0
  9
$LUNITS
 70
     2
  9
$LUPREC
 70
     4
  9
$SKETCHINC
 40
0.1
  9
$FILLETRAD
 40
0.0
  9
$AUNITS
 70
     0
  9
$AUPREC
 70
     0
  9
$MENU
  1
acad
  9
$ELEVATION
 40
0.0
  9
$PELEVATION
 40
0.0
  9
$THICKNESS
 40
0.0
  9
$LIMCHECK
 70
     0
  9
$CHAMFERA
 40
0.0
  9
$CHAMFERB
 40
0.0
  9
$CHAMFERC
 40
0.0
  9
$CHAMFERD
 40
0.0
  9
$SKPOLY
 70
     0
  9
$TDCREATE
 40
0.000000000
  9
$TDUCREATE
 40
0.000000000
  9
$TDUPDATE
 40
0.000000000
  9
$TDUUPDATE
 40
0.000000000
  9
$TDINDWG
 40
0.0000000000
  9
$TDUSRTIMER
 40
0.0000000000
  9
$USRTIMER
 70
     1
  9
$ANGBASE
 50
0.0
  9
$ANGDIR
 70
     0
  9
$PDMODE
 70
     0
  9
$PDSIZE
 40
0.0
  9
$PLINEWID
 40
0.0
  9
$SPLFRAME
 70
     0
  9
$SPLINETYPE
 70
     6
  9
$SPLINESEGS
 70
     8
  9
$HANDSEED
  5
44F
  9
$SURFTAB1
 70
     6
  9
$SURFTAB2
 70
     6
  9
$SURFTYPE
 70
     6
  9
$SURFU
 70
     6
  9
$SURFV
 70
     6
  9
$UCSBASE
  2

  9
$UCSNAME
  2

  9
$UCSORG
 10
0.0
 20
0.0
 30
0.0
  9
$UCSXDIR
 10
1.0
 20
0.0
 30
0.0
  9
$UCSYDIR
 10
0.0
 20
1.0
 30
0.0
  9
$UCSORTHOREF
  2

  9
$UCSORTHOVIEW
 70
     0
  9
$UCSORGTOP
 10
0.0
 20
0.0
 30
0.0
  9
$UCSORGBOTTOM
 10
0.0
 20
0.0
 30
0.0
  9
$UCSORGLEFT
 10
0.0
 20
0.0
 30
0.0
  9
$UCSORGRIGHT
 10
0.0
 20
0.0
 30
0.0
  9
$UCSORGFRONT
 10
0.0
 20
0.0
 30
0.0
  9
$UCSORGBACK
 10
0.0
 20
0.0
 30
0.0
  9
$PUCSBASE
  2

  9
$PUCSNAME
  2

  9
$PUCSORG
 10
0.0
 20
0.0
 30
0.0
  9
$PUCSXDIR
 10
1.0
 20
0.0
 30
0.0
  9
$PUCSYDIR
 10
0.0
 20
1.0
 30
0.0
  9
$PUCSORTHOREF
  2

  9
$PUCSORTHOVIEW
 70
     0
  9
$PUCSORGTOP
 10
0.0
 20
0.0
 30
0.0
  9
$PUCSORGBOTTOM
 10
0.0
 20
0.0
 30
0.0
  9
$PUCSORGLEFT
 10
0.0
 20
0.0
 30
0.0
  9
$PUCSORGRIGHT
 10
0.0
 20
0.0
 30
0.0
  9
$PUCSORGFRONT
 10
0.0
 20
0.0
 30
0.0
  9
$PUCSORGBACK
 10
0.0
 20
0.0
 30
0.0
  9
$USERI1
 70
     0
  9
$USERI2
 70
     0
  9
$USERI3
 70
     0
  9
$USERI4
 70
     0
  9
$USERI5
 70
     0
  9
$USERR1
 40
0.0
  9
$USERR2
 40
0.0
  9
$USERR3
 40
0.0
  9
$USERR4
 40
0.0
  9
$USERR5
 40
0.0
  9
$WORLDVIEW
 70
     1
  9
$SHADEDGE
 70
     3
  9
$SHADEDIF
 70
    70
  9
$TILEMODE
 70
     1
  9
$MAXACTVP
 70
    16
  9
$PINSBASE
 10
0.0
 20
0.0
 30
0.0
  9
$PLIMCHECK
 70
     0
  9
$PEXTMIN
 10
1.000000E+20
 20
1.000000E+20
 30
1.000000E+20
  9
$PEXTMAX
 10
-1.000000E+20
 20
-1.000000E+20
 30
-1.000000E+20
  9
$PLIMMIN
 10
0.0
 20
0.0
  9
$PLIMMAX
 10
12.0
 20
9.0
  9
$UNITMODE
 70
     0
  9
$VISRETAIN
 70
     0
  9
$PLINEGEN
 70
     0
  9
$PSLTSCALE
 70
     0
  9
$TREEDEPTH
 70
  3020
  9
$CMLSTYLE
  2
Standard
  9
$CMLJUST
 70
     0
  9
$CMLSCALE
 40
1.0
  9
$PROXYGRAPHICS
 70
     0
  9
$MEASUREMENT
 70
     0
  9
$CELWEIGHT
370
     0
  9
$ENDCAPS
280
     0
  9
$JOINSTYLE
280
     0
  9
$LWDISPLAY
290
     0
  9
$INSUNITS
 70
     0
  9
$HYPERLINKBASE
  1

  9
$XEDIT
290
     1
  9
$CEPSNTYPE
380
     0
  9
$PSTYLEMODE
290
     1
  9
$FINGERPRINTGUID
  2

  9
$VERSIONGUID
  2

  9
$EXTNAMES
290
     1
  9
$PSVPSCALE
 40
0.0
  0
ENDSEC
  0
SECTION
  2
CLASSES
  0
CLASS
  1
LWPOLYLINE
  2
AcDbPolyline
  3
AutoCAD 2000
 90
    32768
280
     0
281
     1
  0
CLASS
  1
IMAGE
  2
AcDbRasterImage
  3
ISM
 90
    32895
280
     0
281
     1
  0
CLASS
  1
OLE2FRAME
  2
AcDbOle2Frame
  3
AutoCAD 2000
 90
    32768
280
     0
281
     1
  0
CLASS
  1
HATCH
  2
AcDbHatch
  3
AutoCAD 2000
 90
    32768
280
     0
281
     1
  0
CLASS
  1
DICTIONARYVAR
  2
AcDbDictionaryVar
  3
AutoCAD 2000
 90
    32768
280
     0
281
     0
  0
CLASS
  1
RASTERVARIABLES
  2
AcDbRasterVariables
  3
ISM
 90
    32768
280
     0
281
     0
  0
CLASS
  1
IMAGEDEF
  2
AcDbRasterImageDef
  3
ISM
 90
    32768
280
     0
281
     0
  0
CLASS
  1
IMAGEDEF_REACTOR
  2
AcDbRasterImageDefReactor
  3
ISM
 90
    32769
280
     0
281
     0
  0
CLASS
  1
IDBUFFER
  2
AcDbIdBuffer
  3
AutoCAD 2000
 90
    32768
280
     0
281
     0
  0
CLASS
  1
SPATIAL_FILTER
  2
AcDbSpatialFilter
  3
AutoCAD 2000
 90
    32768
280
     0
281
     0
  0
CLASS
  1
XRECORD
  2
AcDbXrecord
  3
AutoCAD 2000
 90
    32768
280
     0
281
     0
  0
CLASS
  1
SORTENTSTABLE
  2
AcDbSortentsTable
  3
AutoCAD 2000
 90
    32768
280
     0
281
     0
  0
CLASS
  1
LAYER_INDEX
  2
AcDbLayerIndex
  3
AutoCAD 2000
 90
    32768
280
     0
281
     0
  0
CLASS
  1
SPATIAL_INDEX
  2
AcDbSpatialIndex
  3
AutoCAD 2000
 90
    32768
280
     0
281
     0
  0
CLASS
  1
OBJECT_PTR
  2
CAseDLPNTableRecord
  3
"ASE-LPNTableRecord"
 90
    32769
280
     0
281
     0
  0
CLASS
  1
LAYOUT
  2
AcDbLayout
  3
AutoCAD 2000
 90
        0
280
     0
281
     0
  0
CLASS
  1
PLOTSETTINGS
  2
AcDbPlotSettings
  3
AutoCAD 2000
 90
    32768
280
     0
281
     0
  0
CLASS
  1
ACDBDICTIONARYWDFLT
  2
AcDbDictionaryWithDefault
  3
AutoCAD 2000
 90
        0
280
     0
281
     0
  0
CLASS
  1
ACDBPLACEHOLDER
  2
AcDbPlaceHolder
  3
AutoCAD 2000
 90
        0
280
     0
281
     0
  0
CLASS
  1
VBA_PROJECT
  2
AcDbVbaProject
  3
acadvba
 90
    32768
280
     0
281
     0
  0
CLASS
  1
WIPEOUT
  2
AcDbWipeout
  3
WipeOut|AutoCAD Express Tool|expresstools@autodesk.com
 90
    32895
280
     0
281
     1
  0
CLASS
  1
WIPEOUTVARIABLES
  2
AcDbWipeoutVariables
  3
WipeOut|AutoCAD Express Tool|expresstools@autodesk.com
 90
        0
280
     0
281
     0
  0
CLASS
  1
RTEXT
  2
RText
  3
RText|AutoCAD Express Tool|expresstools@autodesk.com
 90
    32768
280
     0
281
     1
  0
CLASS
  1
ARCALIGNEDTEXT
  2
AcDbArcAlignedText
  3
ATEXT|AutoCAD Express Tool|expresstools@autodesk.com
 90
    32768
280
     0
281
     1
  0
ENDSEC
  0
SECTION
  2
TABLES
  0
TABLE
  2
VPORT
  5
7
100
AcDbSymbolTable
 70
     2
  0
VPORT
  5
15
100
AcDbSymbolTableRecord
100
AcDbViewportTableRecord
  2
*ACTIVE
 70
     0
 10
0.0
 20
0.0
 11
1.0
 21
1.0
 12
6.591288
 22
4.579184
 13
0.0
 23
0.0
 14
1.0
 24
1.0
 15
0.0
 25
0.0
 16
0.0
 26
0.0
 36
1.0
 17
0.0
 27
0.0
 37
0.0
 40
9.158369
 41
0.688564
 42
50.0
 43
0.0
 44
0.0
 50
0.0
 51
0.0
 71
     0
 72
   100
 73
     1
 74
     1
 75
     0
 76
     0
 77
     0
 78
     0
281
     0
 65
     0
110
0.0
120
0.0
130
0.0
111
1.0
121
0.0
131
0.0
112
0.0
122
1.0
132
0.0
345
0
346
0
 79
     0
146
0.0
  0
VPORT
  5
33
100
AcDbSymbolTableRecord
100
AcDbViewportTableRecord
  2
DCADVPORT
 70
     0
 10
-1249.693757
 20
-429.139422
 11
93.27674
 21
92.076017
 12
6.21
 22
9.02
 13
0.0
 23
0.0
 14
1.0
 24
1.0
 15
0.0
 25
0.0
 16
0.0
 26
0.0
 36
1.0
 17
0.0
 27
0.0
 37
0.0
 40
18.04
 41
0.688564
 42
50.0
 43
1.0
 44
1.0
 50
0.0
 51
0.0
 71
     0
 72
   100
 73
     1
 74
     1
 75
     0
 76
     0
 77
     0
 78
     0
281
     0
 65
     0
110
0.0
120
0.0
130
0.0
111
1.0
121
0.0
131
0.0
112
0.0
122
1.0
132
0.0
345
0
346
0
 79
     0
146
0.0
  0
ENDTAB
  0
TABLE
  2
LTYPE
  5
4
100
AcDbSymbolTable
 70
    15
  0
LTYPE
  5
11
100
AcDbSymbolTableRecord
100
AcDbLinetypeTableRecord
  2
ByBlock
 70
    64
  3

 72
    65
 73
     0
 40
0.0
  0
LTYPE
  5
12
100
AcDbSymbolTableRecord
100
AcDbLinetypeTableRecord
  2
ByLayer
 70
    64
  3

 72
    65
 73
     0
 40
0.0
  0
LTYPE
  5
13
100
AcDbSymbolTableRecord
100
AcDbLinetypeTableRecord
  2
Continuous
 70
    64
  3
Solid line
 72
    65
 73
     0
 40
0.0
  0
LTYPE
  5
25
100
AcDbSymbolTableRecord
100
AcDbLinetypeTableRecord
  2
CONTINUOUS
 70
     0
  3
Solid line
 72
    65
 73
     0
 40
0.0
  0
LTYPE
  5
26
100
AcDbSymbolTableRecord
100
AcDbLinetypeTableRecord
  2
BORDER
 70
    64
  3
__ __ . __ __ . __ __ . __ __ . __ __ . __ __ .
 72
    65
 73
     6
 40
1.75
 49
0.5
 74
     0
 49
-0.25
 74
     0
 49
0.5
 74
     0
 49
-0.25
 74
     0
 49
0.0
 74
     0
 49
-0.25
 74
     0
  0
LTYPE
  5
27
100
AcDbSymbolTableRecord
100
AcDbLinetypeTableRecord
  2
BORDER2
 70
    64
  3
__.__.__.__.__.__.__.__.__.__.__.__.__.__.__.__
 72
    65
 73
     6
 40
0.875
 49
0.25
 74
     0
 49
-0.125
 74
     0
 49
0.25
 74
     0
 49
-0.125
 74
     0
 49
0.0
 74
     0
 49
-0.125
 74
     0
  0
LTYPE
  5
28
100
AcDbSymbolTableRecord
100
AcDbLinetypeTableRecord
  2
CENTER
 70
    64
  3
____ _ ____ _ ____ _ ____ _ ____ _ ____ _ ____ 
 72
    65
 73
     4
 40
2.0
 49
1.25
 74
     0
 49
-0.25
 74
     0
 49
0.25
 74
     0
 49
-0.25
 74
     0
  0
LTYPE
  5
29
100
AcDbSymbolTableRecord
100
AcDbLinetypeTableRecord
  2
DASHDOT
 70
    64
  3
__ . __ . __ . __ . __ . __ . __ . __ . __ . __
 72
    65
 73
     4
 40
1.0
 49
0.5
 74
     0
 49
-0.25
 74
     0
 49
0.0
 74
     0
 49
-0.25
 74
     0
  0
LTYPE
  5
2A
100
AcDbSymbolTableRecord
100
AcDbLinetypeTableRecord
  2
DASHDOT2
 70
    64
  3
_._._._._._._._._._._._._._._._._._._._._._._._
 72
    65
 73
     4
 40
0.5
 49
0.25
 74
     0
 49
-0.125
 74
     0
 49
0.0
 74
     0
 49
-0.125
 74
     0
  0
LTYPE
  5
2B
100
AcDbSymbolTableRecord
100
AcDbLinetypeTableRecord
  2
DASHED
 70
    64
  3
__ __ __ __ __ __ __ __ __ __ __ __ __ __ __ __
 72
    65
 73
     2
 40
0.75
 49
0.5
 74
     0
 49
-0.25
 74
     0
  0
LTYPE
  5
2C
100
AcDbSymbolTableRecord
100
AcDbLinetypeTableRecord
  2
DIVIDE
 70
    64
  3
____ . . ____ . . ____ . . ____ . . ____ . . __
 72
    65
 73
     6
 40
1.25
 49
0.5
 74
     0
 49
-0.25
 74
     0
 49
0.0
 74
     0
 49
-0.25
 74
     0
 49
0.0
 74
     0
 49
-0.25
 74
     0
  0
LTYPE
  5
2D
100
AcDbSymbolTableRecord
100
AcDbLinetypeTableRecord
  2
DIVIDE2
 70
    64
  3
__..__..__..__..__..__..__..__..__..__..__..__.
 72
    65
 73
     6
 40
0.625
 49
0.25
 74
     0
 49
-0.125
 74
     0
 49
0.0
 74
     0
 49
-0.125
 74
     0
 49
0.0
 74
     0
 49
-0.125
 74
     0
  0
LTYPE
  5
2E
100
AcDbSymbolTableRecord
100
AcDbLinetypeTableRecord
  2
DOT
 70
    64
  3
. . . . . . . . . . . . . . . . . . . . . . . .
 72
    65
 73
     2
 40
0.25
 49
0.0
 74
     0
 49
-0.25
 74
     0
  0
LTYPE
  5
2F
100
AcDbSymbolTableRecord
100
AcDbLinetypeTableRecord
  2
HIDDEN
 70
    64
  3
__ __ __ __ __ __ __ __ __ __ __ __ __ __ __ __
 72
    65
 73
     2
 40
0.375
 49
0.25
 74
     0
 49
-0.125
 74
     0
  0
LTYPE
  5
30
100
AcDbSymbolTableRecord
100
AcDbLinetypeTableRecord
  2
PHANTOM
 70
    64
  3
______  __  __  ______  __  __  ______  __  __ 
 72
    65
 73
     6
 40
2.5
 49
1.25
 74
     0
 49
-0.25
 74
     0
 49
0.25
 74
     0
 49
-0.25
 74
     0
 49
0.25
 74
     0
 49
-0.25
 74
     0
  0
ENDTAB
  0
TABLE
  2
LAYER
  5
2
100
AcDbSymbolTable
 70
     3
  0
LAYER
  5
14
100
AcDbSymbolTableRecord
100
AcDbLayerTableRecord
  2
0
 70
     0
 62
     7
  6
Continuous
290
     1
370
    -3
390
1D
  0
LAYER
  5
31
100
AcDbSymbolTableRecord
100
AcDbLayerTableRecord
  2
0
 70
     0
 62
     7
  6
Continuous
290
     1
370
    -3
390
1F
  0
LAYER
  5
32
100
AcDbSymbolTableRecord
100
AcDbLayerTableRecord
  2
1
 70
     0
 62
     7
  6
Continuous
290
     1
370
    -3
390
1F
  0
ENDTAB
  0
TABLE
  2
STYLE
  5
3
100
AcDbSymbolTable
 70
     2
  0
STYLE
  5
17
100
AcDbSymbolTableRecord
100
AcDbTextStyleTableRecord
  2
Standard
 70
     0
 40
0.0
 41
1.0
 50
0.0
 71
     0
 42
0.0
  3
txt
  4

  0
STYLE
  5
24
100
AcDbSymbolTableRecord
100
AcDbTextStyleTableRecord
  2
BIGFONT
 70
    64
 40
3.0
 41
1.0
 50
0.0
 71
     0
 42
0.2
  3

  4
BIGFONT
  0
ENDTAB
  0
TABLE
  2
VIEW
  5
5
100
AcDbSymbolTable
 70
     0
  0
ENDTAB
  0
TABLE
  2
UCS
  5
6
100
AcDbSymbolTable
 70
     0
  0
ENDTAB
  0
TABLE
  2
APPID
  5
8
100
AcDbSymbolTable
 70
     1
  0
APPID
  5
16
100
AcDbSymbolTableRecord
100
AcDbRegAppTableRecord
  2
ACAD
 70
     0
  0
ENDTAB
  0
TABLE
  2
DIMSTYLE
  5
9
100
AcDbSymbolTable
 70
     1
100
AcDbDimStyleTable
 71
     0
  0
DIMSTYLE
105
18
100
AcDbSymbolTableRecord
100
AcDbDimStyleTableRecord
  2
Standard
 70
     0
  3

  4

 40
1.0
 41
0.18
 42
0.0625
 43
0.38
 44
0.18
 45
0.0
 46
0.0
 47
0.0
 48
0.0
 71
     0
 72
     0
 73
     1
 74
     1
 75
     0
 76
     0
 77
     0
 78
     0
 79
     0
140
0.18
141
0.09
142
0.0
143
25.4
144
1.0
145
0.0
146
1.0
147
0.09
148
0.0
170
     0
171
     2
172
     0
173
     0
174
     0
175
     0
176
     0
177
     0
178
     0
179
     0
271
     4
272
     4
273
     2
274
     2
275
     0
276
     0
277
     2
278
    46
279
     0
280
     0
281
     0
282
     0
283
     1
284
     0
285
     0
286
     0
288
     0
340
17
341
0
342
0
343
0
344
0
371
    -2
372
    -2
  0
ENDTAB
  0
TABLE
  2
BLOCK_RECORD
  5
1
100
AcDbSymbolTable
 70
     0
  0
BLOCK_RECORD
  5
A
100
AcDbSymbolTableRecord
100
AcDbBlockTableRecord
  2
*MODEL_SPACE
340
20
  0
BLOCK_RECORD
  5
B
100
AcDbSymbolTableRecord
100
AcDbBlockTableRecord
  2
*PAPER_SPACE
340
21
  0
ENDTAB
  0
ENDSEC
  0
SECTION
  2
BLOCKS
  0
BLOCK
  5
D
100
AcDbEntity
  8
0
100
AcDbBlockBegin
  2
*MODEL_SPACE
 70
     0
 10
0.0
 20
0.0
 30
0.0
  3
*MODEL_SPACE
  1

  0
ENDBLK
  5
E
100
AcDbEntity
  8
0
100
AcDbBlockEnd
  0
BLOCK
  5
F
100
AcDbEntity
 67
     1
  8
0
100
AcDbBlockBegin
  2
*PAPER_SPACE
 70
     0
 10
0.0
 20
0.0
 30
0.0
  3
*PAPER_SPACE
  1

  0
ENDBLK
  5
10
100
AcDbEntity
 67
     1
  8
0
100
AcDbBlockEnd
  0
ENDSEC
  0
SECTION
  2
ENTITIES
  0
TEXT
  5
34
100
AcDbEntity
  8
0
 62
     6
 48
0.0
100
AcDbText
 10
0.0
 20
22.0
 30
0.0
 40
2.0
  1
    SECTION NUMBER 0 AT    0.000 M
 72
     5
 11
78.333336
 21
22.0
 31
0.0
210
0.0
220
0.0
230
1.0
100
AcDbText
  0
TEXT
  5
35
100
AcDbEntity
  8
0
 62
     6
 48
0.0
100
AcDbText
 10
0.0
 20
19.0
 30
0.0
 40
2.0
  1
      1.2500  1.7249     1
 72
     5
 11
59.666668
 21
19.0
 31
0.0
210
0.0
220
0.0
230
1.0
100
AcDbText
  0
TEXT
  5
36
100
AcDbEntity
  8
0
 62
     6
 48
0.0
100
AcDbText
 10
0.0
 20
16.0
 30
0.0
 40
2.0
  1
      1.1250  1.6742     1
 72
     5
 11
59.666668
 21
16.0
 31
0.0
210
0.0
220
0.0
230
1.0
100
AcDbText
  0
TEXT
  5
37
100
AcDbEntity
  8
0
 62
     6
 48
0.0
100
AcDbText
 10
0.0
 20
13.0
 30
0.0
 40
2.0
  1
      0.0000  1.1400     2
 72
     5
 11
59.666668
 21
13.0
 31
0.0
210
0.0
220
0.0
230
1.0
100
AcDbText
  0
TEXT
  5
38
100
AcDbEntity
  8
0
 62
     6
 48
0.0
100
AcDbText
 10
0.0
 20
10.0
 30
0.0
 40
2.0
  1
    SECTION NUMBER 1 AT    0.000 M
 72
     5
 11
78.333336
 21
10.0
 31
0.0
210
0.0
220
0.0
230
1.0
100
AcDbText
  0
TEXT
  5
39
100
AcDbEntity
  8
0
 62
     6
 48
0.0
100
AcDbText
 10
0.0
 20
7.0
 30
0.0
 40
2.0
  1
      0.6174  1.9675     1
 72
     5
 11
59.666668
 21
7.0
 31
0.0
210
0.0
220
0.0
230
1.0
100
AcDbText
  0
TEXT
  5
3A
100
AcDbEntity
  8
0
 62
     6
 48
0.0
100
AcDbText
 10
0.0
 20
4.0
 30
0.0
 40
2.0
  1
      0.6287  1.7937     1
 72
     5
 11
59.666668
 21
4.0
 31
0.0
210
0.0
220
0.0
230
1.0
100
AcDbText
  0
TEXT
  5
3B
100
AcDbEntity
  8
0
 62
     6
 48
0.0
100
AcDbText
 10
0.0
 20
1.0
 30
0.0
 40
2.0
  1
      0.0000  1.1400     2
 72
     5
 11
59.666668
 21
1.0
 31
0.0
210
0.0
220
0.0
230
1.0
100
AcDbText
  0
TEXT
  5
3C
100
AcDbEntity
  8
0
 62
     6
 48
0.0
100
AcDbText
 10
0.0
 20
-2.0
 30
0.0
 40
2.0
  1
    SECTION NUMBER 2 AT    1.250 M
 72
     5
 11
78.333336
 21
-2.0
 31
0.0
210
0.0
220
0.0
230
1.0
100
AcDbText
  0
TEXT
  5
3D
100
AcDbEntity
  8
0
 62
     6
 48
0.0
100
AcDbText
 10
0.0
 20
-5.0
 30
0.0
 40
2.0
  1
      0.9857  2.0800     1
 72
     5
 11
59.666668
 21
-5.0
 31
0.0
210
0.0
220
0.0
230
1.0
100
AcDbText
  0
TEXT
  5
3E
100
AcDbEntity
  8
0
 62
     6
 48
0.0
100
AcDbText
 10
0.0
 20
-8.0
 30
0.0
 40
2.0
  1
      1.0596  1.6894     1
 72
     5
 11
59.666668
 21
-8.0
 31
0.0
210
0.0
220
0.0
230
1.0
100
AcDbText
  0
TEXT
  5
3F
100
AcDbEntity
  8
0
 62
     6
 48
0.0
100
AcDbText
 10
0.0
 20
-11.0
 30
0.0
 40
2.0
  1
      0.0000  0.5404     2
 72
     5
 11
59.666668
 21
-11.0
 31
0.0
210
0.0
220
0.0
230
1.0
100
AcDbText
  0
TEXT
  5
40
100
AcDbEntity
  8
0
 62
     6
 48
0.0
100
AcDbText
 10
0.0
 20
-14.0
 30
0.0
 40
2.0
  1
    SECTION NUMBER 3 AT    3.750 M
 72
     5
 11
78.333336
 21
-14.0
 31
0.0
210
0.0
220
0.0
230
1.0
100
AcDbText
  0
TEXT
  5
41
100
AcDbEntity
  8
0
 62
     6
 48
0.0
100
AcDbText
 10
0.0
 20
-17.0
 30
0.0
 40
2.0
  1
      1.4144  2.1306     1
 72
     5
 11
59.666668
 21
-17.0
 31
0.0
210
0.0
220
0.0
230
1.0
100
AcDbText
  0
TEXT
  5
42
100
AcDbEntity
  8
0
 62
     6
 48
0.0
100
AcDbText
 10
0.0
 20
-20.0
 30
0.0
 40
2.0
  1
      1.5771  1.3343     1
 72
     5
 11
59.666668
 21
-20.0
 31
0.0
210
0.0
220
0.0
230
1.0
100
AcDbText
  0
TEXT
  5
43
100
AcDbEntity
  8
0
 62
     6
 48
0.0
100
AcDbText
 10
0.0
 20
-23.0
 30
0.0
 40
2.0
  1
      0.4066  0.0000     2
 72
     5
 11
59.666668
 21
-23.0
 31
0.0
210
0.0
220
0.0
230
1.0
100
AcDbText
  0
TEXT
  5
44
100
AcDbEntity
  8
0
 62
     6
 48
0.0
100
AcDbText
 10
0.0
 20
-26.0
 30
0.0
 40
2.0
  1
      0.0000 -0.4324     3
 72
     5
 11
59.666668
 21
-26.0
 31
0.0
210
0.0
220
0.0
230
1.0
100
AcDbText
  0
TEXT
  5
45
100
AcDbEntity
  8
0
 62
     6
 48
0.0
100
AcDbText
 10
0.0
 20
-29.0
 30
0.0
 40
2.0
  1
    SECTION NUMBER 4 AT    6.250 M
 72
     5
 11
78.333336
 21
-29.0
 31
0.0
210
0.0
220
0.0
230
1.0
100
AcDbText
  0
TEXT
  5
46
100
AcDbEntity
  8
0
 62
     6
 48
0.0
100
AcDbText
 10
0.0
 20
-32.0
 30
0.0
 40
2.0
  1
      1.9319  2.1409     1
 72
     5
 11
59.666668
 21
-32.0
 31
0.0
210
0.0
220
0.0
230
1.0
100
AcDbText
  0
TEXT
  5
47
100
AcDbEntity
  8
0
 62
     6
 48
0.0
100
AcDbText
 10
0.0
 20
-35.0
 30
0.0
 40
2.0
  1
      2.2177  0.9132     1
 72
     5
 11
59.666668
 21
-35.0
 31
0.0
210
0.0
220
0.0
230
1.0
100
AcDbText
  0
TEXT
  5
48
100
AcDbEntity
  8
0
 62
     6
 48
0.0
100
AcDbText
 10
0.0
 20
-38.0
 30
0.0
 40
2.0
  1
      1.2321  0.0000     2
 72
     5
 11
59.666668
 21
-38.0
 31
0.0
210
0.0
220
0.0
230
1.0
100
AcDbText
  0
TEXT
  5
49
100
AcDbEntity
  8
0
 62
     6
 48
0.0
100
AcDbText
 10
0.0
 20
-41.0
 30
0.0
 40
2.0
  1
      0.7023 -0.4375     3
 72
     5
 11
59.666668
 21
-41.0
 31
0.0
210
0.0
220
0.0
230
1.0
100
AcDbText
  0
TEXT
  5
4A
100
AcDbEntity
  8
0
 62
     6
 48
0.0
100
AcDbText
 10
0.0
 20
-44.0
 30
0.0
 40
2.0
  1
      0.2341 -0.8750     4
 72
     5
 11
59.666668
 21
-44.0
 31
0.0
210
0.0
220
0.0
230
1.0
100
AcDbText
  0
TEXT
  5
4B
100
AcDbEntity
  8
0
 62
     6
 48
0.0
100
AcDbText
 10
0.0
 20
-47.0
 30
0.0
 40
2.0
  1
      0.0000 -1.0751     5
 72
     5
 11
59.666668
 21
-47.0
 31
0.0
210
0.0
220
0.0
230
1.0
100
AcDbText
  0
TEXT
  5
4C
100
AcDbEntity
  8
0
 62
     6
 48
0.0
100
AcDbText
 10
0.0
 20
-50.0
 30
0.0
 40
2.0
  1
    SECTION NUMBER 5 AT    8.750 M
 72
     5
 11
78.333336
 21
-50.0
 31
0.0
210
0.0
220
0.0
230
1.0
100
AcDbText
  0
TEXT
  5
4D
100
AcDbEntity
  8
0
 62
     6
 48
0.0
100
AcDbText
 10
0.0
 20
-53.0
 30
0.0
 40
2.0
  1
      2.4888  2.1181     1
 72
     5
 11
59.666668
 21
-53.0
 31
0.0
210
0.0
220
0.0
230
1.0
100
AcDbText
  0
TEXT
  5
4E
100
AcDbEntity
  8
0
 62
     6
 48
0.0
100
AcDbText
 10
0.0
 20
-56.0
 30
0.0
 40
2.0
  1
      2.8091  0.5281     1
 72
     5
 11
59.666668
 21
-56.0
 31
0.0
210
0.0
220
0.0
230
1.0
100
AcDbText
  0
TEXT
  5
4F
100
AcDbEntity
  8
0
 62
     6
 48
0.0
100
AcDbText
 10
0.0
 20
-59.0
 30
0.0
 40
2.0
  1
      2.1445  0.0000     2
 72
     5
 11
59.666668
 21
-59.0
 31
0.0
210
0.0
220
0.0
230
1.0
100
AcDbText
  0
TEXT
  5
50
100
AcDbEntity
  8
0
 62
     6
 48
0.0
100
AcDbText
 10
0.0
 20
-62.0
 30
0.0
 40
2.0
  1
      1.4785 -0.4375     3
 72
     5
 11
59.666668
 21
-62.0
 31
0.0
210
0.0
220
0.0
230
1.0
100
AcDbText
  0
TEXT
  5
51
100
AcDbEntity
  8
0
 62
     6
 48
0.0
100
AcDbText
 10
0.0
 20
-65.0
 30
0.0
 40
2.0
  1
      0.8970 -0.8750     4
 72
     5
 11
59.666668
 21
-65.0
 31
0.0
210
0.0
220
0.0
230
1.0
100
AcDbText
  0
TEXT
  5
52
100
AcDbEntity
  8
0
 62
     6
 48
0.0
100
AcDbText
 10
0.0
 20
-68.0
 30
0.0
 40
2.0
  1
      0.3000 -1.3125     5
 72
     5
 11
59.666668
 21
-68.0
 31
0.0
210
0.0
220
0.0
230
1.0
100
AcDbText
  0
TEXT
  5
53
100
AcDbEntity
  8
0
 62
     6
 48
0.0
100
AcDbText
 10
0.0
 20
-71.0
 30
0.0
 40
2.0
  1
      0.0000 -1.5326     6
 72
     5
 11
59.666668
 21
-71.0
 31
0.0
210
0.0
220
0.0
230
1.0
100
AcDbText
  0
TEXT
  5
54
100
AcDbEntity
  8
0
 62
     6
 48
0.0
100
AcDbText
 10
0.0
 20
-74.0
 30
0.0
 40
2.0
  1
    SECTION NUMBER 6 AT   11.250 M
 72
     5
 11
78.333336
 21
-74.0
 31
0.0
210
0.0
220
0.0
230
1.0
100
AcDbText
  0
TEXT
  5
55
100
AcDbEntity
  8
0
 62
     6
 48
0.0
100
AcDbText
 10
0.0
 20
-77.0
 30
0.0
 40
2.0
  1
      3.0309  2.0800     1
 72
     5
 11
59.666668
 21
-77.0
 31
0.0
210
0.0
220
0.0
230
1.0
100
AcDbText
  0
TEXT
  5
56
100
AcDbEntity
  8
0
 62
     6
 48
0.0
100
AcDbText
 10
0.0
 20
-80.0
 30
0.0
 40
2.0
  1
      3.3759  0.2237     1
 72
     5
 11
59.666668
 21
-80.0
 31
0.0
210
0.0
220
0.0
230
1.0
100
AcDbText
  0
TEXT
  5
57
100
AcDbEntity
  8
0
 62
     6
 48
0.0
100
AcDbText
 10
0.0
 20
-83.0
 30
0.0
 40
2.0
  1
      3.0063  0.0000     2
 72
     5
 11
59.666668
 21
-83.0
 31
0.0
210
0.0
220
0.0
230
1.0
100
AcDbText
  0
TEXT
  5
58
100
AcDbEntity
  8
0
 62
     6
 48
0.0
100
AcDbText
 10
0.0
 20
-86.0
 30
0.0
 40
2.0
  1
      2.2917 -0.4375     3
 72
     5
 11
59.666668
 21
-86.0
 31
0.0
210
0.0
220
0.0
230
1.0
100
AcDbText
  0
TEXT
  5
59
100
AcDbEntity
  8
0
 62
     6
 48
0.0
100
AcDbText
 10
0.0
 20
-89.0
 30
0.0
 40
2.0
  1
      1.5771 -0.8750     4
 72
     5
 11
59.666668
 21
-89.0
 31
0.0
210
0.0
220
0.0
230
1.0
100
AcDbText
  0
TEXT
  5
5A
100
AcDbEntity
  8
0
 62
     6
 48
0.0
100
AcDbText
 10
0.0
 20
-92.0
 30
0.0
 40
2.0
  1
      0.8000 -1.3125     5
 72
     5
 11
59.666668
 21
-92.0
 31
0.0
210
0.0
220
0.0
230
1.0
100
AcDbText
  0
TEXT
  5
5B
100
AcDbEntity
  8
0
 62
     6
 48
0.0
100
AcDbText
 10
0.0
 20
-95.0
 30
0.0
 40
2.0
  1
      0.0000 -1.7500     6
 72
     5
 11
59.666668
 21
-95.0
 31
0.0
210
0.0
220
0.0
230
1.0
100
AcDbText
  0
TEXT
  5
5C
100
AcDbEntity
  8
0
 62
     6
 48
0.0
100
AcDbText
 10
0.0
 20
-98.0
 30
0.0
 40
2.0
  1
    SECTION NUMBER 7 AT   13.750 M
 72
     5
 11
78.333336
 21
-98.0
 31
0.0
210
0.0
220
0.0
230
1.0
100
AcDbText
  0
TEXT
  5
5D
100
AcDbEntity
  8
0
 62
     6
 48
0.0
100
AcDbText
 10
0.0
 20
-101.0
 30
0.0
 40
2.0
  1
      3.5095  2.0293     1
 72
     5
 11
59.666668
 21
-101.0
 31
0.0
210
0.0
220
0.0
230
1.0
100
AcDbText
  0
TEXT
  5
5E
100
AcDbEntity
  8
0
 62
     6
 48
0.0
100
AcDbText
 10
0.0
 20
-104.0
 30
0.0
 40
2.0
  1
      3.8748  0.0634     1
 72
     5
 11
59.666668
 21
-104.0
 31
0.0
210
0.0
220
0.0
230
1.0
100
AcDbText
  0
TEXT
  5
5F
100
AcDbEntity
  8
0
 62
     6
 48
0.0
100
AcDbText
 10
0.0
 20
-107.0
 30
0.0
 40
2.0
  1
      3.6716  0.0000     2
 72
     5
 11
59.666668
 21
-107.0
 31
0.0
210
0.0
220
0.0
230
1.0
100
AcDbText
  0
TEXT
  5
60
100
AcDbEntity
  8
0
 62
     6
 48
0.0
100
AcDbText
 10
0.0
 20
-110.0
 30
0.0
 40
2.0
  1
      2.8091 -0.4375     3
 72
     5
 11
59.666668
 21
-110.0
 31
0.0
210
0.0
220
0.0
230
1.0
100
AcDbText
  0
TEXT
  5
61
100
AcDbEntity
  8
0
 62
     6
 48
0.0
100
AcDbText
 10
0.0
 20
-113.0
 30
0.0
 40
2.0
  1
      1.9220 -0.8750     4
 72
     5
 11
59.666668
 21
-113.0
 31
0.0
210
0.0
220
0.0
230
1.0
100
AcDbText
  0
TEXT
  5
62
100
AcDbEntity
  8
0
 62
     6
 48
0.0
100
AcDbText
 10
0.0
 20
-116.0
 30
0.0
 40
2.0
  1
      1.0010 -1.3125     5
 72
     5
 11
59.666668
 21
-116.0
 31
0.0
210
0.0
220
0.0
230
1.0
100
AcDbText
  0
TEXT
  5
63
100
AcDbEntity
  8
0
 62
     6
 48
0.0
100
AcDbText
 10
0.0
 20
-119.0
 30
0.0
 40
2.0
  1
      0.0000 -1.7500     6
 72
     5
 11
59.666668
 21
-119.0
 31
0.0
210
0.0
220
0.0
230
1.0
100
AcDbText
  0
TEXT
  5
64
100
AcDbEntity
  8
0
 62
     6
 48
0.0
100
AcDbText
 10
0.0
 20
-122.0
 30
0.0
 40
2.0
  1
    SECTION NUMBER 8 AT   16.250 M
 72
     5
 11
78.333336
 21
-122.0
 31
0.0
210
0.0
220
0.0
230
1.0
100
AcDbText
  0
TEXT
  5
65
100
AcDbEntity
  8
0
 62
     6
 48
0.0
100
AcDbText
 10
0.0
 20
-125.0
 30
0.0
 40
2.0
  1
      3.8194  2.0039     1
 72
     5
 11
59.666668
 21
-125.0
 31
0.0
210
0.0
220
0.0
230
1.0
100
AcDbText
  0
TEXT
  5
66
100
AcDbEntity
  8
0
 62
     6
 48
0.0
100
AcDbText
 10
0.0
 20
-128.0
 30
0.0
 40
2.0
  1
      4.1750 -0.0000     1
 72
     5
 11
59.666668
 21
-128.0
 31
0.0
210
0.0
220
0.0
230
1.0
100
AcDbText
  0
TEXT
  5
67
100
AcDbEntity
  8
0
 62
     6
 48
0.0
100
AcDbText
 10
0.0
 20
-131.0
 30
0.0
 40
2.0
  1
      4.0659  0.0000     2
 72
     5
 11
59.666668
 21
-131.0
 31
0.0
210
0.0
220
0.0
230
1.0
100
AcDbText
  0
TEXT
  5
68
100
AcDbEntity
  8
0
 62
     6
 48
0.0
100
AcDbText
 10
0.0
 20
-134.0
 30
0.0
 40
2.0
  1
      3.1048 -0.4375     3
 72
     5
 11
59.666668
 21
-134.0
 31
0.0
210
0.0
220
0.0
230
1.0
100
AcDbText
  0
TEXT
  5
69
100
AcDbEntity
  8
0
 62
     6
 48
0.0
100
AcDbText
 10
0.0
 20
-137.0
 30
0.0
 40
2.0
  1
      2.1438 -0.8750     4
 72
     5
 11
59.666668
 21
-137.0
 31
0.0
210
0.0
220
0.0
230
1.0
100
AcDbText
  0
TEXT
  5
6A
100
AcDbEntity
  8
0
 62
     6
 48
0.0
100
AcDbText
 10
0.0
 20
-140.0
 30
0.0
 40
2.0
  1
      1.0842 -1.3125     5
 72
     5
 11
59.666668
 21
-140.0
 31
0.0
210
0.0
220
0.0
230
1.0
100
AcDbText
  0
TEXT
  5
6B
100
AcDbEntity
  8
0
 62
     6
 48
0.0
100
AcDbText
 10
0.0
 20
-143.0
 30
0.0
 40
2.0
  1
      0.0000 -1.7500     6
 72
     5
 11
59.666668
 21
-143.0
 31
0.0
210
0.0
220
0.0
230
1.0
100
AcDbText
  0
TEXT
  5
6C
100
AcDbEntity
  8
0
 62
     6
 48
0.0
100
AcDbText
 10
0.0
 20
-146.0
 30
0.0
 40
2.0
  1
    SECTION NUMBER 9 AT   18.750 M
 72
     5
 11
78.333336
 21
-146.0
 31
0.0
210
0.0
220
0.0
230
1.0
100
AcDbText
  0
TEXT
  5
6D
100
AcDbEntity
  8
0
 62
     6
 48
0.0
100
AcDbText
 10
0.0
 20
-149.0
 30
0.0
 40
2.0
  1
      3.9328  1.9989     1
 72
     5
 11
59.666668
 21
-149.0
 31
0.0
210
0.0
220
0.0
230
1.0
100
AcDbText
  0
TEXT
  5
6E
100
AcDbEntity
  8
0
 62
     6
 48
0.0
100
AcDbText
 10
0.0
 20
-152.0
 30
0.0
 40
2.0
  1
      4.2384  0.0254     1
 72
     5
 11
59.666668
 21
-152.0
 31
0.0
210
0.0
220
0.0
230
1.0
100
AcDbText
  0
TEXT
  5
6F
100
AcDbEntity
  8
0
 62
     6
 48
0.0
100
AcDbText
 10
0.0
 20
-155.0
 30
0.0
 40
2.0
  1
      4.1201  0.0000     2
 72
     5
 11
59.666668
 21
-155.0
 31
0.0
210
0.0
220
0.0
230
1.0
100
AcDbText
  0
TEXT
  5
70
100
AcDbEntity
  8
0
 62
     6
 48
0.0
100
AcDbText
 10
0.0
 20
-158.0
 30
0.0
 40
2.0
  1
      3.2280 -0.4375     3
 72
     5
 11
59.666668
 21
-158.0
 31
0.0
210
0.0
220
0.0
230
1.0
100
AcDbText
  0
TEXT
  5
71
100
AcDbEntity
  8
0
 62
     6
 48
0.0
100
AcDbText
 10
0.0
 20
-161.0
 30
0.0
 40
2.0
  1
      2.2276 -0.8750     4
 72
     5
 11
59.666668
 21
-161.0
 31
0.0
210
0.0
220
0.0
230
1.0
100
AcDbText
  0
TEXT
  5
72
100
AcDbEntity
  8
0
 62
     6
 48
0.0
100
AcDbText
 10
0.0
 20
-164.0
 30
0.0
 40
2.0
  1
      1.1250 -1.3125     5
 72
     5
 11
59.666668
 21
-164.0
 31
0.0
210
0.0
220
0.0
230
1.0
100
AcDbText
  0
TEXT
  5
73
100
AcDbEntity
  8
0
 62
     6
 48
0.0
100
AcDbText
 10
0.0
 20
-167.0
 30
0.0
 40
2.0
  1
      0.0000 -1.7500     6
 72
     5
 11
59.666668
 21
-167.0
 31
0.0
210
0.0
220
0.0
230
1.0
100
AcDbText
  0
TEXT
  5
74
100
AcDbEntity
  8
0
 62
     6
 48
0.0
100
AcDbText
 10
0.0
 20
-170.0
 30
0.0
 40
2.0
  1
    SECTION NUMBER 10 AT   21.250 M
 72
     5
 11
80.666672
 21
-170.0
 31
0.0
210
0.0
220
0.0
230
1.0
100
AcDbText
  0
TEXT
  5
75
100
AcDbEntity
  8
0
 62
     6
 48
0.0
100
AcDbText
 10
0.0
 20
-173.0
 30
0.0
 40
2.0
  1
      3.9673  2.0039     1
 72
     5
 11
59.666668
 21
-173.0
 31
0.0
210
0.0
220
0.0
230
1.0
100
AcDbText
  0
TEXT
  5
76
100
AcDbEntity
  8
0
 62
     6
 48
0.0
100
AcDbText
 10
0.0
 20
-176.0
 30
0.0
 40
2.0
  1
      4.2507  0.0812     1
 72
     5
 11
59.666668
 21
-176.0
 31
0.0
210
0.0
220
0.0
230
1.0
100
AcDbText
  0
TEXT
  5
77
100
AcDbEntity
  8
0
 62
     6
 48
0.0
100
AcDbText
 10
0.0
 20
-179.0
 30
0.0
 40
2.0
  1
      4.0905  0.0000     2
 72
     5
 11
59.666668
 21
-179.0
 31
0.0
210
0.0
220
0.0
230
1.0
100
AcDbText
  0
TEXT
  5
78
100
AcDbEntity
  8
0
 62
     6
 48
0.0
100
AcDbText
 10
0.0
 20
-182.0
 30
0.0
 40
2.0
  1
      3.2280 -0.4375     3
 72
     5
 11
59.666668
 21
-182.0
 31
0.0
210
0.0
220
0.0
230
1.0
100
AcDbText
  0
TEXT
  5
79
100
AcDbEntity
  8
0
 62
     6
 48
0.0
100
AcDbText
 10
0.0
 20
-185.0
 30
0.0
 40
2.0
  1
      2.2177 -0.8750     4
 72
     5
 11
59.666668
 21
-185.0
 31
0.0
210
0.0
220
0.0
230
1.0
100
AcDbText
  0
TEXT
  5
7A
100
AcDbEntity
  8
0
 62
     6
 48
0.0
100
AcDbText
 10
0.0
 20
-188.0
 30
0.0
 40
2.0
  1
      1.1200 -1.3125     5
 72
     5
 11
59.666668
 21
-188.0
 31
0.0
210
0.0
220
0.0
230
1.0
100
AcDbText
  0
TEXT
  5
7B
100
AcDbEntity
  8
0
 62
     6
 48
0.0
100
AcDbText
 10
0.0
 20
-191.0
 30
0.0
 40
2.0
  1
      0.0000 -1.7500     6
 72
     5
 11
59.666668
 21
-191.0
 31
0.0
210
0.0
220
0.0
230
1.0
100
AcDbText
  0
TEXT
  5
7C
100
AcDbEntity
  8
0
 62
     6
 48
0.0
100
AcDbText
 10
0.0
 20
-194.0
 30
0.0
 40
2.0
  1
    SECTION NUMBER 11 AT   23.750 M
 72
     5
 11
80.666672
 21
-194.0
 31
0.0
210
0.0
220
0.0
230
1.0
100
AcDbText
  0
TEXT
  5
7D
100
AcDbEntity
  8
0
 62
     6
 48
0.0
100
AcDbText
 10
0.0
 20
-197.0
 30
0.0
 40
2.0
  1
      3.9673  2.0039     1
 72
     5
 11
59.666668
 21
-197.0
 31
0.0
210
0.0
220
0.0
230
1.0
100
AcDbText
  0
TEXT
  5
7E
100
AcDbEntity
  8
0
 62
     6
 48
0.0
100
AcDbText
 10
0.0
 20
-200.0
 30
0.0
 40
2.0
  1
      4.2507  0.1576     1
 72
     5
 11
59.666668
 21
-200.0
 31
0.0
210
0.0
220
0.0
230
1.0
100
AcDbText
  0
TEXT
  5
7F
100
AcDbEntity
  8
0
 62
     6
 48
0.0
100
AcDbText
 10
0.0
 20
-203.0
 30
0.0
 40
2.0
  1
      3.9180  0.0000     2
 72
     5
 11
59.666668
 21
-203.0
 31
0.0
210
0.0
220
0.0
230
1.0
100
AcDbText
  0
TEXT
  5
80
100
AcDbEntity
  8
0
 62
     6
 48
0.0
100
AcDbText
 10
0.0
 20
-206.0
 30
0.0
 40
2.0
  1
      3.0309 -0.4375     3
 72
     5
 11
59.666668
 21
-206.0
 31
0.0
210
0.0
220
0.0
230
1.0
100
AcDbText
  0
TEXT
  5
81
100
AcDbEntity
  8
0
 62
     6
 48
0.0
100
AcDbText
 10
0.0
 20
-209.0
 30
0.0
 40
2.0
  1
      2.0699 -0.8750     4
 72
     5
 11
59.666668
 21
-209.0
 31
0.0
210
0.0
220
0.0
230
1.0
100
AcDbText
  0
TEXT
  5
82
100
AcDbEntity
  8
0
 62
     6
 48
0.0
100
AcDbText
 10
0.0
 20
-212.0
 30
0.0
 40
2.0
  1
      1.0500 -1.3125     5
 72
     5
 11
59.666668
 21
-212.0
 31
0.0
210
0.0
220
0.0
230
1.0
100
AcDbText
  0
TEXT
  5
83
100
AcDbEntity
  8
0
 62
     6
 48
0.0
100
AcDbText
 10
0.0
 20
-215.0
 30
0.0
 40
2.0
  1
      0.0000 -1.7500     6
 72
     5
 11
59.666668
 21
-215.0
 31
0.0
210
0.0
220
0.0
230
1.0
100
AcDbText
  0
TEXT
  5
84
100
AcDbEntity
  8
0
 62
     6
 48
0.0
100
AcDbText
 10
0.0
 20
-218.0
 30
0.0
 40
2.0
  1
    SECTION NUMBER 12 AT   26.250 M
 72
     5
 11
80.666672
 21
-218.0
 31
0.0
210
0.0
220
0.0
230
1.0
100
AcDbText
  0
TEXT
  5
85
100
AcDbEntity
  8
0
 62
     6
 48
0.0
100
AcDbText
 10
0.0
 20
-221.0
 30
0.0
 40
2.0
  1
      3.9673  2.0039     1
 72
     5
 11
59.666668
 21
-221.0
 31
0.0
210
0.0
220
0.0
230
1.0
100
AcDbText
  0
TEXT
  5
86
100
AcDbEntity
  8
0
 62
     6
 48
0.0
100
AcDbText
 10
0.0
 20
-224.0
 30
0.0
 40
2.0
  1
      4.2507  0.2790     1
 72
     5
 11
59.666668
 21
-224.0
 31
0.0
210
0.0
220
0.0
230
1.0
100
AcDbText
  0
TEXT
  5
87
100
AcDbEntity
  8
0
 62
     6
 48
0.0
100
AcDbText
 10
0.0
 20
-227.0
 30
0.0
 40
2.0
  1
      3.6962  0.0000     2
 72
     5
 11
59.666668
 21
-227.0
 31
0.0
210
0.0
220
0.0
230
1.0
100
AcDbText
  0
TEXT
  5
88
100
AcDbEntity
  8
0
 62
     6
 48
0.0
100
AcDbText
 10
0.0
 20
-230.0
 30
0.0
 40
2.0
  1
      2.8091 -0.4375     3
 72
     5
 11
59.666668
 21
-230.0
 31
0.0
210
0.0
220
0.0
230
1.0
100
AcDbText
  0
TEXT
  5
89
100
AcDbEntity
  8
0
 62
     6
 48
0.0
100
AcDbText
 10
0.0
 20
-233.0
 30
0.0
 40
2.0
  1
      1.8728 -0.8750     4
 72
     5
 11
59.666668
 21
-233.0
 31
0.0
210
0.0
220
0.0
230
1.0
100
AcDbText
  0
TEXT
  5
8A
100
AcDbEntity
  8
0
 62
     6
 48
0.0
100
AcDbText
 10
0.0
 20
-236.0
 30
0.0
 40
2.0
  1
      0.9250 -1.3125     5
 72
     5
 11
59.666668
 21
-236.0
 31
0.0
210
0.0
220
0.0
230
1.0
100
AcDbText
  0
TEXT
  5
8B
100
AcDbEntity
  8
0
 62
     6
 48
0.0
100
AcDbText
 10
0.0
 20
-239.0
 30
0.0
 40
2.0
  1
      0.0000 -1.7500     6
 72
     5
 11
59.666668
 21
-239.0
 31
0.0
210
0.0
220
0.0
230
1.0
100
AcDbText
  0
TEXT
  5
8C
100
AcDbEntity
  8
0
 62
     6
 48
0.0
100
AcDbText
 10
0.0
 20
-242.0
 30
0.0
 40
2.0
  1
    SECTION NUMBER 13 AT   28.750 M
 72
     5
 11
80.666672
 21
-242.0
 31
0.0
210
0.0
220
0.0
230
1.0
100
AcDbText
  0
TEXT
  5
8D
100
AcDbEntity
  8
0
 62
     6
 48
0.0
100
AcDbText
 10
0.0
 20
-245.0
 30
0.0
 40
2.0
  1
      3.9673  2.0039     1
 72
     5
 11
59.666668
 21
-245.0
 31
0.0
210
0.0
220
0.0
230
1.0
100
AcDbText
  0
TEXT
  5
8E
100
AcDbEntity
  8
0
 62
     6
 48
0.0
100
AcDbText
 10
0.0
 20
-248.0
 30
0.0
 40
2.0
  1
      4.2507  0.4059     1
 72
     5
 11
59.666668
 21
-248.0
 31
0.0
210
0.0
220
0.0
230
1.0
100
AcDbText
  0
TEXT
  5
8F
100
AcDbEntity
  8
0
 62
     6
 48
0.0
100
AcDbText
 10
0.0
 20
-251.0
 30
0.0
 40
2.0
  1
      3.4991  0.0000     2
 72
     5
 11
59.666668
 21
-251.0
 31
0.0
210
0.0
220
0.0
230
1.0
100
AcDbText
  0
TEXT
  5
90
100
AcDbEntity
  8
0
 62
     6
 48
0.0
100
AcDbText
 10
0.0
 20
-254.0
 30
0.0
 40
2.0
  1
      2.6120 -0.4375     3
 72
     5
 11
59.666668
 21
-254.0
 31
0.0
210
0.0
220
0.0
230
1.0
100
AcDbText
  0
TEXT
  5
91
100
AcDbEntity
  8
0
 62
     6
 48
0.0
100
AcDbText
 10
0.0
 20
-257.0
 30
0.0
 40
2.0
  1
      1.7496 -0.8750     4
 72
     5
 11
59.666668
 21
-257.0
 31
0.0
210
0.0
220
0.0
230
1.0
100
AcDbText
  0
TEXT
  5
92
100
AcDbEntity
  8
0
 62
     6
 48
0.0
100
AcDbText
 10
0.0
 20
-260.0
 30
0.0
 40
2.0
  1
      0.8500 -1.3125     5
 72
     5
 11
59.666668
 21
-260.0
 31
0.0
210
0.0
220
0.0
230
1.0
100
AcDbText
  0
TEXT
  5
93
100
AcDbEntity
  8
0
 62
     6
 48
0.0
100
AcDbText
 10
0.0
 20
-263.0
 30
0.0
 40
2.0
  1
      0.0000 -1.7500     6
 72
     5
 11
59.666668
 21
-263.0
 31
0.0
210
0.0
220
0.0
230
1.0
100
AcDbText
  0
TEXT
  5
94
100
AcDbEntity
  8
0
 62
     6
 48
0.0
100
AcDbText
 10
0.0
 20
-266.0
 30
0.0
 40
2.0
  1
    SECTION NUMBER 14 AT   31.250 M
 72
     5
 11
80.666672
 21
-266.0
 31
0.0
210
0.0
220
0.0
230
1.0
100
AcDbText
  0
TEXT
  5
95
100
AcDbEntity
  8
0
 62
     6
 48
0.0
100
AcDbText
 10
0.0
 20
-269.0
 30
0.0
 40
2.0
  1
      3.9673  2.0039     1
 72
     5
 11
59.666668
 21
-269.0
 31
0.0
210
0.0
220
0.0
230
1.0
100
AcDbText
  0
TEXT
  5
96
100
AcDbEntity
  8
0
 62
     6
 48
0.0
100
AcDbText
 10
0.0
 20
-272.0
 30
0.0
 40
2.0
  1
      4.2507  0.5581     1
 72
     5
 11
59.666668
 21
-272.0
 31
0.0
210
0.0
220
0.0
230
1.0
100
AcDbText
  0
TEXT
  5
97
100
AcDbEntity
  8
0
 62
     6
 48
0.0
100
AcDbText
 10
0.0
 20
-275.0
 30
0.0
 40
2.0
  1
      3.3266  0.0000     2
 72
     5
 11
59.666668
 21
-275.0
 31
0.0
210
0.0
220
0.0
230
1.0
100
AcDbText
  0
TEXT
  5
98
100
AcDbEntity
  8
0
 62
     6
 48
0.0
100
AcDbText
 10
0.0
 20
-278.0
 30
0.0
 40
2.0
  1
      2.5381 -0.4375     3
 72
     5
 11
59.666668
 21
-278.0
 31
0.0
210
0.0
220
0.0
230
1.0
100
AcDbText
  0
TEXT
  5
99
100
AcDbEntity
  8
0
 62
     6
 48
0.0
100
AcDbText
 10
0.0
 20
-281.0
 30
0.0
 40
2.0
  1
      1.6756 -0.8750     4
 72
     5
 11
59.666668
 21
-281.0
 31
0.0
210
0.0
220
0.0
230
1.0
100
AcDbText
  0
TEXT
  5
9A
100
AcDbEntity
  8
0
 62
     6
 48
0.0
100
AcDbText
 10
0.0
 20
-284.0
 30
0.0
 40
2.0
  1
      0.8000 -1.3125     5
 72
     5
 11
59.666668
 21
-284.0
 31
0.0
210
0.0
220
0.0
230
1.0
100
AcDbText
  0
TEXT
  5
9B
100
AcDbEntity
  8
0
 62
     6
 48
0.0
100
AcDbText
 10
0.0
 20
-287.0
 30
0.0
 40
2.0
  1
      0.0000 -1.7500     6
 72
     5
 11
59.666668
 21
-287.0
 31
0.0
210
0.0
220
0.0
230
1.0
100
AcDbText
  0
TEXT
  5
9C
100
AcDbEntity
  8
0
 62
     6
 48
0.0
100
AcDbText
 10
0.0
 20
-290.0
 30
0.0
 40
2.0
  1
    
 72
     5
 11
8.333334
 21
-290.0
 31
0.0
210
0.0
220
0.0
230
1.0
100
AcDbText
  0
POLYLINE
  5
9D
100
AcDbEntity
  8
1
  6
Continuous
 62
     6
 48
0.75
100
AcDb2dPolyline
 66
     1
 10
0.0
 20
0.0
 30
0.0
 70
   128
  0
VERTEX
  5
9E
100
AcDbEntity
  8
1
  6
Continuous
 62
     6
 48
0.75
100
AcDbVertex
100
AcDb2dVertex
 10
-97.466998
 20
-394.690166
 30
0.0
 40
0.0
 41
0.0
  0
VERTEX
  5
9F
100
AcDbEntity
  8
1
  6
Continuous
 62
     6
 48
0.75
100
AcDbVertex
100
AcDb2dVertex
 10
-97.466998
 20
-378.972666
 30
0.0
 40
0.0
 41
0.0
  0
SEQEND
  5
A0
100
AcDbEntity
  8
0
  0
POLYLINE
  5
A1
100
AcDbEntity
  8
1
  6
Continuous
 62
     6
 48
0.75
100
AcDb2dPolyline
 66
     1
 10
0.0
 20
0.0
 30
0.0
 70
   128
  0
VERTEX
  5
A2
100
AcDbEntity
  8
1
  6
Continuous
 62
     6
 48
0.75
100
AcDbVertex
100
AcDb2dVertex
 10
-128.714498
 20
-394.690166
 30
0.0
 40
0.0
 41
0.0
  0
VERTEX
  5
A3
100
AcDbEntity
  8
1
  6
Continuous
 62
     6
 48
0.75
100
AcDbVertex
100
AcDb2dVertex
 10
-128.714498
 20
-368.200166
 30
0.0
 40
0.0
 41
0.0
  0
SEQEND
  5
A4
100
AcDbEntity
  8
0
  0
POLYLINE
  5
A5
100
AcDbEntity
  8
1
  6
Continuous
 62
     6
 48
0.75
100
AcDb2dPolyline
 66
     1
 10
0.0
 20
0.0
 30
0.0
 70
   128
  0
VERTEX
  5
A6
100
AcDbEntity
  8
1
  6
Continuous
 62
     6
 48
0.75
100
AcDbVertex
100
AcDb2dVertex
 10
-191.214498
 20
-394.690166
 30
0.0
 40
0.0
 41
0.0
  0
VERTEX
  5
A7
100
AcDbEntity
  8
1
  6
Continuous
 62
     6
 48
0.75
100
AcDbVertex
100
AcDb2dVertex
 10
-191.214498
 20
-355.262666
 30
0.0
 40
0.0
 41
0.0
  0
SEQEND
  5
A8
100
AcDbEntity
  8
0
  0
POLYLINE
  5
A9
100
AcDbEntity
  8
1
  6
Continuous
 62
     6
 48
0.75
100
AcDb2dPolyline
 66
     1
 10
0.0
 20
0.0
 30
0.0
 70
   128
  0
VERTEX
  5
AA
100
AcDbEntity
  8
1
  6
Continuous
 62
     6
 48
0.75
100
AcDbVertex
100
AcDb2dVertex
 10
-253.714498
 20
-394.690166
 30
0.0
 40
0.0
 41
0.0
  0
VERTEX
  5
AB
100
AcDbEntity
  8
1
  6
Continuous
 62
     6
 48
0.75
100
AcDbVertex
100
AcDb2dVertex
 10
-253.714498
 20
-339.247666
 30
0.0
 40
0.0
 41
0.0
  0
SEQEND
  5
AC
100
AcDbEntity
  8
0
  0
POLYLINE
  5
AD
100
AcDbEntity
  8
1
  6
Continuous
 62
     6
 48
0.75
100
AcDb2dPolyline
 66
     1
 10
0.0
 20
0.0
 30
0.0
 70
   128
  0
VERTEX
  5
AE
100
AcDbEntity
  8
1
  6
Continuous
 62
     6
 48
0.75
100
AcDbVertex
100
AcDb2dVertex
 10
-316.214498
 20
-394.690166
 30
0.0
 40
0.0
 41
0.0
  0
VERTEX
  5
AF
100
AcDbEntity
  8
1
  6
Continuous
 62
     6
 48
0.75
100
AcDbVertex
100
AcDb2dVertex
 10
-316.214498
 20
-324.462666
 30
0.0
 40
0.0
 41
0.0
  0
SEQEND
  5
B0
100
AcDbEntity
  8
0
  0
POLYLINE
  5
B1
100
AcDbEntity
  8
1
  6
Continuous
 62
     6
 48
0.75
100
AcDb2dPolyline
 66
     1
 10
0.0
 20
0.0
 30
0.0
 70
   128
  0
VERTEX
  5
B2
100
AcDbEntity
  8
1
  6
Continuous
 62
     6
 48
0.75
100
AcDbVertex
100
AcDb2dVertex
 10
-378.714498
 20
-394.690166
 30
0.0
 40
0.0
 41
0.0
  0
VERTEX
  5
B3
100
AcDbEntity
  8
1
  6
Continuous
 62
     6
 48
0.75
100
AcDbVertex
100
AcDb2dVertex
 10
-378.714498
 20
-310.292666
 30
0.0
 40
0.0
 41
0.0
  0
SEQEND
  5
B4
100
AcDbEntity
  8
0
  0
POLYLINE
  5
B5
100
AcDbEntity
  8
1
  6
Continuous
 62
     6
 48
0.75
100
AcDb2dPolyline
 66
     1
 10
0.0
 20
0.0
 30
0.0
 70
   128
  0
VERTEX
  5
B6
100
AcDbEntity
  8
1
  6
Continuous
 62
     6
 48
0.75
100
AcDbVertex
100
AcDb2dVertex
 10
-441.214498
 20
-394.690166
 30
0.0
 40
0.0
 41
0.0
  0
VERTEX
  5
B7
100
AcDbEntity
  8
1
  6
Continuous
 62
     6
 48
0.75
100
AcDbVertex
100
AcDb2dVertex
 10
-441.214498
 20
-297.820166
 30
0.0
 40
0.0
 41
0.0
  0
SEQEND
  5
B8
100
AcDbEntity
  8
0
  0
POLYLINE
  5
B9
100
AcDbEntity
  8
1
  6
Continuous
 62
     6
 48
0.75
100
AcDb2dPolyline
 66
     1
 10
0.0
 20
0.0
 30
0.0
 70
   128
  0
VERTEX
  5
BA
100
AcDbEntity
  8
1
  6
Continuous
 62
     6
 48
0.75
100
AcDbVertex
100
AcDb2dVertex
 10
-503.714498
 20
-394.690166
 30
0.0
 40
0.0
 41
0.0
  0
VERTEX
  5
BB
100
AcDbEntity
  8
1
  6
Continuous
 62
     6
 48
0.75
100
AcDbVertex
100
AcDb2dVertex
 10
-503.714498
 20
-290.315166
 30
0.0
 40
0.0
 41
0.0
  0
SEQEND
  5
BC
100
AcDbEntity
  8
0
  0
POLYLINE
  5
BD
100
AcDbEntity
  8
1
  6
Continuous
 62
     6
 48
0.75
100
AcDb2dPolyline
 66
     1
 10
0.0
 20
0.0
 30
0.0
 70
   128
  0
VERTEX
  5
BE
100
AcDbEntity
  8
1
  6
Continuous
 62
     6
 48
0.75
100
AcDbVertex
100
AcDb2dVertex
 10
-566.214498
 20
-394.690166
 30
0.0
 40
0.0
 41
0.0
  0
VERTEX
  5
BF
100
AcDbEntity
  8
1
  6
Continuous
 62
     6
 48
0.75
100
AcDbVertex
100
AcDb2dVertex
 10
-566.214498
 20
-288.730166
 30
0.0
 40
0.0
 41
0.0
  0
SEQEND
  5
C0
100
AcDbEntity
  8
0
  0
POLYLINE
  5
C1
100
AcDbEntity
  8
1
  6
Continuous
 62
     6
 48
0.75
100
AcDb2dPolyline
 66
     1
 10
0.0
 20
0.0
 30
0.0
 70
   128
  0
VERTEX
  5
C2
100
AcDbEntity
  8
1
  6
Continuous
 62
     6
 48
0.75
100
AcDbVertex
100
AcDb2dVertex
 10
-628.714498
 20
-394.690166
 30
0.0
 40
0.0
 41
0.0
  0
VERTEX
  5
C3
100
AcDbEntity
  8
1
  6
Continuous
 62
     6
 48
0.75
100
AcDbVertex
100
AcDb2dVertex
 10
-628.714498
 20
-288.422666
 30
0.0
 40
0.0
 41
0.0
  0
SEQEND
  5
C4
100
AcDbEntity
  8
0
  0
POLYLINE
  5
C5
100
AcDbEntity
  8
1
  6
Continuous
 62
     6
 48
0.75
100
AcDb2dPolyline
 66
     1
 10
0.0
 20
0.0
 30
0.0
 70
   128
  0
VERTEX
  5
C6
100
AcDbEntity
  8
1
  6
Continuous
 62
     6
 48
0.75
100
AcDbVertex
100
AcDb2dVertex
 10
-691.214498
 20
-394.690166
 30
0.0
 40
0.0
 41
0.0
  0
VERTEX
  5
C7
100
AcDbEntity
  8
1
  6
Continuous
 62
     6
 48
0.75
100
AcDbVertex
100
AcDb2dVertex
 10
-691.214498
 20
-288.422666
 30
0.0
 40
0.0
 41
0.0
  0
SEQEND
  5
C8
100
AcDbEntity
  8
0
  0
POLYLINE
  5
C9
100
AcDbEntity
  8
1
  6
Continuous
 62
     6
 48
0.75
100
AcDb2dPolyline
 66
     1
 10
0.0
 20
0.0
 30
0.0
 70
   128
  0
VERTEX
  5
CA
100
AcDbEntity
  8
1
  6
Continuous
 62
     6
 48
0.75
100
AcDbVertex
100
AcDb2dVertex
 10
-753.714498
 20
-394.690166
 30
0.0
 40
0.0
 41
0.0
  0
VERTEX
  5
CB
100
AcDbEntity
  8
1
  6
Continuous
 62
     6
 48
0.75
100
AcDbVertex
100
AcDb2dVertex
 10
-753.714498
 20
-288.422666
 30
0.0
 40
0.0
 41
0.0
  0
SEQEND
  5
CC
100
AcDbEntity
  8
0
  0
POLYLINE
  5
CD
100
AcDbEntity
  8
1
  6
Continuous
 62
     6
 48
0.75
100
AcDb2dPolyline
 66
     1
 10
0.0
 20
0.0
 30
0.0
 70
   128
  0
VERTEX
  5
CE
100
AcDbEntity
  8
1
  6
Continuous
 62
     6
 48
0.75
100
AcDbVertex
100
AcDb2dVertex
 10
-816.214498
 20
-394.690166
 30
0.0
 40
0.0
 41
0.0
  0
VERTEX
  5
CF
100
AcDbEntity
  8
1
  6
Continuous
 62
     6
 48
0.75
100
AcDbVertex
100
AcDb2dVertex
 10
-816.214498
 20
-288.422666
 30
0.0
 40
0.0
 41
0.0
  0
SEQEND
  5
D0
100
AcDbEntity
  8
0
  0
POLYLINE
  5
D1
100
AcDbEntity
  8
1
  6
Continuous
 62
     6
 48
0.75
100
AcDb2dPolyline
 66
     1
 10
0.0
 20
0.0
 30
0.0
 70
   128
  0
VERTEX
  5
D2
100
AcDbEntity
  8
1
  6
Continuous
 62
     6
 48
0.75
100
AcDbVertex
100
AcDb2dVertex
 10
-878.714498
 20
-394.690166
 30
0.0
 40
0.0
 41
0.0
  0
VERTEX
  5
D3
100
AcDbEntity
  8
1
  6
Continuous
 62
     6
 48
0.75
100
AcDbVertex
100
AcDb2dVertex
 10
-878.714498
 20
-288.422666
 30
0.0
 40
0.0
 41
0.0
  0
SEQEND
  5
D4
100
AcDbEntity
  8
0
  0
POLYLINE
  5
D5
100
AcDbEntity
  8
1
  6
Continuous
 62
     6
 48
0.75
100
AcDb2dPolyline
 66
     1
 10
0.0
 20
0.0
 30
0.0
 70
   128
  0
VERTEX
  5
D6
100
AcDbEntity
  8
1
  6
Continuous
 62
     6
 48
0.75
100
AcDbVertex
100
AcDb2dVertex
 10
-66.214498
 20
-394.690166
 30
0.0
 40
0.0
 41
0.0
  0
VERTEX
  5
D7
100
AcDbEntity
  8
1
  6
Continuous
 62
     6
 48
0.75
100
AcDbVertex
100
AcDb2dVertex
 10
-97.466998
 20
-379.255166
 30
0.0
 40
0.0
 41
0.0
  0
VERTEX
  5
D8
100
AcDbEntity
  8
1
  6
Continuous
 62
     6
 48
0.75
100
AcDbVertex
100
AcDb2dVertex
 10
-128.714498
 20
-370.047666
 30
0.0
 40
0.0
 41
0.0
  0
VERTEX
  5
D9
100
AcDbEntity
  8
1
  6
Continuous
 62
     6
 48
0.75
100
AcDbVertex
100
AcDb2dVertex
 10
-191.214498
 20
-359.330166
 30
0.0
 40
0.0
 41
0.0
  0
VERTEX
  5
DA
100
AcDbEntity
  8
1
  6
Continuous
 62
     6
 48
0.75
100
AcDbVertex
100
AcDb2dVertex
 10
-253.714498
 20
-346.392666
 30
0.0
 40
0.0
 41
0.0
  0
VERTEX
  5
DB
100
AcDbEntity
  8
1
  6
Continuous
 62
     6
 48
0.75
100
AcDbVertex
100
AcDb2dVertex
 10
-316.214498
 20
-332.470166
 30
0.0
 40
0.0
 41
0.0
  0
VERTEX
  5
DC
100
AcDbEntity
  8
1
  6
Continuous
 62
     6
 48
0.75
100
AcDbVertex
100
AcDb2dVertex
 10
-378.714498
 20
-318.917666
 30
0.0
 40
0.0
 41
0.0
  0
VERTEX
  5
DD
100
AcDbEntity
  8
1
  6
Continuous
 62
     6
 48
0.75
100
AcDbVertex
100
AcDb2dVertex
 10
-441.214498
 20
-306.952666
 30
0.0
 40
0.0
 41
0.0
  0
VERTEX
  5
DE
100
AcDbEntity
  8
1
  6
Continuous
 62
     6
 48
0.75
100
AcDbVertex
100
AcDb2dVertex
 10
-503.714498
 20
-299.205166
 30
0.0
 40
0.0
 41
0.0
  0
VERTEX
  5
DF
100
AcDbEntity
  8
1
  6
Continuous
 62
     6
 48
0.75
100
AcDbVertex
100
AcDb2dVertex
 10
-566.214498
 20
-296.370166
 30
0.0
 40
0.0
 41
0.0
  0
VERTEX
  5
E0
100
AcDbEntity
  8
1
  6
Continuous
 62
     6
 48
0.75
100
AcDbVertex
100
AcDb2dVertex
 10
-628.714498
 20
-295.507666
 30
0.0
 40
0.0
 41
0.0
  0
VERTEX
  5
E1
100
AcDbEntity
  8
1
  6
Continuous
 62
     6
 48
0.75
100
AcDbVertex
100
AcDb2dVertex
 10
-691.214498
 20
-295.507666
 30
0.0
 40
0.0
 41
0.0
  0
VERTEX
  5
E2
100
AcDbEntity
  8
1
  6
Continuous
 62
     6
 48
0.75
100
AcDbVertex
100
AcDb2dVertex
 10
-753.714498
 20
-295.507666
 30
0.0
 40
0.0
 41
0.0
  0
VERTEX
  5
E3
100
AcDbEntity
  8
1
  6
Continuous
 62
     6
 48
0.75
100
AcDbVertex
100
AcDb2dVertex
 10
-816.214498
 20
-295.507666
 30
0.0
 40
0.0
 41
0.0
  0
VERTEX
  5
E4
100
AcDbEntity
  8
1
  6
Continuous
 62
     6
 48
0.75
100
AcDbVertex
100
AcDb2dVertex
 10
-878.714498
 20
-295.507666
 30
0.0
 40
0.0
 41
0.0
  0
SEQEND
  5
E5
100
AcDbEntity
  8
0
  0
POLYLINE
  5
E6
100
AcDbEntity
  8
1
  6
Continuous
 62
     6
 48
0.75
100
AcDb2dPolyline
 66
     1
 10
0.0
 20
0.0
 30
0.0
 70
   128
  0
VERTEX
  5
E7
100
AcDbEntity
  8
1
  6
Continuous
 62
     6
 48
0.75
100
AcDbVertex
100
AcDb2dVertex
 10
-69.339498
 20
-394.690166
 30
0.0
 40
0.0
 41
0.0
  0
VERTEX
  5
E8
100
AcDbEntity
  8
1
  6
Continuous
 62
     6
 48
0.75
100
AcDbVertex
100
AcDb2dVertex
 10
-97.466998
 20
-378.972666
 30
0.0
 40
0.0
 41
0.0
  0
VERTEX
  5
E9
100
AcDbEntity
  8
1
  6
Continuous
 62
     6
 48
0.75
100
AcDbVertex
100
AcDb2dVertex
 10
-128.714498
 20
-368.200166
 30
0.0
 40
0.0
 41
0.0
  0
VERTEX
  5
EA
100
AcDbEntity
  8
1
  6
Continuous
 62
     6
 48
0.75
100
AcDbVertex
100
AcDb2dVertex
 10
-191.214498
 20
-355.262666
 30
0.0
 40
0.0
 41
0.0
  0
VERTEX
  5
EB
100
AcDbEntity
  8
1
  6
Continuous
 62
     6
 48
0.75
100
AcDbVertex
100
AcDb2dVertex
 10
-253.714498
 20
-339.247666
 30
0.0
 40
0.0
 41
0.0
  0
VERTEX
  5
EC
100
AcDbEntity
  8
1
  6
Continuous
 62
     6
 48
0.75
100
AcDbVertex
100
AcDb2dVertex
 10
-316.214498
 20
-324.462666
 30
0.0
 40
0.0
 41
0.0
  0
VERTEX
  5
ED
100
AcDbEntity
  8
1
  6
Continuous
 62
     6
 48
0.75
100
AcDbVertex
100
AcDb2dVertex
 10
-378.714498
 20
-310.292666
 30
0.0
 40
0.0
 41
0.0
  0
VERTEX
  5
EE
100
AcDbEntity
  8
1
  6
Continuous
 62
     6
 48
0.75
100
AcDbVertex
100
AcDb2dVertex
 10
-441.214498
 20
-297.820166
 30
0.0
 40
0.0
 41
0.0
  0
VERTEX
  5
EF
100
AcDbEntity
  8
1
  6
Continuous
 62
     6
 48
0.75
100
AcDbVertex
100
AcDb2dVertex
 10
-503.714498
 20
-290.315166
 30
0.0
 40
0.0
 41
0.0
  0
VERTEX
  5
F0
100
AcDbEntity
  8
1
  6
Continuous
 62
     6
 48
0.75
100
AcDbVertex
100
AcDb2dVertex
 10
-566.214498
 20
-288.730166
 30
0.0
 40
0.0
 41
0.0
  0
VERTEX
  5
F1
100
AcDbEntity
  8
1
  6
Continuous
 62
     6
 48
0.75
100
AcDbVertex
100
AcDb2dVertex
 10
-628.714498
 20
-288.422666
 30
0.0
 40
0.0
 41
0.0
  0
VERTEX
  5
F2
100
AcDbEntity
  8
1
  6
Continuous
 62
     6
 48
0.75
100
AcDbVertex
100
AcDb2dVertex
 10
-691.214498
 20
-288.422666
 30
0.0
 40
0.0
 41
0.0
  0
VERTEX
  5
F3
100
AcDbEntity
  8
1
  6
Continuous
 62
     6
 48
0.75
100
AcDbVertex
100
AcDb2dVertex
 10
-753.714498
 20
-288.422666
 30
0.0
 40
0.0
 41
0.0
  0
VERTEX
  5
F4
100
AcDbEntity
  8
1
  6
Continuous
 62
     6
 48
0.75
100
AcDbVertex
100
AcDb2dVertex
 10
-816.214498
 20
-288.422666
 30
0.0
 40
0.0
 41
0.0
  0
VERTEX
  5
F5
100
AcDbEntity
  8
1
  6
Continuous
 62
     6
 48
0.75
100
AcDbVertex
100
AcDb2dVertex
 10
-878.714498
 20
-288.422666
 30
0.0
 40
0.0
 41
0.0
  0
SEQEND
  5
F6
100
AcDbEntity
  8
0
  0
POLYLINE
  5
F7
100
AcDbEntity
  8
1
  6
Continuous
 62
     6
 48
0.75
100
AcDb2dPolyline
 66
     1
 10
0.0
 20
0.0
 30
0.0
 70
   128
  0
VERTEX
  5
F8
100
AcDbEntity
  8
1
  6
Continuous
 62
     6
 48
0.75
100
AcDbVertex
100
AcDb2dVertex
 10
-97.464498
 20
-394.690166
 30
0.0
 40
0.0
 41
0.0
  0
VERTEX
  5
F9
100
AcDbEntity
  8
1
  6
Continuous
 62
     6
 48
0.75
100
AcDbVertex
100
AcDb2dVertex
 10
-97.466998
 20
-394.690166
 30
0.0
 40
0.0
 41
0.0
  0
VERTEX
  5
FA
100
AcDbEntity
  8
1
  6
Continuous
 62
     6
 48
0.75
100
AcDbVertex
100
AcDb2dVertex
 10
-128.714498
 20
-394.690166
 30
0.0
 40
0.0
 41
0.0
  0
VERTEX
  5
FB
100
AcDbEntity
  8
1
  6
Continuous
 62
     6
 48
0.75
100
AcDbVertex
100
AcDb2dVertex
 10
-191.214498
 20
-384.525166
 30
0.0
 40
0.0
 41
0.0
  0
VERTEX
  5
FC
100
AcDbEntity
  8
1
  6
Continuous
 62
     6
 48
0.75
100
AcDbVertex
100
AcDb2dVertex
 10
-253.714498
 20
-363.887666
 30
0.0
 40
0.0
 41
0.0
  0
VERTEX
  5
FD
100
AcDbEntity
  8
1
  6
Continuous
 62
     6
 48
0.75
100
AcDbVertex
100
AcDb2dVertex
 10
-316.214498
 20
-341.077666
 30
0.0
 40
0.0
 41
0.0
  0
VERTEX
  5
FE
100
AcDbEntity
  8
1
  6
Continuous
 62
     6
 48
0.75
100
AcDbVertex
100
AcDb2dVertex
 10
-378.714498
 20
-319.532666
 30
0.0
 40
0.0
 41
0.0
  0
VERTEX
  5
FF
100
AcDbEntity
  8
1
  6
Continuous
 62
     6
 48
0.75
100
AcDbVertex
100
AcDb2dVertex
 10
-441.214498
 20
-302.900166
 30
0.0
 40
0.0
 41
0.0
  0
VERTEX
  5
100
100
AcDbEntity
  8
1
  6
Continuous
 62
     6
 48
0.75
100
AcDbVertex
100
AcDb2dVertex
 10
-503.714498
 20
-293.042666
 30
0.0
 40
0.0
 41
0.0
  0
VERTEX
  5
101
100
AcDbEntity
  8
1
  6
Continuous
 62
     6
 48
0.75
100
AcDbVertex
100
AcDb2dVertex
 10
-566.214498
 20
-291.687666
 30
0.0
 40
0.0
 41
0.0
  0
VERTEX
  5
102
100
AcDbEntity
  8
1
  6
Continuous
 62
     6
 48
0.75
100
AcDbVertex
100
AcDb2dVertex
 10
-628.714498
 20
-292.427666
 30
0.0
 40
0.0
 41
0.0
  0
VERTEX
  5
103
100
AcDbEntity
  8
1
  6
Continuous
 62
     6
 48
0.75
100
AcDbVertex
100
AcDb2dVertex
 10
-691.214498
 20
-296.740166
 30
0.0
 40
0.0
 41
0.0
  0
VERTEX
  5
104
100
AcDbEntity
  8
1
  6
Continuous
 62
     6
 48
0.75
100
AcDbVertex
100
AcDb2dVertex
 10
-753.714498
 20
-302.285166
 30
0.0
 40
0.0
 41
0.0
  0
VERTEX
  5
105
100
AcDbEntity
  8
1
  6
Continuous
 62
     6
 48
0.75
100
AcDbVertex
100
AcDb2dVertex
 10
-816.214498
 20
-307.212666
 30
0.0
 40
0.0
 41
0.0
  0
VERTEX
  5
106
100
AcDbEntity
  8
1
  6
Continuous
 62
     6
 48
0.75
100
AcDbVertex
100
AcDb2dVertex
 10
-878.714498
 20
-311.525166
 30
0.0
 40
0.0
 41
0.0
  0
SEQEND
  5
107
100
AcDbEntity
  8
0
  0
POLYLINE
  5
108
100
AcDbEntity
  8
1
  6
Continuous
 62
     6
 48
0.75
100
AcDb2dPolyline
 66
     1
 10
0.0
 20
0.0
 30
0.0
 70
   128
  0
VERTEX
  5
109
100
AcDbEntity
  8
1
  6
Continuous
 62
     6
 48
0.75
100
AcDbVertex
100
AcDb2dVertex
 10
-97.464498
 20
-394.690166
 30
0.0
 40
0.0
 41
0.0
  0
VERTEX
  5
10A
100
AcDbEntity
  8
1
  6
Continuous
 62
     6
 48
0.75
100
AcDbVertex
100
AcDb2dVertex
 10
-97.466998
 20
-394.690166
 30
0.0
 40
0.0
 41
0.0
  0
VERTEX
  5
10B
100
AcDbEntity
  8
1
  6
Continuous
 62
     6
 48
0.75
100
AcDbVertex
100
AcDb2dVertex
 10
-128.714498
 20
-394.690166
 30
0.0
 40
0.0
 41
0.0
  0
VERTEX
  5
10C
100
AcDbEntity
  8
1
  6
Continuous
 62
     6
 48
0.75
100
AcDbVertex
100
AcDb2dVertex
 10
-191.214498
 20
-394.690166
 30
0.0
 40
0.0
 41
0.0
  0
VERTEX
  5
10D
100
AcDbEntity
  8
1
  6
Continuous
 62
     6
 48
0.75
100
AcDbVertex
100
AcDb2dVertex
 10
-253.714498
 20
-377.132666
 30
0.0
 40
0.0
 41
0.0
  0
VERTEX
  5
10E
100
AcDbEntity
  8
1
  6
Continuous
 62
     6
 48
0.75
100
AcDbVertex
100
AcDb2dVertex
 10
-316.214498
 20
-357.727666
 30
0.0
 40
0.0
 41
0.0
  0
VERTEX
  5
10F
100
AcDbEntity
  8
1
  6
Continuous
 62
     6
 48
0.75
100
AcDbVertex
100
AcDb2dVertex
 10
-378.714498
 20
-337.397666
 30
0.0
 40
0.0
 41
0.0
  0
VERTEX
  5
110
100
AcDbEntity
  8
1
  6
Continuous
 62
     6
 48
0.75
100
AcDbVertex
100
AcDb2dVertex
 10
-441.214498
 20
-324.462666
 30
0.0
 40
0.0
 41
0.0
  0
VERTEX
  5
111
100
AcDbEntity
  8
1
  6
Continuous
 62
     6
 48
0.75
100
AcDbVertex
100
AcDb2dVertex
 10
-503.714498
 20
-317.070166
 30
0.0
 40
0.0
 41
0.0
  0
VERTEX
  5
112
100
AcDbEntity
  8
1
  6
Continuous
 62
     6
 48
0.75
100
AcDbVertex
100
AcDb2dVertex
 10
-566.214498
 20
-313.990166
 30
0.0
 40
0.0
 41
0.0
  0
VERTEX
  5
113
100
AcDbEntity
  8
1
  6
Continuous
 62
     6
 48
0.75
100
AcDbVertex
100
AcDb2dVertex
 10
-628.714498
 20
-313.990166
 30
0.0
 40
0.0
 41
0.0
  0
VERTEX
  5
114
100
AcDbEntity
  8
1
  6
Continuous
 62
     6
 48
0.75
100
AcDbVertex
100
AcDb2dVertex
 10
-691.214498
 20
-318.917666
 30
0.0
 40
0.0
 41
0.0
  0
VERTEX
  5
115
100
AcDbEntity
  8
1
  6
Continuous
 62
     6
 48
0.75
100
AcDbVertex
100
AcDb2dVertex
 10
-753.714498
 20
-324.462666
 30
0.0
 40
0.0
 41
0.0
  0
VERTEX
  5
116
100
AcDbEntity
  8
1
  6
Continuous
 62
     6
 48
0.75
100
AcDbVertex
100
AcDb2dVertex
 10
-816.214498
 20
-329.390166
 30
0.0
 40
0.0
 41
0.0
  0
VERTEX
  5
117
100
AcDbEntity
  8
1
  6
Continuous
 62
     6
 48
0.75
100
AcDbVertex
100
AcDb2dVertex
 10
-878.714498
 20
-331.237666
 30
0.0
 40
0.0
 41
0.0
  0
SEQEND
  5
118
100
AcDbEntity
  8
0
  0
POLYLINE
  5
119
100
AcDbEntity
  8
1
  6
Continuous
 62
     6
 48
0.75
100
AcDb2dPolyline
 66
     1
 10
0.0
 20
0.0
 30
0.0
 70
   128
  0
VERTEX
  5
11A
100
AcDbEntity
  8
1
  6
Continuous
 62
     6
 48
0.75
100
AcDbVertex
100
AcDb2dVertex
 10
-97.464498
 20
-394.690166
 30
0.0
 40
0.0
 41
0.0
  0
VERTEX
  5
11B
100
AcDbEntity
  8
1
  6
Continuous
 62
     6
 48
0.75
100
AcDbVertex
100
AcDb2dVertex
 10
-97.466998
 20
-394.690166
 30
0.0
 40
0.0
 41
0.0
  0
VERTEX
  5
11C
100
AcDbEntity
  8
1
  6
Continuous
 62
     6
 48
0.75
100
AcDbVertex
100
AcDb2dVertex
 10
-128.714498
 20
-394.690166
 30
0.0
 40
0.0
 41
0.0
  0
VERTEX
  5
11D
100
AcDbEntity
  8
1
  6
Continuous
 62
     6
 48
0.75
100
AcDbVertex
100
AcDb2dVertex
 10
-191.214498
 20
-394.690166
 30
0.0
 40
0.0
 41
0.0
  0
VERTEX
  5
11E
100
AcDbEntity
  8
1
  6
Continuous
 62
     6
 48
0.75
100
AcDbVertex
100
AcDb2dVertex
 10
-253.714498
 20
-388.837666
 30
0.0
 40
0.0
 41
0.0
  0
VERTEX
  5
11F
100
AcDbEntity
  8
1
  6
Continuous
 62
     6
 48
0.75
100
AcDbVertex
100
AcDb2dVertex
 10
-316.214498
 20
-372.265166
 30
0.0
 40
0.0
 41
0.0
  0
VERTEX
  5
120
100
AcDbEntity
  8
1
  6
Continuous
 62
     6
 48
0.75
100
AcDbVertex
100
AcDb2dVertex
 10
-378.714498
 20
-355.262666
 30
0.0
 40
0.0
 41
0.0
  0
VERTEX
  5
121
100
AcDbEntity
  8
1
  6
Continuous
 62
     6
 48
0.75
100
AcDbVertex
100
AcDb2dVertex
 10
-441.214498
 20
-346.640166
 30
0.0
 40
0.0
 41
0.0
  0
VERTEX
  5
122
100
AcDbEntity
  8
1
  6
Continuous
 62
     6
 48
0.75
100
AcDbVertex
100
AcDb2dVertex
 10
-503.714498
 20
-341.095166
 30
0.0
 40
0.0
 41
0.0
  0
VERTEX
  5
123
100
AcDbEntity
  8
1
  6
Continuous
 62
     6
 48
0.75
100
AcDbVertex
100
AcDb2dVertex
 10
-566.214498
 20
-339.000166
 30
0.0
 40
0.0
 41
0.0
  0
VERTEX
  5
124
100
AcDbEntity
  8
1
  6
Continuous
 62
     6
 48
0.75
100
AcDbVertex
100
AcDb2dVertex
 10
-628.714498
 20
-339.247666
 30
0.0
 40
0.0
 41
0.0
  0
VERTEX
  5
125
100
AcDbEntity
  8
1
  6
Continuous
 62
     6
 48
0.75
100
AcDbVertex
100
AcDb2dVertex
 10
-691.214498
 20
-342.942666
 30
0.0
 40
0.0
 41
0.0
  0
VERTEX
  5
126
100
AcDbEntity
  8
1
  6
Continuous
 62
     6
 48
0.75
100
AcDbVertex
100
AcDb2dVertex
 10
-753.714498
 20
-347.870166
 30
0.0
 40
0.0
 41
0.0
  0
VERTEX
  5
127
100
AcDbEntity
  8
1
  6
Continuous
 62
     6
 48
0.75
100
AcDbVertex
100
AcDb2dVertex
 10
-816.214498
 20
-350.950166
 30
0.0
 40
0.0
 41
0.0
  0
VERTEX
  5
128
100
AcDbEntity
  8
1
  6
Continuous
 62
     6
 48
0.75
100
AcDbVertex
100
AcDb2dVertex
 10
-878.714498
 20
-352.800166
 30
0.0
 40
0.0
 41
0.0
  0
SEQEND
  5
129
100
AcDbEntity
  8
0
  0
POLYLINE
  5
12A
100
AcDbEntity
  8
1
  6
Continuous
 62
     6
 48
0.75
100
AcDb2dPolyline
 66
     1
 10
0.0
 20
0.0
 30
0.0
 70
   128
  0
VERTEX
  5
12B
100
AcDbEntity
  8
1
  6
Continuous
 62
     6
 48
0.75
100
AcDbVertex
100
AcDb2dVertex
 10
-97.464498
 20
-394.690166
 30
0.0
 40
0.0
 41
0.0
  0
VERTEX
  5
12C
100
AcDbEntity
  8
1
  6
Continuous
 62
     6
 48
0.75
100
AcDbVertex
100
AcDb2dVertex
 10
-97.466998
 20
-394.690166
 30
0.0
 40
0.0
 41
0.0
  0
VERTEX
  5
12D
100
AcDbEntity
  8
1
  6
Continuous
 62
     6
 48
0.75
100
AcDbVertex
100
AcDb2dVertex
 10
-128.714498
 20
-394.690166
 30
0.0
 40
0.0
 41
0.0
  0
VERTEX
  5
12E
100
AcDbEntity
  8
1
  6
Continuous
 62
     6
 48
0.75
100
AcDbVertex
100
AcDb2dVertex
 10
-191.214498
 20
-394.690166
 30
0.0
 40
0.0
 41
0.0
  0
VERTEX
  5
12F
100
AcDbEntity
  8
1
  6
Continuous
 62
     6
 48
0.75
100
AcDbVertex
100
AcDb2dVertex
 10
-253.714498
 20
-394.690166
 30
0.0
 40
0.0
 41
0.0
  0
VERTEX
  5
130
100
AcDbEntity
  8
1
  6
Continuous
 62
     6
 48
0.75
100
AcDbVertex
100
AcDb2dVertex
 10
-316.214498
 20
-387.190166
 30
0.0
 40
0.0
 41
0.0
  0
VERTEX
  5
131
100
AcDbEntity
  8
1
  6
Continuous
 62
     6
 48
0.75
100
AcDbVertex
100
AcDb2dVertex
 10
-378.714498
 20
-374.690166
 30
0.0
 40
0.0
 41
0.0
  0
VERTEX
  5
132
100
AcDbEntity
  8
1
  6
Continuous
 62
     6
 48
0.75
100
AcDbVertex
100
AcDb2dVertex
 10
-441.214498
 20
-369.665166
 30
0.0
 40
0.0
 41
0.0
  0
VERTEX
  5
133
100
AcDbEntity
  8
1
  6
Continuous
 62
     6
 48
0.75
100
AcDbVertex
100
AcDb2dVertex
 10
-503.714498
 20
-367.585166
 30
0.0
 40
0.0
 41
0.0
  0
VERTEX
  5
134
100
AcDbEntity
  8
1
  6
Continuous
 62
     6
 48
0.75
100
AcDbVertex
100
AcDb2dVertex
 10
-566.214498
 20
-366.565166
 30
0.0
 40
0.0
 41
0.0
  0
VERTEX
  5
135
100
AcDbEntity
  8
1
  6
Continuous
 62
     6
 48
0.75
100
AcDbVertex
100
AcDb2dVertex
 10
-628.714498
 20
-366.690166
 30
0.0
 40
0.0
 41
0.0
  0
VERTEX
  5
136
100
AcDbEntity
  8
1
  6
Continuous
 62
     6
 48
0.75
100
AcDbVertex
100
AcDb2dVertex
 10
-691.214498
 20
-368.440166
 30
0.0
 40
0.0
 41
0.0
  0
VERTEX
  5
137
100
AcDbEntity
  8
1
  6
Continuous
 62
     6
 48
0.75
100
AcDbVertex
100
AcDb2dVertex
 10
-753.714498
 20
-371.565166
 30
0.0
 40
0.0
 41
0.0
  0
VERTEX
  5
138
100
AcDbEntity
  8
1
  6
Continuous
 62
     6
 48
0.75
100
AcDbVertex
100
AcDb2dVertex
 10
-816.214498
 20
-373.440166
 30
0.0
 40
0.0
 41
0.0
  0
VERTEX
  5
139
100
AcDbEntity
  8
1
  6
Continuous
 62
     6
 48
0.75
100
AcDbVertex
100
AcDb2dVertex
 10
-878.714498
 20
-374.690166
 30
0.0
 40
0.0
 41
0.0
  0
SEQEND
  5
13A
100
AcDbEntity
  8
0
  0
POLYLINE
  5
13B
100
AcDbEntity
  8
1
  6
Continuous
 62
     6
 48
0.75
100
AcDb2dPolyline
 66
     1
 10
0.0
 20
0.0
 30
0.0
 70
   128
  0
VERTEX
  5
13C
100
AcDbEntity
  8
1
  6
Continuous
 62
     6
 48
0.75
100
AcDbVertex
100
AcDb2dVertex
 10
-97.464498
 20
-394.690166
 30
0.0
 40
0.0
 41
0.0
  0
VERTEX
  5
13D
100
AcDbEntity
  8
1
  6
Continuous
 62
     6
 48
0.75
100
AcDbVertex
100
AcDb2dVertex
 10
-97.466998
 20
-394.690166
 30
0.0
 40
0.0
 41
0.0
  0
VERTEX
  5
13E
100
AcDbEntity
  8
1
  6
Continuous
 62
     6
 48
0.75
100
AcDbVertex
100
AcDb2dVertex
 10
-128.714498
 20
-394.690166
 30
0.0
 40
0.0
 41
0.0
  0
VERTEX
  5
13F
100
AcDbEntity
  8
1
  6
Continuous
 62
     6
 48
0.75
100
AcDbVertex
100
AcDb2dVertex
 10
-191.214498
 20
-394.690166
 30
0.0
 40
0.0
 41
0.0
  0
VERTEX
  5
140
100
AcDbEntity
  8
1
  6
Continuous
 62
     6
 48
0.75
100
AcDbVertex
100
AcDb2dVertex
 10
-253.714498
 20
-394.690166
 30
0.0
 40
0.0
 41
0.0
  0
VERTEX
  5
141
100
AcDbEntity
  8
1
  6
Continuous
 62
     6
 48
0.75
100
AcDbVertex
100
AcDb2dVertex
 10
-316.214498
 20
-394.690166
 30
0.0
 40
0.0
 41
0.0
  0
VERTEX
  5
142
100
AcDbEntity
  8
1
  6
Continuous
 62
     6
 48
0.75
100
AcDbVertex
100
AcDb2dVertex
 10
-378.714498
 20
-394.690166
 30
0.0
 40
0.0
 41
0.0
  0
VERTEX
  5
143
100
AcDbEntity
  8
1
  6
Continuous
 62
     6
 48
0.75
100
AcDbVertex
100
AcDb2dVertex
 10
-441.214498
 20
-394.690166
 30
0.0
 40
0.0
 41
0.0
  0
VERTEX
  5
144
100
AcDbEntity
  8
1
  6
Continuous
 62
     6
 48
0.75
100
AcDbVertex
100
AcDb2dVertex
 10
-503.714498
 20
-394.690166
 30
0.0
 40
0.0
 41
0.0
  0
VERTEX
  5
145
100
AcDbEntity
  8
1
  6
Continuous
 62
     6
 48
0.75
100
AcDbVertex
100
AcDb2dVertex
 10
-566.214498
 20
-394.690166
 30
0.0
 40
0.0
 41
0.0
  0
VERTEX
  5
146
100
AcDbEntity
  8
1
  6
Continuous
 62
     6
 48
0.75
100
AcDbVertex
100
AcDb2dVertex
 10
-628.714498
 20
-394.690166
 30
0.0
 40
0.0
 41
0.0
  0
VERTEX
  5
147
100
AcDbEntity
  8
1
  6
Continuous
 62
     6
 48
0.75
100
AcDbVertex
100
AcDb2dVertex
 10
-691.214498
 20
-394.690166
 30
0.0
 40
0.0
 41
0.0
  0
VERTEX
  5
148
100
AcDbEntity
  8
1
  6
Continuous
 62
     6
 48
0.75
100
AcDbVertex
100
AcDb2dVertex
 10
-753.714498
 20
-394.690166
 30
0.0
 40
0.0
 41
0.0
  0
VERTEX
  5
149
100
AcDbEntity
  8
1
  6
Continuous
 62
     6
 48
0.75
100
AcDbVertex
100
AcDb2dVertex
 10
-816.214498
 20
-394.690166
 30
0.0
 40
0.0
 41
0.0
  0
VERTEX
  5
14A
100
AcDbEntity
  8
1
  6
Continuous
 62
     6
 48
0.75
100
AcDbVertex
100
AcDb2dVertex
 10
-878.714498
 20
-394.690166
 30
0.0
 40
0.0
 41
0.0
  0
SEQEND
  5
14B
100
AcDbEntity
  8
0
  0
POLYLINE
  5
14C
100
AcDbEntity
  8
1
  6
Continuous
 62
     6
 48
0.75
100
AcDb2dPolyline
 66
     1
 10
0.0
 20
0.0
 30
0.0
 70
   128
  0
VERTEX
  5
14D
100
AcDbEntity
  8
1
  6
Continuous
 62
     6
 48
0.75
100
AcDbVertex
100
AcDb2dVertex
 10
-66.214498
 20
-394.690166
 30
0.0
 40
0.0
 41
0.0
  0
VERTEX
  5
14E
100
AcDbEntity
  8
1
  6
Continuous
 62
     6
 48
0.75
100
AcDbVertex
100
AcDb2dVertex
 10
-878.714498
 20
-394.690166
 30
0.0
 40
0.0
 41
0.0
  0
SEQEND
  5
14F
100
AcDbEntity
  8
0
  0
POLYLINE
  5
150
100
AcDbEntity
  8
1
  6
Continuous
 62
     6
 48
0.75
100
AcDb2dPolyline
 66
     1
 10
0.0
 20
0.0
 30
0.0
 70
   128
  0
VERTEX
  5
151
100
AcDbEntity
  8
1
  6
Continuous
 62
     6
 48
0.75
100
AcDbVertex
100
AcDb2dVertex
 10
-66.214498
 20
-394.690166
 30
0.0
 40
0.0
 41
0.0
  0
VERTEX
  5
152
100
AcDbEntity
  8
1
  6
Continuous
 62
     6
 48
0.75
100
AcDbVertex
100
AcDb2dVertex
 10
-97.464498
 20
-394.690166
 30
0.0
 40
0.0
 41
0.0
  0
SEQEND
  5
153
100
AcDbEntity
  8
0
  0
POLYLINE
  5
154
100
AcDbEntity
  8
1
  6
Continuous
 62
     6
 48
0.75
100
AcDb2dPolyline
 66
     1
 10
0.0
 20
0.0
 30
0.0
 70
   128
  0
VERTEX
  5
155
100
AcDbEntity
  8
1
  6
Continuous
 62
     6
 48
0.75
100
AcDbVertex
100
AcDb2dVertex
 10
-97.466998
 20
4.497334
 30
0.0
 40
0.0
 41
0.0
  0
VERTEX
  5
156
100
AcDbEntity
  8
1
  6
Continuous
 62
     6
 48
0.75
100
AcDbVertex
100
AcDb2dVertex
 10
-97.466998
 20
-16.190166
 30
0.0
 40
0.0
 41
0.0
  0
SEQEND
  5
157
100
AcDbEntity
  8
0
  0
POLYLINE
  5
158
100
AcDbEntity
  8
1
  6
Continuous
 62
     6
 48
0.75
100
AcDb2dPolyline
 66
     1
 10
0.0
 20
0.0
 30
0.0
 70
   128
  0
VERTEX
  5
159
100
AcDbEntity
  8
1
  6
Continuous
 62
     6
 48
0.75
100
AcDbVertex
100
AcDb2dVertex
 10
-128.714498
 20
7.309834
 30
0.0
 40
0.0
 41
0.0
  0
VERTEX
  5
15A
100
AcDbEntity
  8
1
  6
Continuous
 62
     6
 48
0.75
100
AcDbVertex
100
AcDb2dVertex
 10
-128.714498
 20
-31.180166
 30
0.0
 40
0.0
 41
0.0
  0
SEQEND
  5
15B
100
AcDbEntity
  8
0
  0
POLYLINE
  5
15C
100
AcDbEntity
  8
1
  6
Continuous
 62
     6
 48
0.75
100
AcDb2dPolyline
 66
     1
 10
0.0
 20
0.0
 30
0.0
 70
   128
  0
VERTEX
  5
15D
100
AcDbEntity
  8
1
  6
Continuous
 62
     6
 48
0.75
100
AcDbVertex
100
AcDb2dVertex
 10
-191.214498
 20
8.574834
 30
0.0
 40
0.0
 41
0.0
  0
VERTEX
  5
15E
100
AcDbEntity
  8
1
  6
Continuous
 62
     6
 48
0.75
100
AcDbVertex
100
AcDb2dVertex
 10
-191.214498
 20
-55.500166
 30
0.0
 40
0.0
 41
0.0
  0
SEQEND
  5
15F
100
AcDbEntity
  8
0
  0
POLYLINE
  5
160
100
AcDbEntity
  8
1
  6
Continuous
 62
     6
 48
0.75
100
AcDb2dPolyline
 66
     1
 10
0.0
 20
0.0
 30
0.0
 70
   128
  0
VERTEX
  5
161
100
AcDbEntity
  8
1
  6
Continuous
 62
     6
 48
0.75
100
AcDbVertex
100
AcDb2dVertex
 10
-253.714498
 20
8.832334
 30
0.0
 40
0.0
 41
0.0
  0
VERTEX
  5
162
100
AcDbEntity
  8
1
  6
Continuous
 62
     6
 48
0.75
100
AcDbVertex
100
AcDb2dVertex
 10
-253.714498
 20
-71.567666
 30
0.0
 40
0.0
 41
0.0
  0
SEQEND
  5
163
100
AcDbEntity
  8
0
  0
POLYLINE
  5
164
100
AcDbEntity
  8
1
  6
Continuous
 62
     6
 48
0.75
100
AcDb2dPolyline
 66
     1
 10
0.0
 20
0.0
 30
0.0
 70
   128
  0
VERTEX
  5
165
100
AcDbEntity
  8
1
  6
Continuous
 62
     6
 48
0.75
100
AcDbVertex
100
AcDb2dVertex
 10
-316.214498
 20
8.262334
 30
0.0
 40
0.0
 41
0.0
  0
VERTEX
  5
166
100
AcDbEntity
  8
1
  6
Continuous
 62
     6
 48
0.75
100
AcDbVertex
100
AcDb2dVertex
 10
-316.214498
 20
-83.005166
 30
0.0
 40
0.0
 41
0.0
  0
SEQEND
  5
167
100
AcDbEntity
  8
0
  0
POLYLINE
  5
168
100
AcDbEntity
  8
1
  6
Continuous
 62
     6
 48
0.75
100
AcDb2dPolyline
 66
     1
 10
0.0
 20
0.0
 30
0.0
 70
   128
  0
VERTEX
  5
169
100
AcDbEntity
  8
1
  6
Continuous
 62
     6
 48
0.75
100
AcDbVertex
100
AcDb2dVertex
 10
-378.714498
 20
7.309834
 30
0.0
 40
0.0
 41
0.0
  0
VERTEX
  5
16A
100
AcDbEntity
  8
1
  6
Continuous
 62
     6
 48
0.75
100
AcDbVertex
100
AcDb2dVertex
 10
-378.714498
 20
-88.440166
 30
0.0
 40
0.0
 41
0.0
  0
SEQEND
  5
16B
100
AcDbEntity
  8
0
  0
POLYLINE
  5
16C
100
AcDbEntity
  8
1
  6
Continuous
 62
     6
 48
0.75
100
AcDb2dPolyline
 66
     1
 10
0.0
 20
0.0
 30
0.0
 70
   128
  0
VERTEX
  5
16D
100
AcDbEntity
  8
1
  6
Continuous
 62
     6
 48
0.75
100
AcDbVertex
100
AcDb2dVertex
 10
-441.214498
 20
6.042334
 30
0.0
 40
0.0
 41
0.0
  0
VERTEX
  5
16E
100
AcDbEntity
  8
1
  6
Continuous
 62
     6
 48
0.75
100
AcDbVertex
100
AcDb2dVertex
 10
-441.214498
 20
-88.440166
 30
0.0
 40
0.0
 41
0.0
  0
SEQEND
  5
16F
100
AcDbEntity
  8
0
  0
POLYLINE
  5
170
100
AcDbEntity
  8
1
  6
Continuous
 62
     6
 48
0.75
100
AcDb2dPolyline
 66
     1
 10
0.0
 20
0.0
 30
0.0
 70
   128
  0
VERTEX
  5
171
100
AcDbEntity
  8
1
  6
Continuous
 62
     6
 48
0.75
100
AcDbVertex
100
AcDb2dVertex
 10
-503.714498
 20
5.407334
 30
0.0
 40
0.0
 41
0.0
  0
VERTEX
  5
172
100
AcDbEntity
  8
1
  6
Continuous
 62
     6
 48
0.75
100
AcDbVertex
100
AcDb2dVertex
 10
-503.714498
 20
-88.440166
 30
0.0
 40
0.0
 41
0.0
  0
SEQEND
  5
173
100
AcDbEntity
  8
0
  0
POLYLINE
  5
174
100
AcDbEntity
  8
1
  6
Continuous
 62
     6
 48
0.75
100
AcDb2dPolyline
 66
     1
 10
0.0
 20
0.0
 30
0.0
 70
   128
  0
VERTEX
  5
175
100
AcDbEntity
  8
1
  6
Continuous
 62
     6
 48
0.75
100
AcDbVertex
100
AcDb2dVertex
 10
-566.214498
 20
5.282334
 30
0.0
 40
0.0
 41
0.0
  0
VERTEX
  5
176
100
AcDbEntity
  8
1
  6
Continuous
 62
     6
 48
0.75
100
AcDbVertex
100
AcDb2dVertex
 10
-566.214498
 20
-88.440166
 30
0.0
 40
0.0
 41
0.0
  0
SEQEND
  5
177
100
AcDbEntity
  8
0
  0
POLYLINE
  5
178
100
AcDbEntity
  8
1
  6
Continuous
 62
     6
 48
0.75
100
AcDb2dPolyline
 66
     1
 10
0.0
 20
0.0
 30
0.0
 70
   128
  0
VERTEX
  5
179
100
AcDbEntity
  8
1
  6
Continuous
 62
     6
 48
0.75
100
AcDbVertex
100
AcDb2dVertex
 10
-628.714498
 20
5.407334
 30
0.0
 40
0.0
 41
0.0
  0
VERTEX
  5
17A
100
AcDbEntity
  8
1
  6
Continuous
 62
     6
 48
0.75
100
AcDbVertex
100
AcDb2dVertex
 10
-628.714498
 20
-88.440166
 30
0.0
 40
0.0
 41
0.0
  0
SEQEND
  5
17B
100
AcDbEntity
  8
0
  0
POLYLINE
  5
17C
100
AcDbEntity
  8
1
  6
Continuous
 62
     6
 48
0.75
100
AcDb2dPolyline
 66
     1
 10
0.0
 20
0.0
 30
0.0
 70
   128
  0
VERTEX
  5
17D
100
AcDbEntity
  8
1
  6
Continuous
 62
     6
 48
0.75
100
AcDbVertex
100
AcDb2dVertex
 10
-691.214498
 20
5.407334
 30
0.0
 40
0.0
 41
0.0
  0
VERTEX
  5
17E
100
AcDbEntity
  8
1
  6
Continuous
 62
     6
 48
0.75
100
AcDbVertex
100
AcDb2dVertex
 10
-691.214498
 20
-88.440166
 30
0.0
 40
0.0
 41
0.0
  0
SEQEND
  5
17F
100
AcDbEntity
  8
0
  0
POLYLINE
  5
180
100
AcDbEntity
  8
1
  6
Continuous
 62
     6
 48
0.75
100
AcDb2dPolyline
 66
     1
 10
0.0
 20
0.0
 30
0.0
 70
   128
  0
VERTEX
  5
181
100
AcDbEntity
  8
1
  6
Continuous
 62
     6
 48
0.75
100
AcDbVertex
100
AcDb2dVertex
 10
-753.714498
 20
5.407334
 30
0.0
 40
0.0
 41
0.0
  0
VERTEX
  5
182
100
AcDbEntity
  8
1
  6
Continuous
 62
     6
 48
0.75
100
AcDbVertex
100
AcDb2dVertex
 10
-753.714498
 20
-88.440166
 30
0.0
 40
0.0
 41
0.0
  0
SEQEND
  5
183
100
AcDbEntity
  8
0
  0
POLYLINE
  5
184
100
AcDbEntity
  8
1
  6
Continuous
 62
     6
 48
0.75
100
AcDb2dPolyline
 66
     1
 10
0.0
 20
0.0
 30
0.0
 70
   128
  0
VERTEX
  5
185
100
AcDbEntity
  8
1
  6
Continuous
 62
     6
 48
0.75
100
AcDbVertex
100
AcDb2dVertex
 10
-816.214498
 20
5.407334
 30
0.0
 40
0.0
 41
0.0
  0
VERTEX
  5
186
100
AcDbEntity
  8
1
  6
Continuous
 62
     6
 48
0.75
100
AcDbVertex
100
AcDb2dVertex
 10
-816.214498
 20
-88.440166
 30
0.0
 40
0.0
 41
0.0
  0
SEQEND
  5
187
100
AcDbEntity
  8
0
  0
POLYLINE
  5
188
100
AcDbEntity
  8
1
  6
Continuous
 62
     6
 48
0.75
100
AcDb2dPolyline
 66
     1
 10
0.0
 20
0.0
 30
0.0
 70
   128
  0
VERTEX
  5
189
100
AcDbEntity
  8
1
  6
Continuous
 62
     6
 48
0.75
100
AcDbVertex
100
AcDb2dVertex
 10
-878.714498
 20
5.407334
 30
0.0
 40
0.0
 41
0.0
  0
VERTEX
  5
18A
100
AcDbEntity
  8
1
  6
Continuous
 62
     6
 48
0.75
100
AcDbVertex
100
AcDb2dVertex
 10
-878.714498
 20
-88.440166
 30
0.0
 40
0.0
 41
0.0
  0
SEQEND
  5
18B
100
AcDbEntity
  8
0
  0
POLYLINE
  5
18C
100
AcDbEntity
  8
1
  6
Continuous
 62
     6
 48
0.75
100
AcDb2dPolyline
 66
     1
 10
0.0
 20
0.0
 30
0.0
 70
   128
  0
VERTEX
  5
18D
100
AcDbEntity
  8
1
  6
Continuous
 62
     6
 48
0.75
100
AcDbVertex
100
AcDb2dVertex
 10
-66.214498
 20
-1.567666
 30
0.0
 40
0.0
 41
0.0
  0
VERTEX
  5
18E
100
AcDbEntity
  8
1
  6
Continuous
 62
     6
 48
0.75
100
AcDbVertex
100
AcDb2dVertex
 10
-97.466998
 20
4.497334
 30
0.0
 40
0.0
 41
0.0
  0
VERTEX
  5
18F
100
AcDbEntity
  8
1
  6
Continuous
 62
     6
 48
0.75
100
AcDbVertex
100
AcDb2dVertex
 10
-128.714498
 20
7.309834
 30
0.0
 40
0.0
 41
0.0
  0
VERTEX
  5
190
100
AcDbEntity
  8
1
  6
Continuous
 62
     6
 48
0.75
100
AcDbVertex
100
AcDb2dVertex
 10
-191.214498
 20
8.574834
 30
0.0
 40
0.0
 41
0.0
  0
VERTEX
  5
191
100
AcDbEntity
  8
1
  6
Continuous
 62
     6
 48
0.75
100
AcDbVertex
100
AcDb2dVertex
 10
-253.714498
 20
8.832334
 30
0.0
 40
0.0
 41
0.0
  0
VERTEX
  5
192
100
AcDbEntity
  8
1
  6
Continuous
 62
     6
 48
0.75
100
AcDbVertex
100
AcDb2dVertex
 10
-316.214498
 20
8.262334
 30
0.0
 40
0.0
 41
0.0
  0
VERTEX
  5
193
100
AcDbEntity
  8
1
  6
Continuous
 62
     6
 48
0.75
100
AcDbVertex
100
AcDb2dVertex
 10
-378.714498
 20
7.309834
 30
0.0
 40
0.0
 41
0.0
  0
VERTEX
  5
194
100
AcDbEntity
  8
1
  6
Continuous
 62
     6
 48
0.75
100
AcDbVertex
100
AcDb2dVertex
 10
-441.214498
 20
6.042334
 30
0.0
 40
0.0
 41
0.0
  0
VERTEX
  5
195
100
AcDbEntity
  8
1
  6
Continuous
 62
     6
 48
0.75
100
AcDbVertex
100
AcDb2dVertex
 10
-503.714498
 20
5.407334
 30
0.0
 40
0.0
 41
0.0
  0
VERTEX
  5
196
100
AcDbEntity
  8
1
  6
Continuous
 62
     6
 48
0.75
100
AcDbVertex
100
AcDb2dVertex
 10
-566.214498
 20
5.282334
 30
0.0
 40
0.0
 41
0.0
  0
VERTEX
  5
197
100
AcDbEntity
  8
1
  6
Continuous
 62
     6
 48
0.75
100
AcDbVertex
100
AcDb2dVertex
 10
-628.714498
 20
5.407334
 30
0.0
 40
0.0
 41
0.0
  0
VERTEX
  5
198
100
AcDbEntity
  8
1
  6
Continuous
 62
     6
 48
0.75
100
AcDbVertex
100
AcDb2dVertex
 10
-691.214498
 20
5.407334
 30
0.0
 40
0.0
 41
0.0
  0
VERTEX
  5
199
100
AcDbEntity
  8
1
  6
Continuous
 62
     6
 48
0.75
100
AcDbVertex
100
AcDb2dVertex
 10
-753.714498
 20
5.407334
 30
0.0
 40
0.0
 41
0.0
  0
VERTEX
  5
19A
100
AcDbEntity
  8
1
  6
Continuous
 62
     6
 48
0.75
100
AcDbVertex
100
AcDb2dVertex
 10
-816.214498
 20
5.407334
 30
0.0
 40
0.0
 41
0.0
  0
VERTEX
  5
19B
100
AcDbEntity
  8
1
  6
Continuous
 62
     6
 48
0.75
100
AcDbVertex
100
AcDb2dVertex
 10
-878.714498
 20
5.407334
 30
0.0
 40
0.0
 41
0.0
  0
SEQEND
  5
19C
100
AcDbEntity
  8
0
  0
POLYLINE
  5
19D
100
AcDbEntity
  8
1
  6
Continuous
 62
     6
 48
0.75
100
AcDb2dPolyline
 66
     1
 10
0.0
 20
0.0
 30
0.0
 70
   128
  0
VERTEX
  5
19E
100
AcDbEntity
  8
1
  6
Continuous
 62
     6
 48
0.75
100
AcDbVertex
100
AcDb2dVertex
 10
-69.339498
 20
-2.835166
 30
0.0
 40
0.0
 41
0.0
  0
VERTEX
  5
19F
100
AcDbEntity
  8
1
  6
Continuous
 62
     6
 48
0.75
100
AcDbVertex
100
AcDb2dVertex
 10
-97.466998
 20
0.152334
 30
0.0
 40
0.0
 41
0.0
  0
VERTEX
  5
1A0
100
AcDbEntity
  8
1
  6
Continuous
 62
     6
 48
0.75
100
AcDbVertex
100
AcDb2dVertex
 10
-128.714498
 20
-2.455166
 30
0.0
 40
0.0
 41
0.0
  0
VERTEX
  5
1A1
100
AcDbEntity
  8
1
  6
Continuous
 62
     6
 48
0.75
100
AcDbVertex
100
AcDb2dVertex
 10
-191.214498
 20
-11.332666
 30
0.0
 40
0.0
 41
0.0
  0
VERTEX
  5
1A2
100
AcDbEntity
  8
1
  6
Continuous
 62
     6
 48
0.75
100
AcDbVertex
100
AcDb2dVertex
 10
-253.714498
 20
-21.860166
 30
0.0
 40
0.0
 41
0.0
  0
VERTEX
  5
1A3
100
AcDbEntity
  8
1
  6
Continuous
 62
     6
 48
0.75
100
AcDbVertex
100
AcDb2dVertex
 10
-316.214498
 20
-31.487666
 30
0.0
 40
0.0
 41
0.0
  0
VERTEX
  5
1A4
100
AcDbEntity
  8
1
  6
Continuous
 62
     6
 48
0.75
100
AcDbVertex
100
AcDb2dVertex
 10
-378.714498
 20
-39.097666
 30
0.0
 40
0.0
 41
0.0
  0
VERTEX
  5
1A5
100
AcDbEntity
  8
1
  6
Continuous
 62
     6
 48
0.75
100
AcDbVertex
100
AcDb2dVertex
 10
-441.214498
 20
-43.105166
 30
0.0
 40
0.0
 41
0.0
  0
VERTEX
  5
1A6
100
AcDbEntity
  8
1
  6
Continuous
 62
     6
 48
0.75
100
AcDbVertex
100
AcDb2dVertex
 10
-503.714498
 20
-44.690166
 30
0.0
 40
0.0
 41
0.0
  0
VERTEX
  5
1A7
100
AcDbEntity
  8
1
  6
Continuous
 62
     6
 48
0.75
100
AcDbVertex
100
AcDb2dVertex
 10
-566.214498
 20
-44.055166
 30
0.0
 40
0.0
 41
0.0
  0
VERTEX
  5
1A8
100
AcDbEntity
  8
1
  6
Continuous
 62
     6
 48
0.75
100
AcDbVertex
100
AcDb2dVertex
 10
-628.714498
 20
-42.660166
 30
0.0
 40
0.0
 41
0.0
  0
VERTEX
  5
1A9
100
AcDbEntity
  8
1
  6
Continuous
 62
     6
 48
0.75
100
AcDbVertex
100
AcDb2dVertex
 10
-691.214498
 20
-40.750166
 30
0.0
 40
0.0
 41
0.0
  0
VERTEX
  5
1AA
100
AcDbEntity
  8
1
  6
Continuous
 62
     6
 48
0.75
100
AcDbVertex
100
AcDb2dVertex
 10
-753.714498
 20
-37.715166
 30
0.0
 40
0.0
 41
0.0
  0
VERTEX
  5
1AB
100
AcDbEntity
  8
1
  6
Continuous
 62
     6
 48
0.75
100
AcDbVertex
100
AcDb2dVertex
 10
-816.214498
 20
-34.542666
 30
0.0
 40
0.0
 41
0.0
  0
VERTEX
  5
1AC
100
AcDbEntity
  8
1
  6
Continuous
 62
     6
 48
0.75
100
AcDbVertex
100
AcDb2dVertex
 10
-878.714498
 20
-30.737666
 30
0.0
 40
0.0
 41
0.0
  0
SEQEND
  5
1AD
100
AcDbEntity
  8
0
  0
POLYLINE
  5
1AE
100
AcDbEntity
  8
1
  6
Continuous
 62
     6
 48
0.75
100
AcDb2dPolyline
 66
     1
 10
0.0
 20
0.0
 30
0.0
 70
   128
  0
VERTEX
  5
1AF
100
AcDbEntity
  8
1
  6
Continuous
 62
     6
 48
0.75
100
AcDbVertex
100
AcDb2dVertex
 10
-97.464498
 20
-16.190166
 30
0.0
 40
0.0
 41
0.0
  0
VERTEX
  5
1B0
100
AcDbEntity
  8
1
  6
Continuous
 62
     6
 48
0.75
100
AcDbVertex
100
AcDb2dVertex
 10
-97.466998
 20
-16.190166
 30
0.0
 40
0.0
 41
0.0
  0
VERTEX
  5
1B1
100
AcDbEntity
  8
1
  6
Continuous
 62
     6
 48
0.75
100
AcDbVertex
100
AcDb2dVertex
 10
-128.714498
 20
-31.180166
 30
0.0
 40
0.0
 41
0.0
  0
VERTEX
  5
1B2
100
AcDbEntity
  8
1
  6
Continuous
 62
     6
 48
0.75
100
AcDbVertex
100
AcDb2dVertex
 10
-191.214498
 20
-44.690166
 30
0.0
 40
0.0
 41
0.0
  0
VERTEX
  5
1B3
100
AcDbEntity
  8
1
  6
Continuous
 62
     6
 48
0.75
100
AcDbVertex
100
AcDb2dVertex
 10
-253.714498
 20
-44.690166
 30
0.0
 40
0.0
 41
0.0
  0
VERTEX
  5
1B4
100
AcDbEntity
  8
1
  6
Continuous
 62
     6
 48
0.75
100
AcDbVertex
100
AcDb2dVertex
 10
-316.214498
 20
-44.690166
 30
0.0
 40
0.0
 41
0.0
  0
VERTEX
  5
1B5
100
AcDbEntity
  8
1
  6
Continuous
 62
     6
 48
0.75
100
AcDbVertex
100
AcDb2dVertex
 10
-378.714498
 20
-44.690166
 30
0.0
 40
0.0
 41
0.0
  0
VERTEX
  5
1B6
100
AcDbEntity
  8
1
  6
Continuous
 62
     6
 48
0.75
100
AcDbVertex
100
AcDb2dVertex
 10
-441.214498
 20
-44.690166
 30
0.0
 40
0.0
 41
0.0
  0
VERTEX
  5
1B7
100
AcDbEntity
  8
1
  6
Continuous
 62
     6
 48
0.75
100
AcDbVertex
100
AcDb2dVertex
 10
-503.714498
 20
-44.690166
 30
0.0
 40
0.0
 41
0.0
  0
VERTEX
  5
1B8
100
AcDbEntity
  8
1
  6
Continuous
 62
     6
 48
0.75
100
AcDbVertex
100
AcDb2dVertex
 10
-566.214498
 20
-44.690166
 30
0.0
 40
0.0
 41
0.0
  0
VERTEX
  5
1B9
100
AcDbEntity
  8
1
  6
Continuous
 62
     6
 48
0.75
100
AcDbVertex
100
AcDb2dVertex
 10
-628.714498
 20
-44.690166
 30
0.0
 40
0.0
 41
0.0
  0
VERTEX
  5
1BA
100
AcDbEntity
  8
1
  6
Continuous
 62
     6
 48
0.75
100
AcDbVertex
100
AcDb2dVertex
 10
-691.214498
 20
-44.690166
 30
0.0
 40
0.0
 41
0.0
  0
VERTEX
  5
1BB
100
AcDbEntity
  8
1
  6
Continuous
 62
     6
 48
0.75
100
AcDbVertex
100
AcDb2dVertex
 10
-753.714498
 20
-44.690166
 30
0.0
 40
0.0
 41
0.0
  0
VERTEX
  5
1BC
100
AcDbEntity
  8
1
  6
Continuous
 62
     6
 48
0.75
100
AcDbVertex
100
AcDb2dVertex
 10
-816.214498
 20
-44.690166
 30
0.0
 40
0.0
 41
0.0
  0
VERTEX
  5
1BD
100
AcDbEntity
  8
1
  6
Continuous
 62
     6
 48
0.75
100
AcDbVertex
100
AcDb2dVertex
 10
-878.714498
 20
-44.690166
 30
0.0
 40
0.0
 41
0.0
  0
SEQEND
  5
1BE
100
AcDbEntity
  8
0
  0
POLYLINE
  5
1BF
100
AcDbEntity
  8
1
  6
Continuous
 62
     6
 48
0.75
100
AcDb2dPolyline
 66
     1
 10
0.0
 20
0.0
 30
0.0
 70
   128
  0
VERTEX
  5
1C0
100
AcDbEntity
  8
1
  6
Continuous
 62
     6
 48
0.75
100
AcDbVertex
100
AcDb2dVertex
 10
-97.464498
 20
-16.190166
 30
0.0
 40
0.0
 41
0.0
  0
VERTEX
  5
1C1
100
AcDbEntity
  8
1
  6
Continuous
 62
     6
 48
0.75
100
AcDbVertex
100
AcDb2dVertex
 10
-97.466998
 20
-16.190166
 30
0.0
 40
0.0
 41
0.0
  0
VERTEX
  5
1C2
100
AcDbEntity
  8
1
  6
Continuous
 62
     6
 48
0.75
100
AcDbVertex
100
AcDb2dVertex
 10
-128.714498
 20
-31.180166
 30
0.0
 40
0.0
 41
0.0
  0
VERTEX
  5
1C3
100
AcDbEntity
  8
1
  6
Continuous
 62
     6
 48
0.75
100
AcDbVertex
100
AcDb2dVertex
 10
-191.214498
 20
-55.500166
 30
0.0
 40
0.0
 41
0.0
  0
VERTEX
  5
1C4
100
AcDbEntity
  8
1
  6
Continuous
 62
     6
 48
0.75
100
AcDbVertex
100
AcDb2dVertex
 10
-253.714498
 20
-55.627666
 30
0.0
 40
0.0
 41
0.0
  0
VERTEX
  5
1C5
100
AcDbEntity
  8
1
  6
Continuous
 62
     6
 48
0.75
100
AcDbVertex
100
AcDb2dVertex
 10
-316.214498
 20
-55.627666
 30
0.0
 40
0.0
 41
0.0
  0
VERTEX
  5
1C6
100
AcDbEntity
  8
1
  6
Continuous
 62
     6
 48
0.75
100
AcDbVertex
100
AcDb2dVertex
 10
-378.714498
 20
-55.627666
 30
0.0
 40
0.0
 41
0.0
  0
VERTEX
  5
1C7
100
AcDbEntity
  8
1
  6
Continuous
 62
     6
 48
0.75
100
AcDbVertex
100
AcDb2dVertex
 10
-441.214498
 20
-55.627666
 30
0.0
 40
0.0
 41
0.0
  0
VERTEX
  5
1C8
100
AcDbEntity
  8
1
  6
Continuous
 62
     6
 48
0.75
100
AcDbVertex
100
AcDb2dVertex
 10
-503.714498
 20
-55.627666
 30
0.0
 40
0.0
 41
0.0
  0
VERTEX
  5
1C9
100
AcDbEntity
  8
1
  6
Continuous
 62
     6
 48
0.75
100
AcDbVertex
100
AcDb2dVertex
 10
-566.214498
 20
-55.627666
 30
0.0
 40
0.0
 41
0.0
  0
VERTEX
  5
1CA
100
AcDbEntity
  8
1
  6
Continuous
 62
     6
 48
0.75
100
AcDbVertex
100
AcDb2dVertex
 10
-628.714498
 20
-55.627666
 30
0.0
 40
0.0
 41
0.0
  0
VERTEX
  5
1CB
100
AcDbEntity
  8
1
  6
Continuous
 62
     6
 48
0.75
100
AcDbVertex
100
AcDb2dVertex
 10
-691.214498
 20
-55.627666
 30
0.0
 40
0.0
 41
0.0
  0
VERTEX
  5
1CC
100
AcDbEntity
  8
1
  6
Continuous
 62
     6
 48
0.75
100
AcDbVertex
100
AcDb2dVertex
 10
-753.714498
 20
-55.627666
 30
0.0
 40
0.0
 41
0.0
  0
VERTEX
  5
1CD
100
AcDbEntity
  8
1
  6
Continuous
 62
     6
 48
0.75
100
AcDbVertex
100
AcDb2dVertex
 10
-816.214498
 20
-55.627666
 30
0.0
 40
0.0
 41
0.0
  0
VERTEX
  5
1CE
100
AcDbEntity
  8
1
  6
Continuous
 62
     6
 48
0.75
100
AcDbVertex
100
AcDb2dVertex
 10
-878.714498
 20
-55.627666
 30
0.0
 40
0.0
 41
0.0
  0
SEQEND
  5
1CF
100
AcDbEntity
  8
0
  0
POLYLINE
  5
1D0
100
AcDbEntity
  8
1
  6
Continuous
 62
     6
 48
0.75
100
AcDb2dPolyline
 66
     1
 10
0.0
 20
0.0
 30
0.0
 70
   128
  0
VERTEX
  5
1D1
100
AcDbEntity
  8
1
  6
Continuous
 62
     6
 48
0.75
100
AcDbVertex
100
AcDb2dVertex
 10
-97.464498
 20
-16.190166
 30
0.0
 40
0.0
 41
0.0
  0
VERTEX
  5
1D2
100
AcDbEntity
  8
1
  6
Continuous
 62
     6
 48
0.75
100
AcDbVertex
100
AcDb2dVertex
 10
-97.466998
 20
-16.190166
 30
0.0
 40
0.0
 41
0.0
  0
VERTEX
  5
1D3
100
AcDbEntity
  8
1
  6
Continuous
 62
     6
 48
0.75
100
AcDbVertex
100
AcDb2dVertex
 10
-128.714498
 20
-31.180166
 30
0.0
 40
0.0
 41
0.0
  0
VERTEX
  5
1D4
100
AcDbEntity
  8
1
  6
Continuous
 62
     6
 48
0.75
100
AcDbVertex
100
AcDb2dVertex
 10
-191.214498
 20
-55.500166
 30
0.0
 40
0.0
 41
0.0
  0
VERTEX
  5
1D5
100
AcDbEntity
  8
1
  6
Continuous
 62
     6
 48
0.75
100
AcDbVertex
100
AcDb2dVertex
 10
-253.714498
 20
-66.565166
 30
0.0
 40
0.0
 41
0.0
  0
VERTEX
  5
1D6
100
AcDbEntity
  8
1
  6
Continuous
 62
     6
 48
0.75
100
AcDbVertex
100
AcDb2dVertex
 10
-316.214498
 20
-66.565166
 30
0.0
 40
0.0
 41
0.0
  0
VERTEX
  5
1D7
100
AcDbEntity
  8
1
  6
Continuous
 62
     6
 48
0.75
100
AcDbVertex
100
AcDb2dVertex
 10
-378.714498
 20
-66.565166
 30
0.0
 40
0.0
 41
0.0
  0
VERTEX
  5
1D8
100
AcDbEntity
  8
1
  6
Continuous
 62
     6
 48
0.75
100
AcDbVertex
100
AcDb2dVertex
 10
-441.214498
 20
-66.565166
 30
0.0
 40
0.0
 41
0.0
  0
VERTEX
  5
1D9
100
AcDbEntity
  8
1
  6
Continuous
 62
     6
 48
0.75
100
AcDbVertex
100
AcDb2dVertex
 10
-503.714498
 20
-66.565166
 30
0.0
 40
0.0
 41
0.0
  0
VERTEX
  5
1DA
100
AcDbEntity
  8
1
  6
Continuous
 62
     6
 48
0.75
100
AcDbVertex
100
AcDb2dVertex
 10
-566.214498
 20
-66.565166
 30
0.0
 40
0.0
 41
0.0
  0
VERTEX
  5
1DB
100
AcDbEntity
  8
1
  6
Continuous
 62
     6
 48
0.75
100
AcDbVertex
100
AcDb2dVertex
 10
-628.714498
 20
-66.565166
 30
0.0
 40
0.0
 41
0.0
  0
VERTEX
  5
1DC
100
AcDbEntity
  8
1
  6
Continuous
 62
     6
 48
0.75
100
AcDbVertex
100
AcDb2dVertex
 10
-691.214498
 20
-66.565166
 30
0.0
 40
0.0
 41
0.0
  0
VERTEX
  5
1DD
100
AcDbEntity
  8
1
  6
Continuous
 62
     6
 48
0.75
100
AcDbVertex
100
AcDb2dVertex
 10
-753.714498
 20
-66.565166
 30
0.0
 40
0.0
 41
0.0
  0
VERTEX
  5
1DE
100
AcDbEntity
  8
1
  6
Continuous
 62
     6
 48
0.75
100
AcDbVertex
100
AcDb2dVertex
 10
-816.214498
 20
-66.565166
 30
0.0
 40
0.0
 41
0.0
  0
VERTEX
  5
1DF
100
AcDbEntity
  8
1
  6
Continuous
 62
     6
 48
0.75
100
AcDbVertex
100
AcDb2dVertex
 10
-878.714498
 20
-66.565166
 30
0.0
 40
0.0
 41
0.0
  0
SEQEND
  5
1E0
100
AcDbEntity
  8
0
  0
POLYLINE
  5
1E1
100
AcDbEntity
  8
1
  6
Continuous
 62
     6
 48
0.75
100
AcDb2dPolyline
 66
     1
 10
0.0
 20
0.0
 30
0.0
 70
   128
  0
VERTEX
  5
1E2
100
AcDbEntity
  8
1
  6
Continuous
 62
     6
 48
0.75
100
AcDbVertex
100
AcDb2dVertex
 10
-97.464498
 20
-16.190166
 30
0.0
 40
0.0
 41
0.0
  0
VERTEX
  5
1E3
100
AcDbEntity
  8
1
  6
Continuous
 62
     6
 48
0.75
100
AcDbVertex
100
AcDb2dVertex
 10
-97.466998
 20
-16.190166
 30
0.0
 40
0.0
 41
0.0
  0
VERTEX
  5
1E4
100
AcDbEntity
  8
1
  6
Continuous
 62
     6
 48
0.75
100
AcDbVertex
100
AcDb2dVertex
 10
-128.714498
 20
-31.180166
 30
0.0
 40
0.0
 41
0.0
  0
VERTEX
  5
1E5
100
AcDbEntity
  8
1
  6
Continuous
 62
     6
 48
0.75
100
AcDbVertex
100
AcDb2dVertex
 10
-191.214498
 20
-55.500166
 30
0.0
 40
0.0
 41
0.0
  0
VERTEX
  5
1E6
100
AcDbEntity
  8
1
  6
Continuous
 62
     6
 48
0.75
100
AcDbVertex
100
AcDb2dVertex
 10
-253.714498
 20
-71.567666
 30
0.0
 40
0.0
 41
0.0
  0
VERTEX
  5
1E7
100
AcDbEntity
  8
1
  6
Continuous
 62
     6
 48
0.75
100
AcDbVertex
100
AcDb2dVertex
 10
-316.214498
 20
-77.502666
 30
0.0
 40
0.0
 41
0.0
  0
VERTEX
  5
1E8
100
AcDbEntity
  8
1
  6
Continuous
 62
     6
 48
0.75
100
AcDbVertex
100
AcDb2dVertex
 10
-378.714498
 20
-77.502666
 30
0.0
 40
0.0
 41
0.0
  0
VERTEX
  5
1E9
100
AcDbEntity
  8
1
  6
Continuous
 62
     6
 48
0.75
100
AcDbVertex
100
AcDb2dVertex
 10
-441.214498
 20
-77.502666
 30
0.0
 40
0.0
 41
0.0
  0
VERTEX
  5
1EA
100
AcDbEntity
  8
1
  6
Continuous
 62
     6
 48
0.75
100
AcDbVertex
100
AcDb2dVertex
 10
-503.714498
 20
-77.502666
 30
0.0
 40
0.0
 41
0.0
  0
VERTEX
  5
1EB
100
AcDbEntity
  8
1
  6
Continuous
 62
     6
 48
0.75
100
AcDbVertex
100
AcDb2dVertex
 10
-566.214498
 20
-77.502666
 30
0.0
 40
0.0
 41
0.0
  0
VERTEX
  5
1EC
100
AcDbEntity
  8
1
  6
Continuous
 62
     6
 48
0.75
100
AcDbVertex
100
AcDb2dVertex
 10
-628.714498
 20
-77.502666
 30
0.0
 40
0.0
 41
0.0
  0
VERTEX
  5
1ED
100
AcDbEntity
  8
1
  6
Continuous
 62
     6
 48
0.75
100
AcDbVertex
100
AcDb2dVertex
 10
-691.214498
 20
-77.502666
 30
0.0
 40
0.0
 41
0.0
  0
VERTEX
  5
1EE
100
AcDbEntity
  8
1
  6
Continuous
 62
     6
 48
0.75
100
AcDbVertex
100
AcDb2dVertex
 10
-753.714498
 20
-77.502666
 30
0.0
 40
0.0
 41
0.0
  0
VERTEX
  5
1EF
100
AcDbEntity
  8
1
  6
Continuous
 62
     6
 48
0.75
100
AcDbVertex
100
AcDb2dVertex
 10
-816.214498
 20
-77.502666
 30
0.0
 40
0.0
 41
0.0
  0
VERTEX
  5
1F0
100
AcDbEntity
  8
1
  6
Continuous
 62
     6
 48
0.75
100
AcDbVertex
100
AcDb2dVertex
 10
-878.714498
 20
-77.502666
 30
0.0
 40
0.0
 41
0.0
  0
SEQEND
  5
1F1
100
AcDbEntity
  8
0
  0
POLYLINE
  5
1F2
100
AcDbEntity
  8
1
  6
Continuous
 62
     6
 48
0.75
100
AcDb2dPolyline
 66
     1
 10
0.0
 20
0.0
 30
0.0
 70
   128
  0
VERTEX
  5
1F3
100
AcDbEntity
  8
1
  6
Continuous
 62
     6
 48
0.75
100
AcDbVertex
100
AcDb2dVertex
 10
-97.464498
 20
-16.190166
 30
0.0
 40
0.0
 41
0.0
  0
VERTEX
  5
1F4
100
AcDbEntity
  8
1
  6
Continuous
 62
     6
 48
0.75
100
AcDbVertex
100
AcDb2dVertex
 10
-97.466998
 20
-16.190166
 30
0.0
 40
0.0
 41
0.0
  0
VERTEX
  5
1F5
100
AcDbEntity
  8
1
  6
Continuous
 62
     6
 48
0.75
100
AcDbVertex
100
AcDb2dVertex
 10
-128.714498
 20
-31.180166
 30
0.0
 40
0.0
 41
0.0
  0
VERTEX
  5
1F6
100
AcDbEntity
  8
1
  6
Continuous
 62
     6
 48
0.75
100
AcDbVertex
100
AcDb2dVertex
 10
-191.214498
 20
-55.500166
 30
0.0
 40
0.0
 41
0.0
  0
VERTEX
  5
1F7
100
AcDbEntity
  8
1
  6
Continuous
 62
     6
 48
0.75
100
AcDbVertex
100
AcDb2dVertex
 10
-253.714498
 20
-71.567666
 30
0.0
 40
0.0
 41
0.0
  0
VERTEX
  5
1F8
100
AcDbEntity
  8
1
  6
Continuous
 62
     6
 48
0.75
100
AcDbVertex
100
AcDb2dVertex
 10
-316.214498
 20
-83.005166
 30
0.0
 40
0.0
 41
0.0
  0
VERTEX
  5
1F9
100
AcDbEntity
  8
1
  6
Continuous
 62
     6
 48
0.75
100
AcDbVertex
100
AcDb2dVertex
 10
-378.714498
 20
-88.440166
 30
0.0
 40
0.0
 41
0.0
  0
VERTEX
  5
1FA
100
AcDbEntity
  8
1
  6
Continuous
 62
     6
 48
0.75
100
AcDbVertex
100
AcDb2dVertex
 10
-441.214498
 20
-88.440166
 30
0.0
 40
0.0
 41
0.0
  0
VERTEX
  5
1FB
100
AcDbEntity
  8
1
  6
Continuous
 62
     6
 48
0.75
100
AcDbVertex
100
AcDb2dVertex
 10
-503.714498
 20
-88.440166
 30
0.0
 40
0.0
 41
0.0
  0
VERTEX
  5
1FC
100
AcDbEntity
  8
1
  6
Continuous
 62
     6
 48
0.75
100
AcDbVertex
100
AcDb2dVertex
 10
-566.214498
 20
-88.440166
 30
0.0
 40
0.0
 41
0.0
  0
VERTEX
  5
1FD
100
AcDbEntity
  8
1
  6
Continuous
 62
     6
 48
0.75
100
AcDbVertex
100
AcDb2dVertex
 10
-628.714498
 20
-88.440166
 30
0.0
 40
0.0
 41
0.0
  0
VERTEX
  5
1FE
100
AcDbEntity
  8
1
  6
Continuous
 62
     6
 48
0.75
100
AcDbVertex
100
AcDb2dVertex
 10
-691.214498
 20
-88.440166
 30
0.0
 40
0.0
 41
0.0
  0
VERTEX
  5
1FF
100
AcDbEntity
  8
1
  6
Continuous
 62
     6
 48
0.75
100
AcDbVertex
100
AcDb2dVertex
 10
-753.714498
 20
-88.440166
 30
0.0
 40
0.0
 41
0.0
  0
VERTEX
  5
200
100
AcDbEntity
  8
1
  6
Continuous
 62
     6
 48
0.75
100
AcDbVertex
100
AcDb2dVertex
 10
-816.214498
 20
-88.440166
 30
0.0
 40
0.0
 41
0.0
  0
VERTEX
  5
201
100
AcDbEntity
  8
1
  6
Continuous
 62
     6
 48
0.75
100
AcDbVertex
100
AcDb2dVertex
 10
-878.714498
 20
-88.440166
 30
0.0
 40
0.0
 41
0.0
  0
SEQEND
  5
202
100
AcDbEntity
  8
0
  0
POLYLINE
  5
203
100
AcDbEntity
  8
1
  6
Continuous
 62
     6
 48
0.75
100
AcDb2dPolyline
 66
     1
 10
0.0
 20
0.0
 30
0.0
 70
   128
  0
VERTEX
  5
204
100
AcDbEntity
  8
1
  6
Continuous
 62
     6
 48
0.75
100
AcDbVertex
100
AcDb2dVertex
 10
-66.214498
 20
-1.567666
 30
0.0
 40
0.0
 41
0.0
  0
VERTEX
  5
205
100
AcDbEntity
  8
1
  6
Continuous
 62
     6
 48
0.75
100
AcDbVertex
100
AcDb2dVertex
 10
-69.339498
 20
-2.835166
 30
0.0
 40
0.0
 41
0.0
  0
VERTEX
  5
206
100
AcDbEntity
  8
1
  6
Continuous
 62
     6
 48
0.75
100
AcDbVertex
100
AcDb2dVertex
 10
-97.464498
 20
-16.190166
 30
0.0
 40
0.0
 41
0.0
  0
SEQEND
  5
207
100
AcDbEntity
  8
0
  0
POLYLINE
  5
208
100
AcDbEntity
  8
1
  6
Continuous
 62
     6
 48
0.75
100
AcDb2dPolyline
 66
     1
 10
0.0
 20
0.0
 30
0.0
 70
   128
  0
VERTEX
  5
209
100
AcDbEntity
  8
1
  6
Continuous
 62
     6
 48
0.75
100
AcDbVertex
100
AcDb2dVertex
 10
-1128.714498
 20
-1.567666
 30
0.0
 40
0.0
 41
0.0
  0
VERTEX
  5
20A
100
AcDbEntity
  8
1
  6
Continuous
 62
     6
 48
0.75
100
AcDbVertex
100
AcDb2dVertex
 10
-1113.279498
 20
4.497334
 30
0.0
 40
0.0
 41
0.0
  0
VERTEX
  5
20B
100
AcDbEntity
  8
1
  6
Continuous
 62
     6
 48
0.75
100
AcDbVertex
100
AcDb2dVertex
 10
-1104.071998
 20
7.309834
 30
0.0
 40
0.0
 41
0.0
  0
VERTEX
  5
20C
100
AcDbEntity
  8
1
  6
Continuous
 62
     6
 48
0.75
100
AcDbVertex
100
AcDb2dVertex
 10
-1093.354498
 20
8.574834
 30
0.0
 40
0.0
 41
0.0
  0
VERTEX
  5
20D
100
AcDbEntity
  8
1
  6
Continuous
 62
     6
 48
0.75
100
AcDbVertex
100
AcDb2dVertex
 10
-1080.416998
 20
8.832334
 30
0.0
 40
0.0
 41
0.0
  0
VERTEX
  5
20E
100
AcDbEntity
  8
1
  6
Continuous
 62
     6
 48
0.75
100
AcDbVertex
100
AcDb2dVertex
 10
-1066.494498
 20
8.262334
 30
0.0
 40
0.0
 41
0.0
  0
VERTEX
  5
20F
100
AcDbEntity
  8
1
  6
Continuous
 62
     6
 48
0.75
100
AcDbVertex
100
AcDb2dVertex
 10
-1052.941998
 20
7.309834
 30
0.0
 40
0.0
 41
0.0
  0
VERTEX
  5
210
100
AcDbEntity
  8
1
  6
Continuous
 62
     6
 48
0.75
100
AcDbVertex
100
AcDb2dVertex
 10
-1040.976998
 20
6.042334
 30
0.0
 40
0.0
 41
0.0
  0
VERTEX
  5
211
100
AcDbEntity
  8
1
  6
Continuous
 62
     6
 48
0.75
100
AcDbVertex
100
AcDb2dVertex
 10
-1033.229498
 20
5.407334
 30
0.0
 40
0.0
 41
0.0
  0
VERTEX
  5
212
100
AcDbEntity
  8
1
  6
Continuous
 62
     6
 48
0.75
100
AcDbVertex
100
AcDb2dVertex
 10
-1030.394498
 20
5.282334
 30
0.0
 40
0.0
 41
0.0
  0
VERTEX
  5
213
100
AcDbEntity
  8
1
  6
Continuous
 62
     6
 48
0.75
100
AcDbVertex
100
AcDb2dVertex
 10
-1029.531998
 20
5.407334
 30
0.0
 40
0.0
 41
0.0
  0
SEQEND
  5
214
100
AcDbEntity
  8
0
  0
POLYLINE
  5
215
100
AcDbEntity
  8
1
  6
Continuous
 62
     6
 48
0.75
100
AcDb2dPolyline
 66
     1
 10
0.0
 20
0.0
 30
0.0
 70
   128
  0
VERTEX
  5
216
100
AcDbEntity
  8
1
  6
Continuous
 62
     6
 48
0.75
100
AcDbVertex
100
AcDb2dVertex
 10
-1128.714498
 20
-1.567666
 30
0.0
 40
0.0
 41
0.0
  0
VERTEX
  5
217
100
AcDbEntity
  8
1
  6
Continuous
 62
     6
 48
0.75
100
AcDbVertex
100
AcDb2dVertex
 10
-1144.149498
 20
4.497334
 30
0.0
 40
0.0
 41
0.0
  0
VERTEX
  5
218
100
AcDbEntity
  8
1
  6
Continuous
 62
     6
 48
0.75
100
AcDbVertex
100
AcDb2dVertex
 10
-1153.356998
 20
7.309834
 30
0.0
 40
0.0
 41
0.0
  0
VERTEX
  5
219
100
AcDbEntity
  8
1
  6
Continuous
 62
     6
 48
0.75
100
AcDbVertex
100
AcDb2dVertex
 10
-1164.074498
 20
8.574834
 30
0.0
 40
0.0
 41
0.0
  0
VERTEX
  5
21A
100
AcDbEntity
  8
1
  6
Continuous
 62
     6
 48
0.75
100
AcDbVertex
100
AcDb2dVertex
 10
-1177.011998
 20
8.832334
 30
0.0
 40
0.0
 41
0.0
  0
VERTEX
  5
21B
100
AcDbEntity
  8
1
  6
Continuous
 62
     6
 48
0.75
100
AcDbVertex
100
AcDb2dVertex
 10
-1190.934498
 20
8.262334
 30
0.0
 40
0.0
 41
0.0
  0
VERTEX
  5
21C
100
AcDbEntity
  8
1
  6
Continuous
 62
     6
 48
0.75
100
AcDbVertex
100
AcDb2dVertex
 10
-1204.486998
 20
7.309834
 30
0.0
 40
0.0
 41
0.0
  0
VERTEX
  5
21D
100
AcDbEntity
  8
1
  6
Continuous
 62
     6
 48
0.75
100
AcDbVertex
100
AcDb2dVertex
 10
-1216.451998
 20
6.042334
 30
0.0
 40
0.0
 41
0.0
  0
VERTEX
  5
21E
100
AcDbEntity
  8
1
  6
Continuous
 62
     6
 48
0.75
100
AcDbVertex
100
AcDb2dVertex
 10
-1224.199498
 20
5.407334
 30
0.0
 40
0.0
 41
0.0
  0
VERTEX
  5
21F
100
AcDbEntity
  8
1
  6
Continuous
 62
     6
 48
0.75
100
AcDbVertex
100
AcDb2dVertex
 10
-1227.034498
 20
5.282334
 30
0.0
 40
0.0
 41
0.0
  0
VERTEX
  5
220
100
AcDbEntity
  8
1
  6
Continuous
 62
     6
 48
0.75
100
AcDbVertex
100
AcDb2dVertex
 10
-1227.896998
 20
5.407334
 30
0.0
 40
0.0
 41
0.0
  0
SEQEND
  5
221
100
AcDbEntity
  8
0
  0
POLYLINE
  5
222
100
AcDbEntity
  8
1
  6
Continuous
 62
     6
 48
0.75
100
AcDb2dPolyline
 66
     1
 10
0.0
 20
0.0
 30
0.0
 70
   128
  0
VERTEX
  5
223
100
AcDbEntity
  8
1
  6
Continuous
 62
     6
 48
0.75
100
AcDbVertex
100
AcDb2dVertex
 10
-1128.714498
 20
-2.835166
 30
0.0
 40
0.0
 41
0.0
  0
VERTEX
  5
224
100
AcDbEntity
  8
1
  6
Continuous
 62
     6
 48
0.75
100
AcDbVertex
100
AcDb2dVertex
 10
-1112.996998
 20
0.152334
 30
0.0
 40
0.0
 41
0.0
  0
VERTEX
  5
225
100
AcDbEntity
  8
1
  6
Continuous
 62
     6
 48
0.75
100
AcDbVertex
100
AcDb2dVertex
 10
-1102.224498
 20
-2.455166
 30
0.0
 40
0.0
 41
0.0
  0
VERTEX
  5
226
100
AcDbEntity
  8
1
  6
Continuous
 62
     6
 48
0.75
100
AcDbVertex
100
AcDb2dVertex
 10
-1089.286998
 20
-11.332666
 30
0.0
 40
0.0
 41
0.0
  0
VERTEX
  5
227
100
AcDbEntity
  8
1
  6
Continuous
 62
     6
 48
0.75
100
AcDbVertex
100
AcDb2dVertex
 10
-1073.271998
 20
-21.860166
 30
0.0
 40
0.0
 41
0.0
  0
VERTEX
  5
228
100
AcDbEntity
  8
1
  6
Continuous
 62
     6
 48
0.75
100
AcDbVertex
100
AcDb2dVertex
 10
-1058.486998
 20
-31.487666
 30
0.0
 40
0.0
 41
0.0
  0
VERTEX
  5
229
100
AcDbEntity
  8
1
  6
Continuous
 62
     6
 48
0.75
100
AcDbVertex
100
AcDb2dVertex
 10
-1044.316998
 20
-39.097666
 30
0.0
 40
0.0
 41
0.0
  0
VERTEX
  5
22A
100
AcDbEntity
  8
1
  6
Continuous
 62
     6
 48
0.75
100
AcDbVertex
100
AcDb2dVertex
 10
-1031.844498
 20
-43.105166
 30
0.0
 40
0.0
 41
0.0
  0
VERTEX
  5
22B
100
AcDbEntity
  8
1
  6
Continuous
 62
     6
 48
0.75
100
AcDbVertex
100
AcDb2dVertex
 10
-1024.339498
 20
-44.690166
 30
0.0
 40
0.0
 41
0.0
  0
VERTEX
  5
22C
100
AcDbEntity
  8
1
  6
Continuous
 62
     6
 48
0.75
100
AcDbVertex
100
AcDb2dVertex
 10
-1022.754498
 20
-44.055166
 30
0.0
 40
0.0
 41
0.0
  0
VERTEX
  5
22D
100
AcDbEntity
  8
1
  6
Continuous
 62
     6
 48
0.75
100
AcDbVertex
100
AcDb2dVertex
 10
-1022.446998
 20
-42.660166
 30
0.0
 40
0.0
 41
0.0
  0
VERTEX
  5
22E
100
AcDbEntity
  8
1
  6
Continuous
 62
     6
 48
0.75
100
AcDbVertex
100
AcDb2dVertex
 10
-1022.446998
 20
-40.750166
 30
0.0
 40
0.0
 41
0.0
  0
VERTEX
  5
22F
100
AcDbEntity
  8
1
  6
Continuous
 62
     6
 48
0.75
100
AcDbVertex
100
AcDb2dVertex
 10
-1022.446998
 20
-37.715166
 30
0.0
 40
0.0
 41
0.0
  0
VERTEX
  5
230
100
AcDbEntity
  8
1
  6
Continuous
 62
     6
 48
0.75
100
AcDbVertex
100
AcDb2dVertex
 10
-1022.446998
 20
-34.542666
 30
0.0
 40
0.0
 41
0.0
  0
VERTEX
  5
231
100
AcDbEntity
  8
1
  6
Continuous
 62
     6
 48
0.75
100
AcDbVertex
100
AcDb2dVertex
 10
-1022.446998
 20
-30.737666
 30
0.0
 40
0.0
 41
0.0
  0
SEQEND
  5
232
100
AcDbEntity
  8
0
  0
POLYLINE
  5
233
100
AcDbEntity
  8
1
  6
Continuous
 62
     6
 48
0.75
100
AcDb2dPolyline
 66
     1
 10
0.0
 20
0.0
 30
0.0
 70
   128
  0
VERTEX
  5
234
100
AcDbEntity
  8
1
  6
Continuous
 62
     6
 48
0.75
100
AcDbVertex
100
AcDb2dVertex
 10
-1128.714498
 20
-2.835166
 30
0.0
 40
0.0
 41
0.0
  0
VERTEX
  5
235
100
AcDbEntity
  8
1
  6
Continuous
 62
     6
 48
0.75
100
AcDbVertex
100
AcDb2dVertex
 10
-1144.431998
 20
0.152334
 30
0.0
 40
0.0
 41
0.0
  0
VERTEX
  5
236
100
AcDbEntity
  8
1
  6
Continuous
 62
     6
 48
0.75
100
AcDbVertex
100
AcDb2dVertex
 10
-1155.204498
 20
-2.455166
 30
0.0
 40
0.0
 41
0.0
  0
VERTEX
  5
237
100
AcDbEntity
  8
1
  6
Continuous
 62
     6
 48
0.75
100
AcDbVertex
100
AcDb2dVertex
 10
-1168.141998
 20
-11.332666
 30
0.0
 40
0.0
 41
0.0
  0
VERTEX
  5
238
100
AcDbEntity
  8
1
  6
Continuous
 62
     6
 48
0.75
100
AcDbVertex
100
AcDb2dVertex
 10
-1184.156998
 20
-21.860166
 30
0.0
 40
0.0
 41
0.0
  0
VERTEX
  5
239
100
AcDbEntity
  8
1
  6
Continuous
 62
     6
 48
0.75
100
AcDbVertex
100
AcDb2dVertex
 10
-1198.941998
 20
-31.487666
 30
0.0
 40
0.0
 41
0.0
  0
VERTEX
  5
23A
100
AcDbEntity
  8
1
  6
Continuous
 62
     6
 48
0.75
100
AcDbVertex
100
AcDb2dVertex
 10
-1213.111998
 20
-39.097666
 30
0.0
 40
0.0
 41
0.0
  0
VERTEX
  5
23B
100
AcDbEntity
  8
1
  6
Continuous
 62
     6
 48
0.75
100
AcDbVertex
100
AcDb2dVertex
 10
-1225.584498
 20
-43.105166
 30
0.0
 40
0.0
 41
0.0
  0
VERTEX
  5
23C
100
AcDbEntity
  8
1
  6
Continuous
 62
     6
 48
0.75
100
AcDbVertex
100
AcDb2dVertex
 10
-1233.089498
 20
-44.690166
 30
0.0
 40
0.0
 41
0.0
  0
VERTEX
  5
23D
100
AcDbEntity
  8
1
  6
Continuous
 62
     6
 48
0.75
100
AcDbVertex
100
AcDb2dVertex
 10
-1234.674498
 20
-44.055166
 30
0.0
 40
0.0
 41
0.0
  0
VERTEX
  5
23E
100
AcDbEntity
  8
1
  6
Continuous
 62
     6
 48
0.75
100
AcDbVertex
100
AcDb2dVertex
 10
-1234.981998
 20
-42.660166
 30
0.0
 40
0.0
 41
0.0
  0
VERTEX
  5
23F
100
AcDbEntity
  8
1
  6
Continuous
 62
     6
 48
0.75
100
AcDbVertex
100
AcDb2dVertex
 10
-1234.981998
 20
-40.750166
 30
0.0
 40
0.0
 41
0.0
  0
VERTEX
  5
240
100
AcDbEntity
  8
1
  6
Continuous
 62
     6
 48
0.75
100
AcDbVertex
100
AcDb2dVertex
 10
-1234.981998
 20
-37.715166
 30
0.0
 40
0.0
 41
0.0
  0
VERTEX
  5
241
100
AcDbEntity
  8
1
  6
Continuous
 62
     6
 48
0.75
100
AcDbVertex
100
AcDb2dVertex
 10
-1234.981998
 20
-34.542666
 30
0.0
 40
0.0
 41
0.0
  0
VERTEX
  5
242
100
AcDbEntity
  8
1
  6
Continuous
 62
     6
 48
0.75
100
AcDbVertex
100
AcDb2dVertex
 10
-1234.981998
 20
-30.737666
 30
0.0
 40
0.0
 41
0.0
  0
SEQEND
  5
243
100
AcDbEntity
  8
0
  0
POLYLINE
  5
244
100
AcDbEntity
  8
1
  6
Continuous
 62
     6
 48
0.75
100
AcDb2dPolyline
 66
     1
 10
0.0
 20
0.0
 30
0.0
 70
   128
  0
VERTEX
  5
245
100
AcDbEntity
  8
1
  6
Continuous
 62
     6
 48
0.75
100
AcDbVertex
100
AcDb2dVertex
 10
-1128.714498
 20
-16.190166
 30
0.0
 40
0.0
 41
0.0
  0
VERTEX
  5
246
100
AcDbEntity
  8
1
  6
Continuous
 62
     6
 48
0.75
100
AcDbVertex
100
AcDb2dVertex
 10
-1128.714498
 20
-31.180166
 30
0.0
 40
0.0
 41
0.0
  0
VERTEX
  5
247
100
AcDbEntity
  8
1
  6
Continuous
 62
     6
 48
0.75
100
AcDbVertex
100
AcDb2dVertex
 10
-1118.549498
 20
-44.690166
 30
0.0
 40
0.0
 41
0.0
  0
VERTEX
  5
248
100
AcDbEntity
  8
1
  6
Continuous
 62
     6
 48
0.75
100
AcDbVertex
100
AcDb2dVertex
 10
-1097.911998
 20
-44.690166
 30
0.0
 40
0.0
 41
0.0
  0
VERTEX
  5
249
100
AcDbEntity
  8
1
  6
Continuous
 62
     6
 48
0.75
100
AcDbVertex
100
AcDb2dVertex
 10
-1075.101998
 20
-44.690166
 30
0.0
 40
0.0
 41
0.0
  0
VERTEX
  5
24A
100
AcDbEntity
  8
1
  6
Continuous
 62
     6
 48
0.75
100
AcDbVertex
100
AcDb2dVertex
 10
-1053.556998
 20
-44.690166
 30
0.0
 40
0.0
 41
0.0
  0
VERTEX
  5
24B
100
AcDbEntity
  8
1
  6
Continuous
 62
     6
 48
0.75
100
AcDbVertex
100
AcDb2dVertex
 10
-1036.924498
 20
-44.690166
 30
0.0
 40
0.0
 41
0.0
  0
VERTEX
  5
24C
100
AcDbEntity
  8
1
  6
Continuous
 62
     6
 48
0.75
100
AcDbVertex
100
AcDb2dVertex
 10
-1027.066998
 20
-44.690166
 30
0.0
 40
0.0
 41
0.0
  0
VERTEX
  5
24D
100
AcDbEntity
  8
1
  6
Continuous
 62
     6
 48
0.75
100
AcDbVertex
100
AcDb2dVertex
 10
-1025.711998
 20
-44.690166
 30
0.0
 40
0.0
 41
0.0
  0
VERTEX
  5
24E
100
AcDbEntity
  8
1
  6
Continuous
 62
     6
 48
0.75
100
AcDbVertex
100
AcDb2dVertex
 10
-1026.451998
 20
-44.690166
 30
0.0
 40
0.0
 41
0.0
  0
VERTEX
  5
24F
100
AcDbEntity
  8
1
  6
Continuous
 62
     6
 48
0.75
100
AcDbVertex
100
AcDb2dVertex
 10
-1030.764498
 20
-44.690166
 30
0.0
 40
0.0
 41
0.0
  0
VERTEX
  5
250
100
AcDbEntity
  8
1
  6
Continuous
 62
     6
 48
0.75
100
AcDbVertex
100
AcDb2dVertex
 10
-1036.309498
 20
-44.690166
 30
0.0
 40
0.0
 41
0.0
  0
VERTEX
  5
251
100
AcDbEntity
  8
1
  6
Continuous
 62
     6
 48
0.75
100
AcDbVertex
100
AcDb2dVertex
 10
-1041.236998
 20
-44.690166
 30
0.0
 40
0.0
 41
0.0
  0
VERTEX
  5
252
100
AcDbEntity
  8
1
  6
Continuous
 62
     6
 48
0.75
100
AcDbVertex
100
AcDb2dVertex
 10
-1045.549498
 20
-44.690166
 30
0.0
 40
0.0
 41
0.0
  0
SEQEND
  5
253
100
AcDbEntity
  8
0
  0
POLYLINE
  5
254
100
AcDbEntity
  8
1
  6
Continuous
 62
     6
 48
0.75
100
AcDb2dPolyline
 66
     1
 10
0.0
 20
0.0
 30
0.0
 70
   128
  0
VERTEX
  5
255
100
AcDbEntity
  8
1
  6
Continuous
 62
     6
 48
0.75
100
AcDbVertex
100
AcDb2dVertex
 10
-1128.714498
 20
-16.190166
 30
0.0
 40
0.0
 41
0.0
  0
VERTEX
  5
256
100
AcDbEntity
  8
1
  6
Continuous
 62
     6
 48
0.75
100
AcDbVertex
100
AcDb2dVertex
 10
-1128.714498
 20
-31.180166
 30
0.0
 40
0.0
 41
0.0
  0
VERTEX
  5
257
100
AcDbEntity
  8
1
  6
Continuous
 62
     6
 48
0.75
100
AcDbVertex
100
AcDb2dVertex
 10
-1138.879498
 20
-44.690166
 30
0.0
 40
0.0
 41
0.0
  0
VERTEX
  5
258
100
AcDbEntity
  8
1
  6
Continuous
 62
     6
 48
0.75
100
AcDbVertex
100
AcDb2dVertex
 10
-1159.516998
 20
-44.690166
 30
0.0
 40
0.0
 41
0.0
  0
VERTEX
  5
259
100
AcDbEntity
  8
1
  6
Continuous
 62
     6
 48
0.75
100
AcDbVertex
100
AcDb2dVertex
 10
-1182.326998
 20
-44.690166
 30
0.0
 40
0.0
 41
0.0
  0
VERTEX
  5
25A
100
AcDbEntity
  8
1
  6
Continuous
 62
     6
 48
0.75
100
AcDbVertex
100
AcDb2dVertex
 10
-1203.871998
 20
-44.690166
 30
0.0
 40
0.0
 41
0.0
  0
VERTEX
  5
25B
100
AcDbEntity
  8
1
  6
Continuous
 62
     6
 48
0.75
100
AcDbVertex
100
AcDb2dVertex
 10
-1220.504498
 20
-44.690166
 30
0.0
 40
0.0
 41
0.0
  0
VERTEX
  5
25C
100
AcDbEntity
  8
1
  6
Continuous
 62
     6
 48
0.75
100
AcDbVertex
100
AcDb2dVertex
 10
-1230.361998
 20
-44.690166
 30
0.0
 40
0.0
 41
0.0
  0
VERTEX
  5
25D
100
AcDbEntity
  8
1
  6
Continuous
 62
     6
 48
0.75
100
AcDbVertex
100
AcDb2dVertex
 10
-1231.716998
 20
-44.690166
 30
0.0
 40
0.0
 41
0.0
  0
VERTEX
  5
25E
100
AcDbEntity
  8
1
  6
Continuous
 62
     6
 48
0.75
100
AcDbVertex
100
AcDb2dVertex
 10
-1230.976998
 20
-44.690166
 30
0.0
 40
0.0
 41
0.0
  0
VERTEX
  5
25F
100
AcDbEntity
  8
1
  6
Continuous
 62
     6
 48
0.75
100
AcDbVertex
100
AcDb2dVertex
 10
-1226.664498
 20
-44.690166
 30
0.0
 40
0.0
 41
0.0
  0
VERTEX
  5
260
100
AcDbEntity
  8
1
  6
Continuous
 62
     6
 48
0.75
100
AcDbVertex
100
AcDb2dVertex
 10
-1221.119498
 20
-44.690166
 30
0.0
 40
0.0
 41
0.0
  0
VERTEX
  5
261
100
AcDbEntity
  8
1
  6
Continuous
 62
     6
 48
0.75
100
AcDbVertex
100
AcDb2dVertex
 10
-1216.191998
 20
-44.690166
 30
0.0
 40
0.0
 41
0.0
  0
VERTEX
  5
262
100
AcDbEntity
  8
1
  6
Continuous
 62
     6
 48
0.75
100
AcDbVertex
100
AcDb2dVertex
 10
-1211.879498
 20
-44.690166
 30
0.0
 40
0.0
 41
0.0
  0
SEQEND
  5
263
100
AcDbEntity
  8
0
  0
POLYLINE
  5
264
100
AcDbEntity
  8
1
  6
Continuous
 62
     6
 48
0.75
100
AcDb2dPolyline
 66
     1
 10
0.0
 20
0.0
 30
0.0
 70
   128
  0
VERTEX
  5
265
100
AcDbEntity
  8
1
  6
Continuous
 62
     6
 48
0.75
100
AcDbVertex
100
AcDb2dVertex
 10
-1128.714498
 20
-16.190166
 30
0.0
 40
0.0
 41
0.0
  0
VERTEX
  5
266
100
AcDbEntity
  8
1
  6
Continuous
 62
     6
 48
0.75
100
AcDbVertex
100
AcDb2dVertex
 10
-1128.714498
 20
-31.180166
 30
0.0
 40
0.0
 41
0.0
  0
VERTEX
  5
267
100
AcDbEntity
  8
1
  6
Continuous
 62
     6
 48
0.75
100
AcDbVertex
100
AcDb2dVertex
 10
-1128.714498
 20
-55.500166
 30
0.0
 40
0.0
 41
0.0
  0
VERTEX
  5
268
100
AcDbEntity
  8
1
  6
Continuous
 62
     6
 48
0.75
100
AcDbVertex
100
AcDb2dVertex
 10
-1111.156998
 20
-55.627666
 30
0.0
 40
0.0
 41
0.0
  0
VERTEX
  5
269
100
AcDbEntity
  8
1
  6
Continuous
 62
     6
 48
0.75
100
AcDbVertex
100
AcDb2dVertex
 10
-1091.751998
 20
-55.627666
 30
0.0
 40
0.0
 41
0.0
  0
VERTEX
  5
26A
100
AcDbEntity
  8
1
  6
Continuous
 62
     6
 48
0.75
100
AcDbVertex
100
AcDb2dVertex
 10
-1071.421998
 20
-55.627666
 30
0.0
 40
0.0
 41
0.0
  0
VERTEX
  5
26B
100
AcDbEntity
  8
1
  6
Continuous
 62
     6
 48
0.75
100
AcDbVertex
100
AcDb2dVertex
 10
-1058.486998
 20
-55.627666
 30
0.0
 40
0.0
 41
0.0
  0
VERTEX
  5
26C
100
AcDbEntity
  8
1
  6
Continuous
 62
     6
 48
0.75
100
AcDbVertex
100
AcDb2dVertex
 10
-1051.094498
 20
-55.627666
 30
0.0
 40
0.0
 41
0.0
  0
VERTEX
  5
26D
100
AcDbEntity
  8
1
  6
Continuous
 62
     6
 48
0.75
100
AcDbVertex
100
AcDb2dVertex
 10
-1048.014498
 20
-55.627666
 30
0.0
 40
0.0
 41
0.0
  0
VERTEX
  5
26E
100
AcDbEntity
  8
1
  6
Continuous
 62
     6
 48
0.75
100
AcDbVertex
100
AcDb2dVertex
 10
-1052.941998
 20
-55.627666
 30
0.0
 40
0.0
 41
0.0
  0
VERTEX
  5
26F
100
AcDbEntity
  8
1
  6
Continuous
 62
     6
 48
0.75
100
AcDbVertex
100
AcDb2dVertex
 10
-1058.486998
 20
-55.627666
 30
0.0
 40
0.0
 41
0.0
  0
VERTEX
  5
270
100
AcDbEntity
  8
1
  6
Continuous
 62
     6
 48
0.75
100
AcDbVertex
100
AcDb2dVertex
 10
-1063.414498
 20
-55.627666
 30
0.0
 40
0.0
 41
0.0
  0
VERTEX
  5
271
100
AcDbEntity
  8
1
  6
Continuous
 62
     6
 48
0.75
100
AcDbVertex
100
AcDb2dVertex
 10
-1065.261998
 20
-55.627666
 30
0.0
 40
0.0
 41
0.0
  0
SEQEND
  5
272
100
AcDbEntity
  8
0
  0
POLYLINE
  5
273
100
AcDbEntity
  8
1
  6
Continuous
 62
     6
 48
0.75
100
AcDb2dPolyline
 66
     1
 10
0.0
 20
0.0
 30
0.0
 70
   128
  0
VERTEX
  5
274
100
AcDbEntity
  8
1
  6
Continuous
 62
     6
 48
0.75
100
AcDbVertex
100
AcDb2dVertex
 10
-1128.714498
 20
-16.190166
 30
0.0
 40
0.0
 41
0.0
  0
VERTEX
  5
275
100
AcDbEntity
  8
1
  6
Continuous
 62
     6
 48
0.75
100
AcDbVertex
100
AcDb2dVertex
 10
-1128.714498
 20
-31.180166
 30
0.0
 40
0.0
 41
0.0
  0
VERTEX
  5
276
100
AcDbEntity
  8
1
  6
Continuous
 62
     6
 48
0.75
100
AcDbVertex
100
AcDb2dVertex
 10
-1128.714498
 20
-55.500166
 30
0.0
 40
0.0
 41
0.0
  0
VERTEX
  5
277
100
AcDbEntity
  8
1
  6
Continuous
 62
     6
 48
0.75
100
AcDbVertex
100
AcDb2dVertex
 10
-1146.271998
 20
-55.627666
 30
0.0
 40
0.0
 41
0.0
  0
VERTEX
  5
278
100
AcDbEntity
  8
1
  6
Continuous
 62
     6
 48
0.75
100
AcDbVertex
100
AcDb2dVertex
 10
-1165.676998
 20
-55.627666
 30
0.0
 40
0.0
 41
0.0
  0
VERTEX
  5
279
100
AcDbEntity
  8
1
  6
Continuous
 62
     6
 48
0.75
100
AcDbVertex
100
AcDb2dVertex
 10
-1186.006998
 20
-55.627666
 30
0.0
 40
0.0
 41
0.0
  0
VERTEX
  5
27A
100
AcDbEntity
  8
1
  6
Continuous
 62
     6
 48
0.75
100
AcDbVertex
100
AcDb2dVertex
 10
-1198.941998
 20
-55.627666
 30
0.0
 40
0.0
 41
0.0
  0
VERTEX
  5
27B
100
AcDbEntity
  8
1
  6
Continuous
 62
     6
 48
0.75
100
AcDbVertex
100
AcDb2dVertex
 10
-1206.334498
 20
-55.627666
 30
0.0
 40
0.0
 41
0.0
  0
VERTEX
  5
27C
100
AcDbEntity
  8
1
  6
Continuous
 62
     6
 48
0.75
100
AcDbVertex
100
AcDb2dVertex
 10
-1209.414498
 20
-55.627666
 30
0.0
 40
0.0
 41
0.0
  0
VERTEX
  5
27D
100
AcDbEntity
  8
1
  6
Continuous
 62
     6
 48
0.75
100
AcDbVertex
100
AcDb2dVertex
 10
-1204.486998
 20
-55.627666
 30
0.0
 40
0.0
 41
0.0
  0
VERTEX
  5
27E
100
AcDbEntity
  8
1
  6
Continuous
 62
     6
 48
0.75
100
AcDbVertex
100
AcDb2dVertex
 10
-1198.941998
 20
-55.627666
 30
0.0
 40
0.0
 41
0.0
  0
VERTEX
  5
27F
100
AcDbEntity
  8
1
  6
Continuous
 62
     6
 48
0.75
100
AcDbVertex
100
AcDb2dVertex
 10
-1194.014498
 20
-55.627666
 30
0.0
 40
0.0
 41
0.0
  0
VERTEX
  5
280
100
AcDbEntity
  8
1
  6
Continuous
 62
     6
 48
0.75
100
AcDbVertex
100
AcDb2dVertex
 10
-1192.166998
 20
-55.627666
 30
0.0
 40
0.0
 41
0.0
  0
SEQEND
  5
281
100
AcDbEntity
  8
0
  0
POLYLINE
  5
282
100
AcDbEntity
  8
1
  6
Continuous
 62
     6
 48
0.75
100
AcDb2dPolyline
 66
     1
 10
0.0
 20
0.0
 30
0.0
 70
   128
  0
VERTEX
  5
283
100
AcDbEntity
  8
1
  6
Continuous
 62
     6
 48
0.75
100
AcDbVertex
100
AcDb2dVertex
 10
-1128.714498
 20
-16.190166
 30
0.0
 40
0.0
 41
0.0
  0
VERTEX
  5
284
100
AcDbEntity
  8
1
  6
Continuous
 62
     6
 48
0.75
100
AcDbVertex
100
AcDb2dVertex
 10
-1128.714498
 20
-31.180166
 30
0.0
 40
0.0
 41
0.0
  0
VERTEX
  5
285
100
AcDbEntity
  8
1
  6
Continuous
 62
     6
 48
0.75
100
AcDbVertex
100
AcDb2dVertex
 10
-1128.714498
 20
-55.500166
 30
0.0
 40
0.0
 41
0.0
  0
VERTEX
  5
286
100
AcDbEntity
  8
1
  6
Continuous
 62
     6
 48
0.75
100
AcDbVertex
100
AcDb2dVertex
 10
-1122.861998
 20
-66.565166
 30
0.0
 40
0.0
 41
0.0
  0
VERTEX
  5
287
100
AcDbEntity
  8
1
  6
Continuous
 62
     6
 48
0.75
100
AcDbVertex
100
AcDb2dVertex
 10
-1106.289498
 20
-66.565166
 30
0.0
 40
0.0
 41
0.0
  0
VERTEX
  5
288
100
AcDbEntity
  8
1
  6
Continuous
 62
     6
 48
0.75
100
AcDbVertex
100
AcDb2dVertex
 10
-1089.286998
 20
-66.565166
 30
0.0
 40
0.0
 41
0.0
  0
VERTEX
  5
289
100
AcDbEntity
  8
1
  6
Continuous
 62
     6
 48
0.75
100
AcDbVertex
100
AcDb2dVertex
 10
-1080.664498
 20
-66.565166
 30
0.0
 40
0.0
 41
0.0
  0
VERTEX
  5
28A
100
AcDbEntity
  8
1
  6
Continuous
 62
     6
 48
0.75
100
AcDbVertex
100
AcDb2dVertex
 10
-1075.119498
 20
-66.565166
 30
0.0
 40
0.0
 41
0.0
  0
VERTEX
  5
28B
100
AcDbEntity
  8
1
  6
Continuous
 62
     6
 48
0.75
100
AcDbVertex
100
AcDb2dVertex
 10
-1073.024498
 20
-66.565166
 30
0.0
 40
0.0
 41
0.0
  0
VERTEX
  5
28C
100
AcDbEntity
  8
1
  6
Continuous
 62
     6
 48
0.75
100
AcDbVertex
100
AcDb2dVertex
 10
-1073.271998
 20
-66.565166
 30
0.0
 40
0.0
 41
0.0
  0
VERTEX
  5
28D
100
AcDbEntity
  8
1
  6
Continuous
 62
     6
 48
0.75
100
AcDbVertex
100
AcDb2dVertex
 10
-1076.966998
 20
-66.565166
 30
0.0
 40
0.0
 41
0.0
  0
VERTEX
  5
28E
100
AcDbEntity
  8
1
  6
Continuous
 62
     6
 48
0.75
100
AcDbVertex
100
AcDb2dVertex
 10
-1081.894498
 20
-66.565166
 30
0.0
 40
0.0
 41
0.0
  0
VERTEX
  5
28F
100
AcDbEntity
  8
1
  6
Continuous
 62
     6
 48
0.75
100
AcDbVertex
100
AcDb2dVertex
 10
-1084.974498
 20
-66.565166
 30
0.0
 40
0.0
 41
0.0
  0
VERTEX
  5
290
100
AcDbEntity
  8
1
  6
Continuous
 62
     6
 48
0.75
100
AcDbVertex
100
AcDb2dVertex
 10
-1086.824498
 20
-66.565166
 30
0.0
 40
0.0
 41
0.0
  0
SEQEND
  5
291
100
AcDbEntity
  8
0
  0
POLYLINE
  5
292
100
AcDbEntity
  8
1
  6
Continuous
 62
     6
 48
0.75
100
AcDb2dPolyline
 66
     1
 10
0.0
 20
0.0
 30
0.0
 70
   128
  0
VERTEX
  5
293
100
AcDbEntity
  8
1
  6
Continuous
 62
     6
 48
0.75
100
AcDbVertex
100
AcDb2dVertex
 10
-1128.714498
 20
-16.190166
 30
0.0
 40
0.0
 41
0.0
  0
VERTEX
  5
294
100
AcDbEntity
  8
1
  6
Continuous
 62
     6
 48
0.75
100
AcDbVertex
100
AcDb2dVertex
 10
-1128.714498
 20
-31.180166
 30
0.0
 40
0.0
 41
0.0
  0
VERTEX
  5
295
100
AcDbEntity
  8
1
  6
Continuous
 62
     6
 48
0.75
100
AcDbVertex
100
AcDb2dVertex
 10
-1128.714498
 20
-55.500166
 30
0.0
 40
0.0
 41
0.0
  0
VERTEX
  5
296
100
AcDbEntity
  8
1
  6
Continuous
 62
     6
 48
0.75
100
AcDbVertex
100
AcDb2dVertex
 10
-1134.566998
 20
-66.565166
 30
0.0
 40
0.0
 41
0.0
  0
VERTEX
  5
297
100
AcDbEntity
  8
1
  6
Continuous
 62
     6
 48
0.75
100
AcDbVertex
100
AcDb2dVertex
 10
-1151.139498
 20
-66.565166
 30
0.0
 40
0.0
 41
0.0
  0
VERTEX
  5
298
100
AcDbEntity
  8
1
  6
Continuous
 62
     6
 48
0.75
100
AcDbVertex
100
AcDb2dVertex
 10
-1168.141998
 20
-66.565166
 30
0.0
 40
0.0
 41
0.0
  0
VERTEX
  5
299
100
AcDbEntity
  8
1
  6
Continuous
 62
     6
 48
0.75
100
AcDbVertex
100
AcDb2dVertex
 10
-1176.764498
 20
-66.565166
 30
0.0
 40
0.0
 41
0.0
  0
VERTEX
  5
29A
100
AcDbEntity
  8
1
  6
Continuous
 62
     6
 48
0.75
100
AcDbVertex
100
AcDb2dVertex
 10
-1182.309498
 20
-66.565166
 30
0.0
 40
0.0
 41
0.0
  0
VERTEX
  5
29B
100
AcDbEntity
  8
1
  6
Continuous
 62
     6
 48
0.75
100
AcDbVertex
100
AcDb2dVertex
 10
-1184.404498
 20
-66.565166
 30
0.0
 40
0.0
 41
0.0
  0
VERTEX
  5
29C
100
AcDbEntity
  8
1
  6
Continuous
 62
     6
 48
0.75
100
AcDbVertex
100
AcDb2dVertex
 10
-1184.156998
 20
-66.565166
 30
0.0
 40
0.0
 41
0.0
  0
VERTEX
  5
29D
100
AcDbEntity
  8
1
  6
Continuous
 62
     6
 48
0.75
100
AcDbVertex
100
AcDb2dVertex
 10
-1180.461998
 20
-66.565166
 30
0.0
 40
0.0
 41
0.0
  0
VERTEX
  5
29E
100
AcDbEntity
  8
1
  6
Continuous
 62
     6
 48
0.75
100
AcDbVertex
100
AcDb2dVertex
 10
-1175.534498
 20
-66.565166
 30
0.0
 40
0.0
 41
0.0
  0
VERTEX
  5
29F
100
AcDbEntity
  8
1
  6
Continuous
 62
     6
 48
0.75
100
AcDbVertex
100
AcDb2dVertex
 10
-1172.454498
 20
-66.565166
 30
0.0
 40
0.0
 41
0.0
  0
VERTEX
  5
2A0
100
AcDbEntity
  8
1
  6
Continuous
 62
     6
 48
0.75
100
AcDbVertex
100
AcDb2dVertex
 10
-1170.604498
 20
-66.565166
 30
0.0
 40
0.0
 41
0.0
  0
SEQEND
  5
2A1
100
AcDbEntity
  8
0
  0
POLYLINE
  5
2A2
100
AcDbEntity
  8
1
  6
Continuous
 62
     6
 48
0.75
100
AcDb2dPolyline
 66
     1
 10
0.0
 20
0.0
 30
0.0
 70
   128
  0
VERTEX
  5
2A3
100
AcDbEntity
  8
1
  6
Continuous
 62
     6
 48
0.75
100
AcDbVertex
100
AcDb2dVertex
 10
-1128.714498
 20
-16.190166
 30
0.0
 40
0.0
 41
0.0
  0
VERTEX
  5
2A4
100
AcDbEntity
  8
1
  6
Continuous
 62
     6
 48
0.75
100
AcDbVertex
100
AcDb2dVertex
 10
-1128.714498
 20
-31.180166
 30
0.0
 40
0.0
 41
0.0
  0
VERTEX
  5
2A5
100
AcDbEntity
  8
1
  6
Continuous
 62
     6
 48
0.75
100
AcDbVertex
100
AcDb2dVertex
 10
-1128.714498
 20
-55.500166
 30
0.0
 40
0.0
 41
0.0
  0
VERTEX
  5
2A6
100
AcDbEntity
  8
1
  6
Continuous
 62
     6
 48
0.75
100
AcDbVertex
100
AcDb2dVertex
 10
-1128.714498
 20
-71.567666
 30
0.0
 40
0.0
 41
0.0
  0
VERTEX
  5
2A7
100
AcDbEntity
  8
1
  6
Continuous
 62
     6
 48
0.75
100
AcDbVertex
100
AcDb2dVertex
 10
-1121.214498
 20
-77.502666
 30
0.0
 40
0.0
 41
0.0
  0
VERTEX
  5
2A8
100
AcDbEntity
  8
1
  6
Continuous
 62
     6
 48
0.75
100
AcDbVertex
100
AcDb2dVertex
 10
-1108.714498
 20
-77.502666
 30
0.0
 40
0.0
 41
0.0
  0
VERTEX
  5
2A9
100
AcDbEntity
  8
1
  6
Continuous
 62
     6
 48
0.75
100
AcDbVertex
100
AcDb2dVertex
 10
-1103.689498
 20
-77.502666
 30
0.0
 40
0.0
 41
0.0
  0
VERTEX
  5
2AA
100
AcDbEntity
  8
1
  6
Continuous
 62
     6
 48
0.75
100
AcDbVertex
100
AcDb2dVertex
 10
-1101.609498
 20
-77.502666
 30
0.0
 40
0.0
 41
0.0
  0
VERTEX
  5
2AB
100
AcDbEntity
  8
1
  6
Continuous
 62
     6
 48
0.75
100
AcDbVertex
100
AcDb2dVertex
 10
-1100.589498
 20
-77.502666
 30
0.0
 40
0.0
 41
0.0
  0
VERTEX
  5
2AC
100
AcDbEntity
  8
1
  6
Continuous
 62
     6
 48
0.75
100
AcDbVertex
100
AcDb2dVertex
 10
-1100.714498
 20
-77.502666
 30
0.0
 40
0.0
 41
0.0
  0
VERTEX
  5
2AD
100
AcDbEntity
  8
1
  6
Continuous
 62
     6
 48
0.75
100
AcDbVertex
100
AcDb2dVertex
 10
-1102.464498
 20
-77.502666
 30
0.0
 40
0.0
 41
0.0
  0
VERTEX
  5
2AE
100
AcDbEntity
  8
1
  6
Continuous
 62
     6
 48
0.75
100
AcDbVertex
100
AcDb2dVertex
 10
-1105.589498
 20
-77.502666
 30
0.0
 40
0.0
 41
0.0
  0
VERTEX
  5
2AF
100
AcDbEntity
  8
1
  6
Continuous
 62
     6
 48
0.75
100
AcDbVertex
100
AcDb2dVertex
 10
-1107.464498
 20
-77.502666
 30
0.0
 40
0.0
 41
0.0
  0
VERTEX
  5
2B0
100
AcDbEntity
  8
1
  6
Continuous
 62
     6
 48
0.75
100
AcDbVertex
100
AcDb2dVertex
 10
-1108.714498
 20
-77.502666
 30
0.0
 40
0.0
 41
0.0
  0
SEQEND
  5
2B1
100
AcDbEntity
  8
0
  0
POLYLINE
  5
2B2
100
AcDbEntity
  8
1
  6
Continuous
 62
     6
 48
0.75
100
AcDb2dPolyline
 66
     1
 10
0.0
 20
0.0
 30
0.0
 70
   128
  0
VERTEX
  5
2B3
100
AcDbEntity
  8
1
  6
Continuous
 62
     6
 48
0.75
100
AcDbVertex
100
AcDb2dVertex
 10
-1128.714498
 20
-16.190166
 30
0.0
 40
0.0
 41
0.0
  0
VERTEX
  5
2B4
100
AcDbEntity
  8
1
  6
Continuous
 62
     6
 48
0.75
100
AcDbVertex
100
AcDb2dVertex
 10
-1128.714498
 20
-31.180166
 30
0.0
 40
0.0
 41
0.0
  0
VERTEX
  5
2B5
100
AcDbEntity
  8
1
  6
Continuous
 62
     6
 48
0.75
100
AcDbVertex
100
AcDb2dVertex
 10
-1128.714498
 20
-55.500166
 30
0.0
 40
0.0
 41
0.0
  0
VERTEX
  5
2B6
100
AcDbEntity
  8
1
  6
Continuous
 62
     6
 48
0.75
100
AcDbVertex
100
AcDb2dVertex
 10
-1128.714498
 20
-71.567666
 30
0.0
 40
0.0
 41
0.0
  0
VERTEX
  5
2B7
100
AcDbEntity
  8
1
  6
Continuous
 62
     6
 48
0.75
100
AcDbVertex
100
AcDb2dVertex
 10
-1136.214498
 20
-77.502666
 30
0.0
 40
0.0
 41
0.0
  0
VERTEX
  5
2B8
100
AcDbEntity
  8
1
  6
Continuous
 62
     6
 48
0.75
100
AcDbVertex
100
AcDb2dVertex
 10
-1148.714498
 20
-77.502666
 30
0.0
 40
0.0
 41
0.0
  0
VERTEX
  5
2B9
100
AcDbEntity
  8
1
  6
Continuous
 62
     6
 48
0.75
100
AcDbVertex
100
AcDb2dVertex
 10
-1153.739498
 20
-77.502666
 30
0.0
 40
0.0
 41
0.0
  0
VERTEX
  5
2BA
100
AcDbEntity
  8
1
  6
Continuous
 62
     6
 48
0.75
100
AcDbVertex
100
AcDb2dVertex
 10
-1155.819498
 20
-77.502666
 30
0.0
 40
0.0
 41
0.0
  0
VERTEX
  5
2BB
100
AcDbEntity
  8
1
  6
Continuous
 62
     6
 48
0.75
100
AcDbVertex
100
AcDb2dVertex
 10
-1156.839498
 20
-77.502666
 30
0.0
 40
0.0
 41
0.0
  0
VERTEX
  5
2BC
100
AcDbEntity
  8
1
  6
Continuous
 62
     6
 48
0.75
100
AcDbVertex
100
AcDb2dVertex
 10
-1156.714498
 20
-77.502666
 30
0.0
 40
0.0
 41
0.0
  0
VERTEX
  5
2BD
100
AcDbEntity
  8
1
  6
Continuous
 62
     6
 48
0.75
100
AcDbVertex
100
AcDb2dVertex
 10
-1154.964498
 20
-77.502666
 30
0.0
 40
0.0
 41
0.0
  0
VERTEX
  5
2BE
100
AcDbEntity
  8
1
  6
Continuous
 62
     6
 48
0.75
100
AcDbVertex
100
AcDb2dVertex
 10
-1151.839498
 20
-77.502666
 30
0.0
 40
0.0
 41
0.0
  0
VERTEX
  5
2BF
100
AcDbEntity
  8
1
  6
Continuous
 62
     6
 48
0.75
100
AcDbVertex
100
AcDb2dVertex
 10
-1149.964498
 20
-77.502666
 30
0.0
 40
0.0
 41
0.0
  0
VERTEX
  5
2C0
100
AcDbEntity
  8
1
  6
Continuous
 62
     6
 48
0.75
100
AcDbVertex
100
AcDb2dVertex
 10
-1148.714498
 20
-77.502666
 30
0.0
 40
0.0
 41
0.0
  0
SEQEND
  5
2C1
100
AcDbEntity
  8
0
  0
POLYLINE
  5
2C2
100
AcDbEntity
  8
1
  6
Continuous
 62
     6
 48
0.75
100
AcDb2dPolyline
 66
     1
 10
0.0
 20
0.0
 30
0.0
 70
   128
  0
VERTEX
  5
2C3
100
AcDbEntity
  8
1
  6
Continuous
 62
     6
 48
0.75
100
AcDbVertex
100
AcDb2dVertex
 10
-1128.714498
 20
-16.190166
 30
0.0
 40
0.0
 41
0.0
  0
VERTEX
  5
2C4
100
AcDbEntity
  8
1
  6
Continuous
 62
     6
 48
0.75
100
AcDbVertex
100
AcDb2dVertex
 10
-1128.714498
 20
-31.180166
 30
0.0
 40
0.0
 41
0.0
  0
VERTEX
  5
2C5
100
AcDbEntity
  8
1
  6
Continuous
 62
     6
 48
0.75
100
AcDbVertex
100
AcDb2dVertex
 10
-1128.714498
 20
-55.500166
 30
0.0
 40
0.0
 41
0.0
  0
VERTEX
  5
2C6
100
AcDbEntity
  8
1
  6
Continuous
 62
     6
 48
0.75
100
AcDbVertex
100
AcDb2dVertex
 10
-1128.714498
 20
-71.567666
 30
0.0
 40
0.0
 41
0.0
  0
VERTEX
  5
2C7
100
AcDbEntity
  8
1
  6
Continuous
 62
     6
 48
0.75
100
AcDbVertex
100
AcDb2dVertex
 10
-1128.714498
 20
-83.005166
 30
0.0
 40
0.0
 41
0.0
  0
VERTEX
  5
2C8
100
AcDbEntity
  8
1
  6
Continuous
 62
     6
 48
0.75
100
AcDbVertex
100
AcDb2dVertex
 10
-1128.714498
 20
-88.440166
 30
0.0
 40
0.0
 41
0.0
  0
SEQEND
  5
2C9
100
AcDbEntity
  8
0
  0
POLYLINE
  5
2CA
100
AcDbEntity
  8
1
  6
Continuous
 62
     6
 48
0.75
100
AcDb2dPolyline
 66
     1
 10
0.0
 20
0.0
 30
0.0
 70
   128
  0
VERTEX
  5
2CB
100
AcDbEntity
  8
1
  6
Continuous
 62
     6
 48
0.75
100
AcDbVertex
100
AcDb2dVertex
 10
-1128.714498
 20
-16.190166
 30
0.0
 40
0.0
 41
0.0
  0
VERTEX
  5
2CC
100
AcDbEntity
  8
1
  6
Continuous
 62
     6
 48
0.75
100
AcDbVertex
100
AcDb2dVertex
 10
-1128.714498
 20
-31.180166
 30
0.0
 40
0.0
 41
0.0
  0
VERTEX
  5
2CD
100
AcDbEntity
  8
1
  6
Continuous
 62
     6
 48
0.75
100
AcDbVertex
100
AcDb2dVertex
 10
-1128.714498
 20
-55.500166
 30
0.0
 40
0.0
 41
0.0
  0
VERTEX
  5
2CE
100
AcDbEntity
  8
1
  6
Continuous
 62
     6
 48
0.75
100
AcDbVertex
100
AcDb2dVertex
 10
-1128.714498
 20
-71.567666
 30
0.0
 40
0.0
 41
0.0
  0
VERTEX
  5
2CF
100
AcDbEntity
  8
1
  6
Continuous
 62
     6
 48
0.75
100
AcDbVertex
100
AcDb2dVertex
 10
-1128.714498
 20
-83.005166
 30
0.0
 40
0.0
 41
0.0
  0
VERTEX
  5
2D0
100
AcDbEntity
  8
1
  6
Continuous
 62
     6
 48
0.75
100
AcDbVertex
100
AcDb2dVertex
 10
-1128.714498
 20
-88.440166
 30
0.0
 40
0.0
 41
0.0
  0
SEQEND
  5
2D1
100
AcDbEntity
  8
0
  0
POLYLINE
  5
2D2
100
AcDbEntity
  8
1
  6
Continuous
 62
     6
 48
0.75
100
AcDb2dPolyline
 66
     1
 10
0.0
 20
0.0
 30
0.0
 70
   128
  0
VERTEX
  5
2D3
100
AcDbEntity
  8
1
  6
Continuous
 62
     6
 48
0.75
100
AcDbVertex
100
AcDb2dVertex
 10
-1144.149498
 20
4.497334
 30
0.0
 40
0.0
 41
0.0
  0
VERTEX
  5
2D4
100
AcDbEntity
  8
1
  6
Continuous
 62
     6
 48
0.75
100
AcDbVertex
100
AcDb2dVertex
 10
-1144.431998
 20
0.152334
 30
0.0
 40
0.0
 41
0.0
  0
VERTEX
  5
2D5
100
AcDbEntity
  8
1
  6
Continuous
 62
     6
 48
0.75
100
AcDbVertex
100
AcDb2dVertex
 10
-1128.714498
 20
-16.190166
 30
0.0
 40
0.0
 41
0.0
  0
SEQEND
  5
2D6
100
AcDbEntity
  8
0
  0
POLYLINE
  5
2D7
100
AcDbEntity
  8
1
  6
Continuous
 62
     6
 48
0.75
100
AcDb2dPolyline
 66
     1
 10
0.0
 20
0.0
 30
0.0
 70
   128
  0
VERTEX
  5
2D8
100
AcDbEntity
  8
1
  6
Continuous
 62
     6
 48
0.75
100
AcDbVertex
100
AcDb2dVertex
 10
-1144.149498
 20
4.497334
 30
0.0
 40
0.0
 41
0.0
  0
VERTEX
  5
2D9
100
AcDbEntity
  8
1
  6
Continuous
 62
     6
 48
0.75
100
AcDbVertex
100
AcDb2dVertex
 10
-1144.431998
 20
0.152334
 30
0.0
 40
0.0
 41
0.0
  0
VERTEX
  5
2DA
100
AcDbEntity
  8
1
  6
Continuous
 62
     6
 48
0.75
100
AcDbVertex
100
AcDb2dVertex
 10
-1128.714498
 20
-16.190166
 30
0.0
 40
0.0
 41
0.0
  0
SEQEND
  5
2DB
100
AcDbEntity
  8
0
  0
POLYLINE
  5
2DC
100
AcDbEntity
  8
1
  6
Continuous
 62
     6
 48
0.75
100
AcDb2dPolyline
 66
     1
 10
0.0
 20
0.0
 30
0.0
 70
   128
  0
VERTEX
  5
2DD
100
AcDbEntity
  8
1
  6
Continuous
 62
     6
 48
0.75
100
AcDbVertex
100
AcDb2dVertex
 10
-1113.279498
 20
4.497334
 30
0.0
 40
0.0
 41
0.0
  0
VERTEX
  5
2DE
100
AcDbEntity
  8
1
  6
Continuous
 62
     6
 48
0.75
100
AcDbVertex
100
AcDb2dVertex
 10
-1112.996998
 20
0.152334
 30
0.0
 40
0.0
 41
0.0
  0
VERTEX
  5
2DF
100
AcDbEntity
  8
1
  6
Continuous
 62
     6
 48
0.75
100
AcDbVertex
100
AcDb2dVertex
 10
-1128.714498
 20
-16.190166
 30
0.0
 40
0.0
 41
0.0
  0
SEQEND
  5
2E0
100
AcDbEntity
  8
0
  0
POLYLINE
  5
2E1
100
AcDbEntity
  8
1
  6
Continuous
 62
     6
 48
0.75
100
AcDb2dPolyline
 66
     1
 10
0.0
 20
0.0
 30
0.0
 70
   128
  0
VERTEX
  5
2E2
100
AcDbEntity
  8
1
  6
Continuous
 62
     6
 48
0.75
100
AcDbVertex
100
AcDb2dVertex
 10
-1153.356998
 20
7.309834
 30
0.0
 40
0.0
 41
0.0
  0
VERTEX
  5
2E3
100
AcDbEntity
  8
1
  6
Continuous
 62
     6
 48
0.75
100
AcDbVertex
100
AcDb2dVertex
 10
-1155.204498
 20
-2.455166
 30
0.0
 40
0.0
 41
0.0
  0
VERTEX
  5
2E4
100
AcDbEntity
  8
1
  6
Continuous
 62
     6
 48
0.75
100
AcDbVertex
100
AcDb2dVertex
 10
-1128.714498
 20
-31.180166
 30
0.0
 40
0.0
 41
0.0
  0
SEQEND
  5
2E5
100
AcDbEntity
  8
0
  0
POLYLINE
  5
2E6
100
AcDbEntity
  8
1
  6
Continuous
 62
     6
 48
0.75
100
AcDb2dPolyline
 66
     1
 10
0.0
 20
0.0
 30
0.0
 70
   128
  0
VERTEX
  5
2E7
100
AcDbEntity
  8
1
  6
Continuous
 62
     6
 48
0.75
100
AcDbVertex
100
AcDb2dVertex
 10
-1153.356998
 20
7.309834
 30
0.0
 40
0.0
 41
0.0
  0
VERTEX
  5
2E8
100
AcDbEntity
  8
1
  6
Continuous
 62
     6
 48
0.75
100
AcDbVertex
100
AcDb2dVertex
 10
-1155.204498
 20
-2.455166
 30
0.0
 40
0.0
 41
0.0
  0
VERTEX
  5
2E9
100
AcDbEntity
  8
1
  6
Continuous
 62
     6
 48
0.75
100
AcDbVertex
100
AcDb2dVertex
 10
-1128.714498
 20
-31.180166
 30
0.0
 40
0.0
 41
0.0
  0
SEQEND
  5
2EA
100
AcDbEntity
  8
0
  0
POLYLINE
  5
2EB
100
AcDbEntity
  8
1
  6
Continuous
 62
     6
 48
0.75
100
AcDb2dPolyline
 66
     1
 10
0.0
 20
0.0
 30
0.0
 70
   128
  0
VERTEX
  5
2EC
100
AcDbEntity
  8
1
  6
Continuous
 62
     6
 48
0.75
100
AcDbVertex
100
AcDb2dVertex
 10
-1104.071998
 20
7.309834
 30
0.0
 40
0.0
 41
0.0
  0
VERTEX
  5
2ED
100
AcDbEntity
  8
1
  6
Continuous
 62
     6
 48
0.75
100
AcDbVertex
100
AcDb2dVertex
 10
-1102.224498
 20
-2.455166
 30
0.0
 40
0.0
 41
0.0
  0
VERTEX
  5
2EE
100
AcDbEntity
  8
1
  6
Continuous
 62
     6
 48
0.75
100
AcDbVertex
100
AcDb2dVertex
 10
-1128.714498
 20
-31.180166
 30
0.0
 40
0.0
 41
0.0
  0
SEQEND
  5
2EF
100
AcDbEntity
  8
0
  0
POLYLINE
  5
2F0
100
AcDbEntity
  8
1
  6
Continuous
 62
     6
 48
0.75
100
AcDb2dPolyline
 66
     1
 10
0.0
 20
0.0
 30
0.0
 70
   128
  0
VERTEX
  5
2F1
100
AcDbEntity
  8
1
  6
Continuous
 62
     6
 48
0.75
100
AcDbVertex
100
AcDb2dVertex
 10
-1164.074498
 20
8.574834
 30
0.0
 40
0.0
 41
0.0
  0
VERTEX
  5
2F2
100
AcDbEntity
  8
1
  6
Continuous
 62
     6
 48
0.75
100
AcDbVertex
100
AcDb2dVertex
 10
-1168.141998
 20
-11.332666
 30
0.0
 40
0.0
 41
0.0
  0
VERTEX
  5
2F3
100
AcDbEntity
  8
1
  6
Continuous
 62
     6
 48
0.75
100
AcDbVertex
100
AcDb2dVertex
 10
-1138.879498
 20
-44.690166
 30
0.0
 40
0.0
 41
0.0
  0
VERTEX
  5
2F4
100
AcDbEntity
  8
1
  6
Continuous
 62
     6
 48
0.75
100
AcDbVertex
100
AcDb2dVertex
 10
-1128.714498
 20
-55.500166
 30
0.0
 40
0.0
 41
0.0
  0
SEQEND
  5
2F5
100
AcDbEntity
  8
0
  0
POLYLINE
  5
2F6
100
AcDbEntity
  8
1
  6
Continuous
 62
     6
 48
0.75
100
AcDb2dPolyline
 66
     1
 10
0.0
 20
0.0
 30
0.0
 70
   128
  0
VERTEX
  5
2F7
100
AcDbEntity
  8
1
  6
Continuous
 62
     6
 48
0.75
100
AcDbVertex
100
AcDb2dVertex
 10
-1164.074498
 20
8.574834
 30
0.0
 40
0.0
 41
0.0
  0
VERTEX
  5
2F8
100
AcDbEntity
  8
1
  6
Continuous
 62
     6
 48
0.75
100
AcDbVertex
100
AcDb2dVertex
 10
-1168.141998
 20
-11.332666
 30
0.0
 40
0.0
 41
0.0
  0
VERTEX
  5
2F9
100
AcDbEntity
  8
1
  6
Continuous
 62
     6
 48
0.75
100
AcDbVertex
100
AcDb2dVertex
 10
-1138.879498
 20
-44.690166
 30
0.0
 40
0.0
 41
0.0
  0
VERTEX
  5
2FA
100
AcDbEntity
  8
1
  6
Continuous
 62
     6
 48
0.75
100
AcDbVertex
100
AcDb2dVertex
 10
-1128.714498
 20
-55.500166
 30
0.0
 40
0.0
 41
0.0
  0
SEQEND
  5
2FB
100
AcDbEntity
  8
0
  0
POLYLINE
  5
2FC
100
AcDbEntity
  8
1
  6
Continuous
 62
     6
 48
0.75
100
AcDb2dPolyline
 66
     1
 10
0.0
 20
0.0
 30
0.0
 70
   128
  0
VERTEX
  5
2FD
100
AcDbEntity
  8
1
  6
Continuous
 62
     6
 48
0.75
100
AcDbVertex
100
AcDb2dVertex
 10
-1093.354498
 20
8.574834
 30
0.0
 40
0.0
 41
0.0
  0
VERTEX
  5
2FE
100
AcDbEntity
  8
1
  6
Continuous
 62
     6
 48
0.75
100
AcDbVertex
100
AcDb2dVertex
 10
-1089.286998
 20
-11.332666
 30
0.0
 40
0.0
 41
0.0
  0
VERTEX
  5
2FF
100
AcDbEntity
  8
1
  6
Continuous
 62
     6
 48
0.75
100
AcDbVertex
100
AcDb2dVertex
 10
-1118.549498
 20
-44.690166
 30
0.0
 40
0.0
 41
0.0
  0
VERTEX
  5
300
100
AcDbEntity
  8
1
  6
Continuous
 62
     6
 48
0.75
100
AcDbVertex
100
AcDb2dVertex
 10
-1128.714498
 20
-55.500166
 30
0.0
 40
0.0
 41
0.0
  0
SEQEND
  5
301
100
AcDbEntity
  8
0
  0
POLYLINE
  5
302
100
AcDbEntity
  8
1
  6
Continuous
 62
     6
 48
0.75
100
AcDb2dPolyline
 66
     1
 10
0.0
 20
0.0
 30
0.0
 70
   128
  0
VERTEX
  5
303
100
AcDbEntity
  8
1
  6
Continuous
 62
     6
 48
0.75
100
AcDbVertex
100
AcDb2dVertex
 10
-1177.011998
 20
8.832334
 30
0.0
 40
0.0
 41
0.0
  0
VERTEX
  5
304
100
AcDbEntity
  8
1
  6
Continuous
 62
     6
 48
0.75
100
AcDbVertex
100
AcDb2dVertex
 10
-1184.156998
 20
-21.860166
 30
0.0
 40
0.0
 41
0.0
  0
VERTEX
  5
305
100
AcDbEntity
  8
1
  6
Continuous
 62
     6
 48
0.75
100
AcDbVertex
100
AcDb2dVertex
 10
-1159.516998
 20
-44.690166
 30
0.0
 40
0.0
 41
0.0
  0
VERTEX
  5
306
100
AcDbEntity
  8
1
  6
Continuous
 62
     6
 48
0.75
100
AcDbVertex
100
AcDb2dVertex
 10
-1146.271998
 20
-55.627666
 30
0.0
 40
0.0
 41
0.0
  0
VERTEX
  5
307
100
AcDbEntity
  8
1
  6
Continuous
 62
     6
 48
0.75
100
AcDbVertex
100
AcDb2dVertex
 10
-1134.566998
 20
-66.565166
 30
0.0
 40
0.0
 41
0.0
  0
VERTEX
  5
308
100
AcDbEntity
  8
1
  6
Continuous
 62
     6
 48
0.75
100
AcDbVertex
100
AcDb2dVertex
 10
-1128.714498
 20
-71.567666
 30
0.0
 40
0.0
 41
0.0
  0
SEQEND
  5
309
100
AcDbEntity
  8
0
  0
POLYLINE
  5
30A
100
AcDbEntity
  8
1
  6
Continuous
 62
     6
 48
0.75
100
AcDb2dPolyline
 66
     1
 10
0.0
 20
0.0
 30
0.0
 70
   128
  0
VERTEX
  5
30B
100
AcDbEntity
  8
1
  6
Continuous
 62
     6
 48
0.75
100
AcDbVertex
100
AcDb2dVertex
 10
-1177.011998
 20
8.832334
 30
0.0
 40
0.0
 41
0.0
  0
VERTEX
  5
30C
100
AcDbEntity
  8
1
  6
Continuous
 62
     6
 48
0.75
100
AcDbVertex
100
AcDb2dVertex
 10
-1184.156998
 20
-21.860166
 30
0.0
 40
0.0
 41
0.0
  0
VERTEX
  5
30D
100
AcDbEntity
  8
1
  6
Continuous
 62
     6
 48
0.75
100
AcDbVertex
100
AcDb2dVertex
 10
-1159.516998
 20
-44.690166
 30
0.0
 40
0.0
 41
0.0
  0
VERTEX
  5
30E
100
AcDbEntity
  8
1
  6
Continuous
 62
     6
 48
0.75
100
AcDbVertex
100
AcDb2dVertex
 10
-1146.271998
 20
-55.627666
 30
0.0
 40
0.0
 41
0.0
  0
VERTEX
  5
30F
100
AcDbEntity
  8
1
  6
Continuous
 62
     6
 48
0.75
100
AcDbVertex
100
AcDb2dVertex
 10
-1134.566998
 20
-66.565166
 30
0.0
 40
0.0
 41
0.0
  0
VERTEX
  5
310
100
AcDbEntity
  8
1
  6
Continuous
 62
     6
 48
0.75
100
AcDbVertex
100
AcDb2dVertex
 10
-1128.714498
 20
-71.567666
 30
0.0
 40
0.0
 41
0.0
  0
SEQEND
  5
311
100
AcDbEntity
  8
0
  0
POLYLINE
  5
312
100
AcDbEntity
  8
1
  6
Continuous
 62
     6
 48
0.75
100
AcDb2dPolyline
 66
     1
 10
0.0
 20
0.0
 30
0.0
 70
   128
  0
VERTEX
  5
313
100
AcDbEntity
  8
1
  6
Continuous
 62
     6
 48
0.75
100
AcDbVertex
100
AcDb2dVertex
 10
-1080.416998
 20
8.832334
 30
0.0
 40
0.0
 41
0.0
  0
VERTEX
  5
314
100
AcDbEntity
  8
1
  6
Continuous
 62
     6
 48
0.75
100
AcDbVertex
100
AcDb2dVertex
 10
-1073.271998
 20
-21.860166
 30
0.0
 40
0.0
 41
0.0
  0
VERTEX
  5
315
100
AcDbEntity
  8
1
  6
Continuous
 62
     6
 48
0.75
100
AcDbVertex
100
AcDb2dVertex
 10
-1097.911998
 20
-44.690166
 30
0.0
 40
0.0
 41
0.0
  0
VERTEX
  5
316
100
AcDbEntity
  8
1
  6
Continuous
 62
     6
 48
0.75
100
AcDbVertex
100
AcDb2dVertex
 10
-1111.156998
 20
-55.627666
 30
0.0
 40
0.0
 41
0.0
  0
VERTEX
  5
317
100
AcDbEntity
  8
1
  6
Continuous
 62
     6
 48
0.75
100
AcDbVertex
100
AcDb2dVertex
 10
-1122.861998
 20
-66.565166
 30
0.0
 40
0.0
 41
0.0
  0
VERTEX
  5
318
100
AcDbEntity
  8
1
  6
Continuous
 62
     6
 48
0.75
100
AcDbVertex
100
AcDb2dVertex
 10
-1128.714498
 20
-71.567666
 30
0.0
 40
0.0
 41
0.0
  0
SEQEND
  5
319
100
AcDbEntity
  8
0
  0
POLYLINE
  5
31A
100
AcDbEntity
  8
1
  6
Continuous
 62
     6
 48
0.75
100
AcDb2dPolyline
 66
     1
 10
0.0
 20
0.0
 30
0.0
 70
   128
  0
VERTEX
  5
31B
100
AcDbEntity
  8
1
  6
Continuous
 62
     6
 48
0.75
100
AcDbVertex
100
AcDb2dVertex
 10
-1190.934498
 20
8.262334
 30
0.0
 40
0.0
 41
0.0
  0
VERTEX
  5
31C
100
AcDbEntity
  8
1
  6
Continuous
 62
     6
 48
0.75
100
AcDbVertex
100
AcDb2dVertex
 10
-1198.941998
 20
-31.487666
 30
0.0
 40
0.0
 41
0.0
  0
VERTEX
  5
31D
100
AcDbEntity
  8
1
  6
Continuous
 62
     6
 48
0.75
100
AcDbVertex
100
AcDb2dVertex
 10
-1182.326998
 20
-44.690166
 30
0.0
 40
0.0
 41
0.0
  0
VERTEX
  5
31E
100
AcDbEntity
  8
1
  6
Continuous
 62
     6
 48
0.75
100
AcDbVertex
100
AcDb2dVertex
 10
-1165.676998
 20
-55.627666
 30
0.0
 40
0.0
 41
0.0
  0
VERTEX
  5
31F
100
AcDbEntity
  8
1
  6
Continuous
 62
     6
 48
0.75
100
AcDbVertex
100
AcDb2dVertex
 10
-1151.139498
 20
-66.565166
 30
0.0
 40
0.0
 41
0.0
  0
VERTEX
  5
320
100
AcDbEntity
  8
1
  6
Continuous
 62
     6
 48
0.75
100
AcDbVertex
100
AcDb2dVertex
 10
-1136.214498
 20
-77.502666
 30
0.0
 40
0.0
 41
0.0
  0
VERTEX
  5
321
100
AcDbEntity
  8
1
  6
Continuous
 62
     6
 48
0.75
100
AcDbVertex
100
AcDb2dVertex
 10
-1128.714498
 20
-83.005166
 30
0.0
 40
0.0
 41
0.0
  0
SEQEND
  5
322
100
AcDbEntity
  8
0
  0
POLYLINE
  5
323
100
AcDbEntity
  8
1
  6
Continuous
 62
     6
 48
0.75
100
AcDb2dPolyline
 66
     1
 10
0.0
 20
0.0
 30
0.0
 70
   128
  0
VERTEX
  5
324
100
AcDbEntity
  8
1
  6
Continuous
 62
     6
 48
0.75
100
AcDbVertex
100
AcDb2dVertex
 10
-1190.934498
 20
8.262334
 30
0.0
 40
0.0
 41
0.0
  0
VERTEX
  5
325
100
AcDbEntity
  8
1
  6
Continuous
 62
     6
 48
0.75
100
AcDbVertex
100
AcDb2dVertex
 10
-1198.941998
 20
-31.487666
 30
0.0
 40
0.0
 41
0.0
  0
VERTEX
  5
326
100
AcDbEntity
  8
1
  6
Continuous
 62
     6
 48
0.75
100
AcDbVertex
100
AcDb2dVertex
 10
-1182.326998
 20
-44.690166
 30
0.0
 40
0.0
 41
0.0
  0
VERTEX
  5
327
100
AcDbEntity
  8
1
  6
Continuous
 62
     6
 48
0.75
100
AcDbVertex
100
AcDb2dVertex
 10
-1165.676998
 20
-55.627666
 30
0.0
 40
0.0
 41
0.0
  0
VERTEX
  5
328
100
AcDbEntity
  8
1
  6
Continuous
 62
     6
 48
0.75
100
AcDbVertex
100
AcDb2dVertex
 10
-1151.139498
 20
-66.565166
 30
0.0
 40
0.0
 41
0.0
  0
VERTEX
  5
329
100
AcDbEntity
  8
1
  6
Continuous
 62
     6
 48
0.75
100
AcDbVertex
100
AcDb2dVertex
 10
-1136.214498
 20
-77.502666
 30
0.0
 40
0.0
 41
0.0
  0
VERTEX
  5
32A
100
AcDbEntity
  8
1
  6
Continuous
 62
     6
 48
0.75
100
AcDbVertex
100
AcDb2dVertex
 10
-1128.714498
 20
-83.005166
 30
0.0
 40
0.0
 41
0.0
  0
SEQEND
  5
32B
100
AcDbEntity
  8
0
  0
POLYLINE
  5
32C
100
AcDbEntity
  8
1
  6
Continuous
 62
     6
 48
0.75
100
AcDb2dPolyline
 66
     1
 10
0.0
 20
0.0
 30
0.0
 70
   128
  0
VERTEX
  5
32D
100
AcDbEntity
  8
1
  6
Continuous
 62
     6
 48
0.75
100
AcDbVertex
100
AcDb2dVertex
 10
-1066.494498
 20
8.262334
 30
0.0
 40
0.0
 41
0.0
  0
VERTEX
  5
32E
100
AcDbEntity
  8
1
  6
Continuous
 62
     6
 48
0.75
100
AcDbVertex
100
AcDb2dVertex
 10
-1058.486998
 20
-31.487666
 30
0.0
 40
0.0
 41
0.0
  0
VERTEX
  5
32F
100
AcDbEntity
  8
1
  6
Continuous
 62
     6
 48
0.75
100
AcDbVertex
100
AcDb2dVertex
 10
-1075.101998
 20
-44.690166
 30
0.0
 40
0.0
 41
0.0
  0
VERTEX
  5
330
100
AcDbEntity
  8
1
  6
Continuous
 62
     6
 48
0.75
100
AcDbVertex
100
AcDb2dVertex
 10
-1091.751998
 20
-55.627666
 30
0.0
 40
0.0
 41
0.0
  0
VERTEX
  5
331
100
AcDbEntity
  8
1
  6
Continuous
 62
     6
 48
0.75
100
AcDbVertex
100
AcDb2dVertex
 10
-1106.289498
 20
-66.565166
 30
0.0
 40
0.0
 41
0.0
  0
VERTEX
  5
332
100
AcDbEntity
  8
1
  6
Continuous
 62
     6
 48
0.75
100
AcDbVertex
100
AcDb2dVertex
 10
-1121.214498
 20
-77.502666
 30
0.0
 40
0.0
 41
0.0
  0
VERTEX
  5
333
100
AcDbEntity
  8
1
  6
Continuous
 62
     6
 48
0.75
100
AcDbVertex
100
AcDb2dVertex
 10
-1128.714498
 20
-83.005166
 30
0.0
 40
0.0
 41
0.0
  0
SEQEND
  5
334
100
AcDbEntity
  8
0
  0
POLYLINE
  5
335
100
AcDbEntity
  8
1
  6
Continuous
 62
     6
 48
0.75
100
AcDb2dPolyline
 66
     1
 10
0.0
 20
0.0
 30
0.0
 70
   128
  0
VERTEX
  5
336
100
AcDbEntity
  8
1
  6
Continuous
 62
     6
 48
0.75
100
AcDbVertex
100
AcDb2dVertex
 10
-1204.486998
 20
7.309834
 30
0.0
 40
0.0
 41
0.0
  0
VERTEX
  5
337
100
AcDbEntity
  8
1
  6
Continuous
 62
     6
 48
0.75
100
AcDbVertex
100
AcDb2dVertex
 10
-1213.111998
 20
-39.097666
 30
0.0
 40
0.0
 41
0.0
  0
VERTEX
  5
338
100
AcDbEntity
  8
1
  6
Continuous
 62
     6
 48
0.75
100
AcDbVertex
100
AcDb2dVertex
 10
-1203.871998
 20
-44.690166
 30
0.0
 40
0.0
 41
0.0
  0
VERTEX
  5
339
100
AcDbEntity
  8
1
  6
Continuous
 62
     6
 48
0.75
100
AcDbVertex
100
AcDb2dVertex
 10
-1186.006998
 20
-55.627666
 30
0.0
 40
0.0
 41
0.0
  0
VERTEX
  5
33A
100
AcDbEntity
  8
1
  6
Continuous
 62
     6
 48
0.75
100
AcDbVertex
100
AcDb2dVertex
 10
-1168.141998
 20
-66.565166
 30
0.0
 40
0.0
 41
0.0
  0
VERTEX
  5
33B
100
AcDbEntity
  8
1
  6
Continuous
 62
     6
 48
0.75
100
AcDbVertex
100
AcDb2dVertex
 10
-1148.714498
 20
-77.502666
 30
0.0
 40
0.0
 41
0.0
  0
VERTEX
  5
33C
100
AcDbEntity
  8
1
  6
Continuous
 62
     6
 48
0.75
100
AcDbVertex
100
AcDb2dVertex
 10
-1128.714498
 20
-88.440166
 30
0.0
 40
0.0
 41
0.0
  0
SEQEND
  5
33D
100
AcDbEntity
  8
0
  0
POLYLINE
  5
33E
100
AcDbEntity
  8
1
  6
Continuous
 62
     6
 48
0.75
100
AcDb2dPolyline
 66
     1
 10
0.0
 20
0.0
 30
0.0
 70
   128
  0
VERTEX
  5
33F
100
AcDbEntity
  8
1
  6
Continuous
 62
     6
 48
0.75
100
AcDbVertex
100
AcDb2dVertex
 10
-1204.486998
 20
7.309834
 30
0.0
 40
0.0
 41
0.0
  0
VERTEX
  5
340
100
AcDbEntity
  8
1
  6
Continuous
 62
     6
 48
0.75
100
AcDbVertex
100
AcDb2dVertex
 10
-1213.111998
 20
-39.097666
 30
0.0
 40
0.0
 41
0.0
  0
VERTEX
  5
341
100
AcDbEntity
  8
1
  6
Continuous
 62
     6
 48
0.75
100
AcDbVertex
100
AcDb2dVertex
 10
-1203.871998
 20
-44.690166
 30
0.0
 40
0.0
 41
0.0
  0
VERTEX
  5
342
100
AcDbEntity
  8
1
  6
Continuous
 62
     6
 48
0.75
100
AcDbVertex
100
AcDb2dVertex
 10
-1186.006998
 20
-55.627666
 30
0.0
 40
0.0
 41
0.0
  0
VERTEX
  5
343
100
AcDbEntity
  8
1
  6
Continuous
 62
     6
 48
0.75
100
AcDbVertex
100
AcDb2dVertex
 10
-1168.141998
 20
-66.565166
 30
0.0
 40
0.0
 41
0.0
  0
VERTEX
  5
344
100
AcDbEntity
  8
1
  6
Continuous
 62
     6
 48
0.75
100
AcDbVertex
100
AcDb2dVertex
 10
-1148.714498
 20
-77.502666
 30
0.0
 40
0.0
 41
0.0
  0
VERTEX
  5
345
100
AcDbEntity
  8
1
  6
Continuous
 62
     6
 48
0.75
100
AcDbVertex
100
AcDb2dVertex
 10
-1128.714498
 20
-88.440166
 30
0.0
 40
0.0
 41
0.0
  0
SEQEND
  5
346
100
AcDbEntity
  8
0
  0
POLYLINE
  5
347
100
AcDbEntity
  8
1
  6
Continuous
 62
     6
 48
0.75
100
AcDb2dPolyline
 66
     1
 10
0.0
 20
0.0
 30
0.0
 70
   128
  0
VERTEX
  5
348
100
AcDbEntity
  8
1
  6
Continuous
 62
     6
 48
0.75
100
AcDbVertex
100
AcDb2dVertex
 10
-1052.941998
 20
7.309834
 30
0.0
 40
0.0
 41
0.0
  0
VERTEX
  5
349
100
AcDbEntity
  8
1
  6
Continuous
 62
     6
 48
0.75
100
AcDbVertex
100
AcDb2dVertex
 10
-1044.316998
 20
-39.097666
 30
0.0
 40
0.0
 41
0.0
  0
VERTEX
  5
34A
100
AcDbEntity
  8
1
  6
Continuous
 62
     6
 48
0.75
100
AcDbVertex
100
AcDb2dVertex
 10
-1053.556998
 20
-44.690166
 30
0.0
 40
0.0
 41
0.0
  0
VERTEX
  5
34B
100
AcDbEntity
  8
1
  6
Continuous
 62
     6
 48
0.75
100
AcDbVertex
100
AcDb2dVertex
 10
-1071.421998
 20
-55.627666
 30
0.0
 40
0.0
 41
0.0
  0
VERTEX
  5
34C
100
AcDbEntity
  8
1
  6
Continuous
 62
     6
 48
0.75
100
AcDbVertex
100
AcDb2dVertex
 10
-1089.286998
 20
-66.565166
 30
0.0
 40
0.0
 41
0.0
  0
VERTEX
  5
34D
100
AcDbEntity
  8
1
  6
Continuous
 62
     6
 48
0.75
100
AcDbVertex
100
AcDb2dVertex
 10
-1108.714498
 20
-77.502666
 30
0.0
 40
0.0
 41
0.0
  0
VERTEX
  5
34E
100
AcDbEntity
  8
1
  6
Continuous
 62
     6
 48
0.75
100
AcDbVertex
100
AcDb2dVertex
 10
-1128.714498
 20
-88.440166
 30
0.0
 40
0.0
 41
0.0
  0
SEQEND
  5
34F
100
AcDbEntity
  8
0
  0
POLYLINE
  5
350
100
AcDbEntity
  8
1
  6
Continuous
 62
     6
 48
0.75
100
AcDb2dPolyline
 66
     1
 10
0.0
 20
0.0
 30
0.0
 70
   128
  0
VERTEX
  5
351
100
AcDbEntity
  8
1
  6
Continuous
 62
     6
 48
0.75
100
AcDbVertex
100
AcDb2dVertex
 10
-1216.451998
 20
6.042334
 30
0.0
 40
0.0
 41
0.0
  0
VERTEX
  5
352
100
AcDbEntity
  8
1
  6
Continuous
 62
     6
 48
0.75
100
AcDbVertex
100
AcDb2dVertex
 10
-1225.584498
 20
-43.105166
 30
0.0
 40
0.0
 41
0.0
  0
VERTEX
  5
353
100
AcDbEntity
  8
1
  6
Continuous
 62
     6
 48
0.75
100
AcDbVertex
100
AcDb2dVertex
 10
-1220.504498
 20
-44.690166
 30
0.0
 40
0.0
 41
0.0
  0
VERTEX
  5
354
100
AcDbEntity
  8
1
  6
Continuous
 62
     6
 48
0.75
100
AcDbVertex
100
AcDb2dVertex
 10
-1198.941998
 20
-55.627666
 30
0.0
 40
0.0
 41
0.0
  0
VERTEX
  5
355
100
AcDbEntity
  8
1
  6
Continuous
 62
     6
 48
0.75
100
AcDbVertex
100
AcDb2dVertex
 10
-1176.764498
 20
-66.565166
 30
0.0
 40
0.0
 41
0.0
  0
VERTEX
  5
356
100
AcDbEntity
  8
1
  6
Continuous
 62
     6
 48
0.75
100
AcDbVertex
100
AcDb2dVertex
 10
-1153.739498
 20
-77.502666
 30
0.0
 40
0.0
 41
0.0
  0
VERTEX
  5
357
100
AcDbEntity
  8
1
  6
Continuous
 62
     6
 48
0.75
100
AcDbVertex
100
AcDb2dVertex
 10
-1128.714498
 20
-88.440166
 30
0.0
 40
0.0
 41
0.0
  0
SEQEND
  5
358
100
AcDbEntity
  8
0
  0
POLYLINE
  5
359
100
AcDbEntity
  8
1
  6
Continuous
 62
     6
 48
0.75
100
AcDb2dPolyline
 66
     1
 10
0.0
 20
0.0
 30
0.0
 70
   128
  0
VERTEX
  5
35A
100
AcDbEntity
  8
1
  6
Continuous
 62
     6
 48
0.75
100
AcDbVertex
100
AcDb2dVertex
 10
-1216.451998
 20
6.042334
 30
0.0
 40
0.0
 41
0.0
  0
VERTEX
  5
35B
100
AcDbEntity
  8
1
  6
Continuous
 62
     6
 48
0.75
100
AcDbVertex
100
AcDb2dVertex
 10
-1225.584498
 20
-43.105166
 30
0.0
 40
0.0
 41
0.0
  0
VERTEX
  5
35C
100
AcDbEntity
  8
1
  6
Continuous
 62
     6
 48
0.75
100
AcDbVertex
100
AcDb2dVertex
 10
-1220.504498
 20
-44.690166
 30
0.0
 40
0.0
 41
0.0
  0
VERTEX
  5
35D
100
AcDbEntity
  8
1
  6
Continuous
 62
     6
 48
0.75
100
AcDbVertex
100
AcDb2dVertex
 10
-1198.941998
 20
-55.627666
 30
0.0
 40
0.0
 41
0.0
  0
VERTEX
  5
35E
100
AcDbEntity
  8
1
  6
Continuous
 62
     6
 48
0.75
100
AcDbVertex
100
AcDb2dVertex
 10
-1176.764498
 20
-66.565166
 30
0.0
 40
0.0
 41
0.0
  0
VERTEX
  5
35F
100
AcDbEntity
  8
1
  6
Continuous
 62
     6
 48
0.75
100
AcDbVertex
100
AcDb2dVertex
 10
-1153.739498
 20
-77.502666
 30
0.0
 40
0.0
 41
0.0
  0
VERTEX
  5
360
100
AcDbEntity
  8
1
  6
Continuous
 62
     6
 48
0.75
100
AcDbVertex
100
AcDb2dVertex
 10
-1128.714498
 20
-88.440166
 30
0.0
 40
0.0
 41
0.0
  0
SEQEND
  5
361
100
AcDbEntity
  8
0
  0
POLYLINE
  5
362
100
AcDbEntity
  8
1
  6
Continuous
 62
     6
 48
0.75
100
AcDb2dPolyline
 66
     1
 10
0.0
 20
0.0
 30
0.0
 70
   128
  0
VERTEX
  5
363
100
AcDbEntity
  8
1
  6
Continuous
 62
     6
 48
0.75
100
AcDbVertex
100
AcDb2dVertex
 10
-1040.976998
 20
6.042334
 30
0.0
 40
0.0
 41
0.0
  0
VERTEX
  5
364
100
AcDbEntity
  8
1
  6
Continuous
 62
     6
 48
0.75
100
AcDbVertex
100
AcDb2dVertex
 10
-1031.844498
 20
-43.105166
 30
0.0
 40
0.0
 41
0.0
  0
VERTEX
  5
365
100
AcDbEntity
  8
1
  6
Continuous
 62
     6
 48
0.75
100
AcDbVertex
100
AcDb2dVertex
 10
-1036.924498
 20
-44.690166
 30
0.0
 40
0.0
 41
0.0
  0
VERTEX
  5
366
100
AcDbEntity
  8
1
  6
Continuous
 62
     6
 48
0.75
100
AcDbVertex
100
AcDb2dVertex
 10
-1058.486998
 20
-55.627666
 30
0.0
 40
0.0
 41
0.0
  0
VERTEX
  5
367
100
AcDbEntity
  8
1
  6
Continuous
 62
     6
 48
0.75
100
AcDbVertex
100
AcDb2dVertex
 10
-1080.664498
 20
-66.565166
 30
0.0
 40
0.0
 41
0.0
  0
VERTEX
  5
368
100
AcDbEntity
  8
1
  6
Continuous
 62
     6
 48
0.75
100
AcDbVertex
100
AcDb2dVertex
 10
-1103.689498
 20
-77.502666
 30
0.0
 40
0.0
 41
0.0
  0
VERTEX
  5
369
100
AcDbEntity
  8
1
  6
Continuous
 62
     6
 48
0.75
100
AcDbVertex
100
AcDb2dVertex
 10
-1128.714498
 20
-88.440166
 30
0.0
 40
0.0
 41
0.0
  0
SEQEND
  5
36A
100
AcDbEntity
  8
0
  0
POLYLINE
  5
36B
100
AcDbEntity
  8
1
  6
Continuous
 62
     6
 48
0.75
100
AcDb2dPolyline
 66
     1
 10
0.0
 20
0.0
 30
0.0
 70
   128
  0
VERTEX
  5
36C
100
AcDbEntity
  8
1
  6
Continuous
 62
     6
 48
0.75
100
AcDbVertex
100
AcDb2dVertex
 10
-1224.199498
 20
5.407334
 30
0.0
 40
0.0
 41
0.0
  0
VERTEX
  5
36D
100
AcDbEntity
  8
1
  6
Continuous
 62
     6
 48
0.75
100
AcDbVertex
100
AcDb2dVertex
 10
-1233.089498
 20
-44.690166
 30
0.0
 40
0.0
 41
0.0
  0
VERTEX
  5
36E
100
AcDbEntity
  8
1
  6
Continuous
 62
     6
 48
0.75
100
AcDbVertex
100
AcDb2dVertex
 10
-1230.361998
 20
-44.690166
 30
0.0
 40
0.0
 41
0.0
  0
VERTEX
  5
36F
100
AcDbEntity
  8
1
  6
Continuous
 62
     6
 48
0.75
100
AcDbVertex
100
AcDb2dVertex
 10
-1206.334498
 20
-55.627666
 30
0.0
 40
0.0
 41
0.0
  0
VERTEX
  5
370
100
AcDbEntity
  8
1
  6
Continuous
 62
     6
 48
0.75
100
AcDbVertex
100
AcDb2dVertex
 10
-1182.309498
 20
-66.565166
 30
0.0
 40
0.0
 41
0.0
  0
VERTEX
  5
371
100
AcDbEntity
  8
1
  6
Continuous
 62
     6
 48
0.75
100
AcDbVertex
100
AcDb2dVertex
 10
-1155.819498
 20
-77.502666
 30
0.0
 40
0.0
 41
0.0
  0
VERTEX
  5
372
100
AcDbEntity
  8
1
  6
Continuous
 62
     6
 48
0.75
100
AcDbVertex
100
AcDb2dVertex
 10
-1128.714498
 20
-88.440166
 30
0.0
 40
0.0
 41
0.0
  0
SEQEND
  5
373
100
AcDbEntity
  8
0
  0
POLYLINE
  5
374
100
AcDbEntity
  8
1
  6
Continuous
 62
     6
 48
0.75
100
AcDb2dPolyline
 66
     1
 10
0.0
 20
0.0
 30
0.0
 70
   128
  0
VERTEX
  5
375
100
AcDbEntity
  8
1
  6
Continuous
 62
     6
 48
0.75
100
AcDbVertex
100
AcDb2dVertex
 10
-1224.199498
 20
5.407334
 30
0.0
 40
0.0
 41
0.0
  0
VERTEX
  5
376
100
AcDbEntity
  8
1
  6
Continuous
 62
     6
 48
0.75
100
AcDbVertex
100
AcDb2dVertex
 10
-1233.089498
 20
-44.690166
 30
0.0
 40
0.0
 41
0.0
  0
VERTEX
  5
377
100
AcDbEntity
  8
1
  6
Continuous
 62
     6
 48
0.75
100
AcDbVertex
100
AcDb2dVertex
 10
-1230.361998
 20
-44.690166
 30
0.0
 40
0.0
 41
0.0
  0
VERTEX
  5
378
100
AcDbEntity
  8
1
  6
Continuous
 62
     6
 48
0.75
100
AcDbVertex
100
AcDb2dVertex
 10
-1206.334498
 20
-55.627666
 30
0.0
 40
0.0
 41
0.0
  0
VERTEX
  5
379
100
AcDbEntity
  8
1
  6
Continuous
 62
     6
 48
0.75
100
AcDbVertex
100
AcDb2dVertex
 10
-1182.309498
 20
-66.565166
 30
0.0
 40
0.0
 41
0.0
  0
VERTEX
  5
37A
100
AcDbEntity
  8
1
  6
Continuous
 62
     6
 48
0.75
100
AcDbVertex
100
AcDb2dVertex
 10
-1155.819498
 20
-77.502666
 30
0.0
 40
0.0
 41
0.0
  0
VERTEX
  5
37B
100
AcDbEntity
  8
1
  6
Continuous
 62
     6
 48
0.75
100
AcDbVertex
100
AcDb2dVertex
 10
-1128.714498
 20
-88.440166
 30
0.0
 40
0.0
 41
0.0
  0
SEQEND
  5
37C
100
AcDbEntity
  8
0
  0
POLYLINE
  5
37D
100
AcDbEntity
  8
1
  6
Continuous
 62
     6
 48
0.75
100
AcDb2dPolyline
 66
     1
 10
0.0
 20
0.0
 30
0.0
 70
   128
  0
VERTEX
  5
37E
100
AcDbEntity
  8
1
  6
Continuous
 62
     6
 48
0.75
100
AcDbVertex
100
AcDb2dVertex
 10
-1033.229498
 20
5.407334
 30
0.0
 40
0.0
 41
0.0
  0
VERTEX
  5
37F
100
AcDbEntity
  8
1
  6
Continuous
 62
     6
 48
0.75
100
AcDbVertex
100
AcDb2dVertex
 10
-1024.339498
 20
-44.690166
 30
0.0
 40
0.0
 41
0.0
  0
VERTEX
  5
380
100
AcDbEntity
  8
1
  6
Continuous
 62
     6
 48
0.75
100
AcDbVertex
100
AcDb2dVertex
 10
-1027.066998
 20
-44.690166
 30
0.0
 40
0.0
 41
0.0
  0
VERTEX
  5
381
100
AcDbEntity
  8
1
  6
Continuous
 62
     6
 48
0.75
100
AcDbVertex
100
AcDb2dVertex
 10
-1051.094498
 20
-55.627666
 30
0.0
 40
0.0
 41
0.0
  0
VERTEX
  5
382
100
AcDbEntity
  8
1
  6
Continuous
 62
     6
 48
0.75
100
AcDbVertex
100
AcDb2dVertex
 10
-1075.119498
 20
-66.565166
 30
0.0
 40
0.0
 41
0.0
  0
VERTEX
  5
383
100
AcDbEntity
  8
1
  6
Continuous
 62
     6
 48
0.75
100
AcDbVertex
100
AcDb2dVertex
 10
-1101.609498
 20
-77.502666
 30
0.0
 40
0.0
 41
0.0
  0
VERTEX
  5
384
100
AcDbEntity
  8
1
  6
Continuous
 62
     6
 48
0.75
100
AcDbVertex
100
AcDb2dVertex
 10
-1128.714498
 20
-88.440166
 30
0.0
 40
0.0
 41
0.0
  0
SEQEND
  5
385
100
AcDbEntity
  8
0
  0
POLYLINE
  5
386
100
AcDbEntity
  8
1
  6
Continuous
 62
     6
 48
0.75
100
AcDb2dPolyline
 66
     1
 10
0.0
 20
0.0
 30
0.0
 70
   128
  0
VERTEX
  5
387
100
AcDbEntity
  8
1
  6
Continuous
 62
     6
 48
0.75
100
AcDbVertex
100
AcDb2dVertex
 10
-1227.034498
 20
5.282334
 30
0.0
 40
0.0
 41
0.0
  0
VERTEX
  5
388
100
AcDbEntity
  8
1
  6
Continuous
 62
     6
 48
0.75
100
AcDbVertex
100
AcDb2dVertex
 10
-1234.674498
 20
-44.055166
 30
0.0
 40
0.0
 41
0.0
  0
VERTEX
  5
389
100
AcDbEntity
  8
1
  6
Continuous
 62
     6
 48
0.75
100
AcDbVertex
100
AcDb2dVertex
 10
-1231.716998
 20
-44.690166
 30
0.0
 40
0.0
 41
0.0
  0
VERTEX
  5
38A
100
AcDbEntity
  8
1
  6
Continuous
 62
     6
 48
0.75
100
AcDbVertex
100
AcDb2dVertex
 10
-1209.414498
 20
-55.627666
 30
0.0
 40
0.0
 41
0.0
  0
VERTEX
  5
38B
100
AcDbEntity
  8
1
  6
Continuous
 62
     6
 48
0.75
100
AcDbVertex
100
AcDb2dVertex
 10
-1184.404498
 20
-66.565166
 30
0.0
 40
0.0
 41
0.0
  0
VERTEX
  5
38C
100
AcDbEntity
  8
1
  6
Continuous
 62
     6
 48
0.75
100
AcDbVertex
100
AcDb2dVertex
 10
-1156.839498
 20
-77.502666
 30
0.0
 40
0.0
 41
0.0
  0
VERTEX
  5
38D
100
AcDbEntity
  8
1
  6
Continuous
 62
     6
 48
0.75
100
AcDbVertex
100
AcDb2dVertex
 10
-1128.714498
 20
-88.440166
 30
0.0
 40
0.0
 41
0.0
  0
SEQEND
  5
38E
100
AcDbEntity
  8
0
  0
POLYLINE
  5
38F
100
AcDbEntity
  8
1
  6
Continuous
 62
     6
 48
0.75
100
AcDb2dPolyline
 66
     1
 10
0.0
 20
0.0
 30
0.0
 70
   128
  0
VERTEX
  5
390
100
AcDbEntity
  8
1
  6
Continuous
 62
     6
 48
0.75
100
AcDbVertex
100
AcDb2dVertex
 10
-1227.034498
 20
5.282334
 30
0.0
 40
0.0
 41
0.0
  0
VERTEX
  5
391
100
AcDbEntity
  8
1
  6
Continuous
 62
     6
 48
0.75
100
AcDbVertex
100
AcDb2dVertex
 10
-1234.674498
 20
-44.055166
 30
0.0
 40
0.0
 41
0.0
  0
VERTEX
  5
392
100
AcDbEntity
  8
1
  6
Continuous
 62
     6
 48
0.75
100
AcDbVertex
100
AcDb2dVertex
 10
-1231.716998
 20
-44.690166
 30
0.0
 40
0.0
 41
0.0
  0
VERTEX
  5
393
100
AcDbEntity
  8
1
  6
Continuous
 62
     6
 48
0.75
100
AcDbVertex
100
AcDb2dVertex
 10
-1209.414498
 20
-55.627666
 30
0.0
 40
0.0
 41
0.0
  0
VERTEX
  5
394
100
AcDbEntity
  8
1
  6
Continuous
 62
     6
 48
0.75
100
AcDbVertex
100
AcDb2dVertex
 10
-1184.404498
 20
-66.565166
 30
0.0
 40
0.0
 41
0.0
  0
VERTEX
  5
395
100
AcDbEntity
  8
1
  6
Continuous
 62
     6
 48
0.75
100
AcDbVertex
100
AcDb2dVertex
 10
-1156.839498
 20
-77.502666
 30
0.0
 40
0.0
 41
0.0
  0
VERTEX
  5
396
100
AcDbEntity
  8
1
  6
Continuous
 62
     6
 48
0.75
100
AcDbVertex
100
AcDb2dVertex
 10
-1128.714498
 20
-88.440166
 30
0.0
 40
0.0
 41
0.0
  0
SEQEND
  5
397
100
AcDbEntity
  8
0
  0
POLYLINE
  5
398
100
AcDbEntity
  8
1
  6
Continuous
 62
     6
 48
0.75
100
AcDb2dPolyline
 66
     1
 10
0.0
 20
0.0
 30
0.0
 70
   128
  0
VERTEX
  5
399
100
AcDbEntity
  8
1
  6
Continuous
 62
     6
 48
0.75
100
AcDbVertex
100
AcDb2dVertex
 10
-1030.394498
 20
5.282334
 30
0.0
 40
0.0
 41
0.0
  0
VERTEX
  5
39A
100
AcDbEntity
  8
1
  6
Continuous
 62
     6
 48
0.75
100
AcDbVertex
100
AcDb2dVertex
 10
-1022.754498
 20
-44.055166
 30
0.0
 40
0.0
 41
0.0
  0
VERTEX
  5
39B
100
AcDbEntity
  8
1
  6
Continuous
 62
     6
 48
0.75
100
AcDbVertex
100
AcDb2dVertex
 10
-1025.711998
 20
-44.690166
 30
0.0
 40
0.0
 41
0.0
  0
VERTEX
  5
39C
100
AcDbEntity
  8
1
  6
Continuous
 62
     6
 48
0.75
100
AcDbVertex
100
AcDb2dVertex
 10
-1048.014498
 20
-55.627666
 30
0.0
 40
0.0
 41
0.0
  0
VERTEX
  5
39D
100
AcDbEntity
  8
1
  6
Continuous
 62
     6
 48
0.75
100
AcDbVertex
100
AcDb2dVertex
 10
-1073.024498
 20
-66.565166
 30
0.0
 40
0.0
 41
0.0
  0
VERTEX
  5
39E
100
AcDbEntity
  8
1
  6
Continuous
 62
     6
 48
0.75
100
AcDbVertex
100
AcDb2dVertex
 10
-1100.589498
 20
-77.502666
 30
0.0
 40
0.0
 41
0.0
  0
VERTEX
  5
39F
100
AcDbEntity
  8
1
  6
Continuous
 62
     6
 48
0.75
100
AcDbVertex
100
AcDb2dVertex
 10
-1128.714498
 20
-88.440166
 30
0.0
 40
0.0
 41
0.0
  0
SEQEND
  5
3A0
100
AcDbEntity
  8
0
  0
POLYLINE
  5
3A1
100
AcDbEntity
  8
1
  6
Continuous
 62
     6
 48
0.75
100
AcDb2dPolyline
 66
     1
 10
0.0
 20
0.0
 30
0.0
 70
   128
  0
VERTEX
  5
3A2
100
AcDbEntity
  8
1
  6
Continuous
 62
     6
 48
0.75
100
AcDbVertex
100
AcDb2dVertex
 10
-1227.896998
 20
5.407334
 30
0.0
 40
0.0
 41
0.0
  0
VERTEX
  5
3A3
100
AcDbEntity
  8
1
  6
Continuous
 62
     6
 48
0.75
100
AcDbVertex
100
AcDb2dVertex
 10
-1234.981998
 20
-42.660166
 30
0.0
 40
0.0
 41
0.0
  0
VERTEX
  5
3A4
100
AcDbEntity
  8
1
  6
Continuous
 62
     6
 48
0.75
100
AcDbVertex
100
AcDb2dVertex
 10
-1230.976998
 20
-44.690166
 30
0.0
 40
0.0
 41
0.0
  0
VERTEX
  5
3A5
100
AcDbEntity
  8
1
  6
Continuous
 62
     6
 48
0.75
100
AcDbVertex
100
AcDb2dVertex
 10
-1209.414498
 20
-55.627666
 30
0.0
 40
0.0
 41
0.0
  0
VERTEX
  5
3A6
100
AcDbEntity
  8
1
  6
Continuous
 62
     6
 48
0.75
100
AcDbVertex
100
AcDb2dVertex
 10
-1184.156998
 20
-66.565166
 30
0.0
 40
0.0
 41
0.0
  0
VERTEX
  5
3A7
100
AcDbEntity
  8
1
  6
Continuous
 62
     6
 48
0.75
100
AcDbVertex
100
AcDb2dVertex
 10
-1156.714498
 20
-77.502666
 30
0.0
 40
0.0
 41
0.0
  0
VERTEX
  5
3A8
100
AcDbEntity
  8
1
  6
Continuous
 62
     6
 48
0.75
100
AcDbVertex
100
AcDb2dVertex
 10
-1128.714498
 20
-88.440166
 30
0.0
 40
0.0
 41
0.0
  0
SEQEND
  5
3A9
100
AcDbEntity
  8
0
  0
POLYLINE
  5
3AA
100
AcDbEntity
  8
1
  6
Continuous
 62
     6
 48
0.75
100
AcDb2dPolyline
 66
     1
 10
0.0
 20
0.0
 30
0.0
 70
   128
  0
VERTEX
  5
3AB
100
AcDbEntity
  8
1
  6
Continuous
 62
     6
 48
0.75
100
AcDbVertex
100
AcDb2dVertex
 10
-1227.896998
 20
5.407334
 30
0.0
 40
0.0
 41
0.0
  0
VERTEX
  5
3AC
100
AcDbEntity
  8
1
  6
Continuous
 62
     6
 48
0.75
100
AcDbVertex
100
AcDb2dVertex
 10
-1234.981998
 20
-42.660166
 30
0.0
 40
0.0
 41
0.0
  0
VERTEX
  5
3AD
100
AcDbEntity
  8
1
  6
Continuous
 62
     6
 48
0.75
100
AcDbVertex
100
AcDb2dVertex
 10
-1230.976998
 20
-44.690166
 30
0.0
 40
0.0
 41
0.0
  0
VERTEX
  5
3AE
100
AcDbEntity
  8
1
  6
Continuous
 62
     6
 48
0.75
100
AcDbVertex
100
AcDb2dVertex
 10
-1209.414498
 20
-55.627666
 30
0.0
 40
0.0
 41
0.0
  0
VERTEX
  5
3AF
100
AcDbEntity
  8
1
  6
Continuous
 62
     6
 48
0.75
100
AcDbVertex
100
AcDb2dVertex
 10
-1184.156998
 20
-66.565166
 30
0.0
 40
0.0
 41
0.0
  0
VERTEX
  5
3B0
100
AcDbEntity
  8
1
  6
Continuous
 62
     6
 48
0.75
100
AcDbVertex
100
AcDb2dVertex
 10
-1156.714498
 20
-77.502666
 30
0.0
 40
0.0
 41
0.0
  0
VERTEX
  5
3B1
100
AcDbEntity
  8
1
  6
Continuous
 62
     6
 48
0.75
100
AcDbVertex
100
AcDb2dVertex
 10
-1128.714498
 20
-88.440166
 30
0.0
 40
0.0
 41
0.0
  0
SEQEND
  5
3B2
100
AcDbEntity
  8
0
  0
POLYLINE
  5
3B3
100
AcDbEntity
  8
1
  6
Continuous
 62
     6
 48
0.75
100
AcDb2dPolyline
 66
     1
 10
0.0
 20
0.0
 30
0.0
 70
   128
  0
VERTEX
  5
3B4
100
AcDbEntity
  8
1
  6
Continuous
 62
     6
 48
0.75
100
AcDbVertex
100
AcDb2dVertex
 10
-1029.531998
 20
5.407334
 30
0.0
 40
0.0
 41
0.0
  0
VERTEX
  5
3B5
100
AcDbEntity
  8
1
  6
Continuous
 62
     6
 48
0.75
100
AcDbVertex
100
AcDb2dVertex
 10
-1022.446998
 20
-42.660166
 30
0.0
 40
0.0
 41
0.0
  0
VERTEX
  5
3B6
100
AcDbEntity
  8
1
  6
Continuous
 62
     6
 48
0.75
100
AcDbVertex
100
AcDb2dVertex
 10
-1026.451998
 20
-44.690166
 30
0.0
 40
0.0
 41
0.0
  0
VERTEX
  5
3B7
100
AcDbEntity
  8
1
  6
Continuous
 62
     6
 48
0.75
100
AcDbVertex
100
AcDb2dVertex
 10
-1048.014498
 20
-55.627666
 30
0.0
 40
0.0
 41
0.0
  0
VERTEX
  5
3B8
100
AcDbEntity
  8
1
  6
Continuous
 62
     6
 48
0.75
100
AcDbVertex
100
AcDb2dVertex
 10
-1073.271998
 20
-66.565166
 30
0.0
 40
0.0
 41
0.0
  0
VERTEX
  5
3B9
100
AcDbEntity
  8
1
  6
Continuous
 62
     6
 48
0.75
100
AcDbVertex
100
AcDb2dVertex
 10
-1100.714498
 20
-77.502666
 30
0.0
 40
0.0
 41
0.0
  0
VERTEX
  5
3BA
100
AcDbEntity
  8
1
  6
Continuous
 62
     6
 48
0.75
100
AcDbVertex
100
AcDb2dVertex
 10
-1128.714498
 20
-88.440166
 30
0.0
 40
0.0
 41
0.0
  0
SEQEND
  5
3BB
100
AcDbEntity
  8
0
  0
POLYLINE
  5
3BC
100
AcDbEntity
  8
1
  6
Continuous
 62
     6
 48
0.75
100
AcDb2dPolyline
 66
     1
 10
0.0
 20
0.0
 30
0.0
 70
   128
  0
VERTEX
  5
3BD
100
AcDbEntity
  8
1
  6
Continuous
 62
     6
 48
0.75
100
AcDbVertex
100
AcDb2dVertex
 10
-1227.896998
 20
5.407334
 30
0.0
 40
0.0
 41
0.0
  0
VERTEX
  5
3BE
100
AcDbEntity
  8
1
  6
Continuous
 62
     6
 48
0.75
100
AcDbVertex
100
AcDb2dVertex
 10
-1234.981998
 20
-40.750166
 30
0.0
 40
0.0
 41
0.0
  0
VERTEX
  5
3BF
100
AcDbEntity
  8
1
  6
Continuous
 62
     6
 48
0.75
100
AcDbVertex
100
AcDb2dVertex
 10
-1226.664498
 20
-44.690166
 30
0.0
 40
0.0
 41
0.0
  0
VERTEX
  5
3C0
100
AcDbEntity
  8
1
  6
Continuous
 62
     6
 48
0.75
100
AcDbVertex
100
AcDb2dVertex
 10
-1204.486998
 20
-55.627666
 30
0.0
 40
0.0
 41
0.0
  0
VERTEX
  5
3C1
100
AcDbEntity
  8
1
  6
Continuous
 62
     6
 48
0.75
100
AcDbVertex
100
AcDb2dVertex
 10
-1180.461998
 20
-66.565166
 30
0.0
 40
0.0
 41
0.0
  0
VERTEX
  5
3C2
100
AcDbEntity
  8
1
  6
Continuous
 62
     6
 48
0.75
100
AcDbVertex
100
AcDb2dVertex
 10
-1154.964498
 20
-77.502666
 30
0.0
 40
0.0
 41
0.0
  0
VERTEX
  5
3C3
100
AcDbEntity
  8
1
  6
Continuous
 62
     6
 48
0.75
100
AcDbVertex
100
AcDb2dVertex
 10
-1128.714498
 20
-88.440166
 30
0.0
 40
0.0
 41
0.0
  0
SEQEND
  5
3C4
100
AcDbEntity
  8
0
  0
POLYLINE
  5
3C5
100
AcDbEntity
  8
1
  6
Continuous
 62
     6
 48
0.75
100
AcDb2dPolyline
 66
     1
 10
0.0
 20
0.0
 30
0.0
 70
   128
  0
VERTEX
  5
3C6
100
AcDbEntity
  8
1
  6
Continuous
 62
     6
 48
0.75
100
AcDbVertex
100
AcDb2dVertex
 10
-1227.896998
 20
5.407334
 30
0.0
 40
0.0
 41
0.0
  0
VERTEX
  5
3C7
100
AcDbEntity
  8
1
  6
Continuous
 62
     6
 48
0.75
100
AcDbVertex
100
AcDb2dVertex
 10
-1234.981998
 20
-40.750166
 30
0.0
 40
0.0
 41
0.0
  0
VERTEX
  5
3C8
100
AcDbEntity
  8
1
  6
Continuous
 62
     6
 48
0.75
100
AcDbVertex
100
AcDb2dVertex
 10
-1226.664498
 20
-44.690166
 30
0.0
 40
0.0
 41
0.0
  0
VERTEX
  5
3C9
100
AcDbEntity
  8
1
  6
Continuous
 62
     6
 48
0.75
100
AcDbVertex
100
AcDb2dVertex
 10
-1204.486998
 20
-55.627666
 30
0.0
 40
0.0
 41
0.0
  0
VERTEX
  5
3CA
100
AcDbEntity
  8
1
  6
Continuous
 62
     6
 48
0.75
100
AcDbVertex
100
AcDb2dVertex
 10
-1180.461998
 20
-66.565166
 30
0.0
 40
0.0
 41
0.0
  0
VERTEX
  5
3CB
100
AcDbEntity
  8
1
  6
Continuous
 62
     6
 48
0.75
100
AcDbVertex
100
AcDb2dVertex
 10
-1154.964498
 20
-77.502666
 30
0.0
 40
0.0
 41
0.0
  0
VERTEX
  5
3CC
100
AcDbEntity
  8
1
  6
Continuous
 62
     6
 48
0.75
100
AcDbVertex
100
AcDb2dVertex
 10
-1128.714498
 20
-88.440166
 30
0.0
 40
0.0
 41
0.0
  0
SEQEND
  5
3CD
100
AcDbEntity
  8
0
  0
POLYLINE
  5
3CE
100
AcDbEntity
  8
1
  6
Continuous
 62
     6
 48
0.75
100
AcDb2dPolyline
 66
     1
 10
0.0
 20
0.0
 30
0.0
 70
   128
  0
VERTEX
  5
3CF
100
AcDbEntity
  8
1
  6
Continuous
 62
     6
 48
0.75
100
AcDbVertex
100
AcDb2dVertex
 10
-1029.531998
 20
5.407334
 30
0.0
 40
0.0
 41
0.0
  0
VERTEX
  5
3D0
100
AcDbEntity
  8
1
  6
Continuous
 62
     6
 48
0.75
100
AcDbVertex
100
AcDb2dVertex
 10
-1022.446998
 20
-40.750166
 30
0.0
 40
0.0
 41
0.0
  0
VERTEX
  5
3D1
100
AcDbEntity
  8
1
  6
Continuous
 62
     6
 48
0.75
100
AcDbVertex
100
AcDb2dVertex
 10
-1030.764498
 20
-44.690166
 30
0.0
 40
0.0
 41
0.0
  0
VERTEX
  5
3D2
100
AcDbEntity
  8
1
  6
Continuous
 62
     6
 48
0.75
100
AcDbVertex
100
AcDb2dVertex
 10
-1052.941998
 20
-55.627666
 30
0.0
 40
0.0
 41
0.0
  0
VERTEX
  5
3D3
100
AcDbEntity
  8
1
  6
Continuous
 62
     6
 48
0.75
100
AcDbVertex
100
AcDb2dVertex
 10
-1076.966998
 20
-66.565166
 30
0.0
 40
0.0
 41
0.0
  0
VERTEX
  5
3D4
100
AcDbEntity
  8
1
  6
Continuous
 62
     6
 48
0.75
100
AcDbVertex
100
AcDb2dVertex
 10
-1102.464498
 20
-77.502666
 30
0.0
 40
0.0
 41
0.0
  0
VERTEX
  5
3D5
100
AcDbEntity
  8
1
  6
Continuous
 62
     6
 48
0.75
100
AcDbVertex
100
AcDb2dVertex
 10
-1128.714498
 20
-88.440166
 30
0.0
 40
0.0
 41
0.0
  0
SEQEND
  5
3D6
100
AcDbEntity
  8
0
  0
POLYLINE
  5
3D7
100
AcDbEntity
  8
1
  6
Continuous
 62
     6
 48
0.75
100
AcDb2dPolyline
 66
     1
 10
0.0
 20
0.0
 30
0.0
 70
   128
  0
VERTEX
  5
3D8
100
AcDbEntity
  8
1
  6
Continuous
 62
     6
 48
0.75
100
AcDbVertex
100
AcDb2dVertex
 10
-1227.896998
 20
5.407334
 30
0.0
 40
0.0
 41
0.0
  0
VERTEX
  5
3D9
100
AcDbEntity
  8
1
  6
Continuous
 62
     6
 48
0.75
100
AcDbVertex
100
AcDb2dVertex
 10
-1234.981998
 20
-37.715166
 30
0.0
 40
0.0
 41
0.0
  0
VERTEX
  5
3DA
100
AcDbEntity
  8
1
  6
Continuous
 62
     6
 48
0.75
100
AcDbVertex
100
AcDb2dVertex
 10
-1221.119498
 20
-44.690166
 30
0.0
 40
0.0
 41
0.0
  0
VERTEX
  5
3DB
100
AcDbEntity
  8
1
  6
Continuous
 62
     6
 48
0.75
100
AcDbVertex
100
AcDb2dVertex
 10
-1198.941998
 20
-55.627666
 30
0.0
 40
0.0
 41
0.0
  0
VERTEX
  5
3DC
100
AcDbEntity
  8
1
  6
Continuous
 62
     6
 48
0.75
100
AcDbVertex
100
AcDb2dVertex
 10
-1175.534498
 20
-66.565166
 30
0.0
 40
0.0
 41
0.0
  0
VERTEX
  5
3DD
100
AcDbEntity
  8
1
  6
Continuous
 62
     6
 48
0.75
100
AcDbVertex
100
AcDb2dVertex
 10
-1151.839498
 20
-77.502666
 30
0.0
 40
0.0
 41
0.0
  0
VERTEX
  5
3DE
100
AcDbEntity
  8
1
  6
Continuous
 62
     6
 48
0.75
100
AcDbVertex
100
AcDb2dVertex
 10
-1128.714498
 20
-88.440166
 30
0.0
 40
0.0
 41
0.0
  0
SEQEND
  5
3DF
100
AcDbEntity
  8
0
  0
POLYLINE
  5
3E0
100
AcDbEntity
  8
1
  6
Continuous
 62
     6
 48
0.75
100
AcDb2dPolyline
 66
     1
 10
0.0
 20
0.0
 30
0.0
 70
   128
  0
VERTEX
  5
3E1
100
AcDbEntity
  8
1
  6
Continuous
 62
     6
 48
0.75
100
AcDbVertex
100
AcDb2dVertex
 10
-1227.896998
 20
5.407334
 30
0.0
 40
0.0
 41
0.0
  0
VERTEX
  5
3E2
100
AcDbEntity
  8
1
  6
Continuous
 62
     6
 48
0.75
100
AcDbVertex
100
AcDb2dVertex
 10
-1234.981998
 20
-37.715166
 30
0.0
 40
0.0
 41
0.0
  0
VERTEX
  5
3E3
100
AcDbEntity
  8
1
  6
Continuous
 62
     6
 48
0.75
100
AcDbVertex
100
AcDb2dVertex
 10
-1221.119498
 20
-44.690166
 30
0.0
 40
0.0
 41
0.0
  0
VERTEX
  5
3E4
100
AcDbEntity
  8
1
  6
Continuous
 62
     6
 48
0.75
100
AcDbVertex
100
AcDb2dVertex
 10
-1198.941998
 20
-55.627666
 30
0.0
 40
0.0
 41
0.0
  0
VERTEX
  5
3E5
100
AcDbEntity
  8
1
  6
Continuous
 62
     6
 48
0.75
100
AcDbVertex
100
AcDb2dVertex
 10
-1175.534498
 20
-66.565166
 30
0.0
 40
0.0
 41
0.0
  0
VERTEX
  5
3E6
100
AcDbEntity
  8
1
  6
Continuous
 62
     6
 48
0.75
100
AcDbVertex
100
AcDb2dVertex
 10
-1151.839498
 20
-77.502666
 30
0.0
 40
0.0
 41
0.0
  0
VERTEX
  5
3E7
100
AcDbEntity
  8
1
  6
Continuous
 62
     6
 48
0.75
100
AcDbVertex
100
AcDb2dVertex
 10
-1128.714498
 20
-88.440166
 30
0.0
 40
0.0
 41
0.0
  0
SEQEND
  5
3E8
100
AcDbEntity
  8
0
  0
POLYLINE
  5
3E9
100
AcDbEntity
  8
1
  6
Continuous
 62
     6
 48
0.75
100
AcDb2dPolyline
 66
     1
 10
0.0
 20
0.0
 30
0.0
 70
   128
  0
VERTEX
  5
3EA
100
AcDbEntity
  8
1
  6
Continuous
 62
     6
 48
0.75
100
AcDbVertex
100
AcDb2dVertex
 10
-1029.531998
 20
5.407334
 30
0.0
 40
0.0
 41
0.0
  0
VERTEX
  5
3EB
100
AcDbEntity
  8
1
  6
Continuous
 62
     6
 48
0.75
100
AcDbVertex
100
AcDb2dVertex
 10
-1022.446998
 20
-37.715166
 30
0.0
 40
0.0
 41
0.0
  0
VERTEX
  5
3EC
100
AcDbEntity
  8
1
  6
Continuous
 62
     6
 48
0.75
100
AcDbVertex
100
AcDb2dVertex
 10
-1036.309498
 20
-44.690166
 30
0.0
 40
0.0
 41
0.0
  0
VERTEX
  5
3ED
100
AcDbEntity
  8
1
  6
Continuous
 62
     6
 48
0.75
100
AcDbVertex
100
AcDb2dVertex
 10
-1058.486998
 20
-55.627666
 30
0.0
 40
0.0
 41
0.0
  0
VERTEX
  5
3EE
100
AcDbEntity
  8
1
  6
Continuous
 62
     6
 48
0.75
100
AcDbVertex
100
AcDb2dVertex
 10
-1081.894498
 20
-66.565166
 30
0.0
 40
0.0
 41
0.0
  0
VERTEX
  5
3EF
100
AcDbEntity
  8
1
  6
Continuous
 62
     6
 48
0.75
100
AcDbVertex
100
AcDb2dVertex
 10
-1105.589498
 20
-77.502666
 30
0.0
 40
0.0
 41
0.0
  0
VERTEX
  5
3F0
100
AcDbEntity
  8
1
  6
Continuous
 62
     6
 48
0.75
100
AcDbVertex
100
AcDb2dVertex
 10
-1128.714498
 20
-88.440166
 30
0.0
 40
0.0
 41
0.0
  0
SEQEND
  5
3F1
100
AcDbEntity
  8
0
  0
POLYLINE
  5
3F2
100
AcDbEntity
  8
1
  6
Continuous
 62
     6
 48
0.75
100
AcDb2dPolyline
 66
     1
 10
0.0
 20
0.0
 30
0.0
 70
   128
  0
VERTEX
  5
3F3
100
AcDbEntity
  8
1
  6
Continuous
 62
     6
 48
0.75
100
AcDbVertex
100
AcDb2dVertex
 10
-1227.896998
 20
5.407334
 30
0.0
 40
0.0
 41
0.0
  0
VERTEX
  5
3F4
100
AcDbEntity
  8
1
  6
Continuous
 62
     6
 48
0.75
100
AcDbVertex
100
AcDb2dVertex
 10
-1234.981998
 20
-34.542666
 30
0.0
 40
0.0
 41
0.0
  0
VERTEX
  5
3F5
100
AcDbEntity
  8
1
  6
Continuous
 62
     6
 48
0.75
100
AcDbVertex
100
AcDb2dVertex
 10
-1216.191998
 20
-44.690166
 30
0.0
 40
0.0
 41
0.0
  0
VERTEX
  5
3F6
100
AcDbEntity
  8
1
  6
Continuous
 62
     6
 48
0.75
100
AcDbVertex
100
AcDb2dVertex
 10
-1194.014498
 20
-55.627666
 30
0.0
 40
0.0
 41
0.0
  0
VERTEX
  5
3F7
100
AcDbEntity
  8
1
  6
Continuous
 62
     6
 48
0.75
100
AcDbVertex
100
AcDb2dVertex
 10
-1172.454498
 20
-66.565166
 30
0.0
 40
0.0
 41
0.0
  0
VERTEX
  5
3F8
100
AcDbEntity
  8
1
  6
Continuous
 62
     6
 48
0.75
100
AcDbVertex
100
AcDb2dVertex
 10
-1149.964498
 20
-77.502666
 30
0.0
 40
0.0
 41
0.0
  0
VERTEX
  5
3F9
100
AcDbEntity
  8
1
  6
Continuous
 62
     6
 48
0.75
100
AcDbVertex
100
AcDb2dVertex
 10
-1128.714498
 20
-88.440166
 30
0.0
 40
0.0
 41
0.0
  0
SEQEND
  5
3FA
100
AcDbEntity
  8
0
  0
POLYLINE
  5
3FB
100
AcDbEntity
  8
1
  6
Continuous
 62
     6
 48
0.75
100
AcDb2dPolyline
 66
     1
 10
0.0
 20
0.0
 30
0.0
 70
   128
  0
VERTEX
  5
3FC
100
AcDbEntity
  8
1
  6
Continuous
 62
     6
 48
0.75
100
AcDbVertex
100
AcDb2dVertex
 10
-1227.896998
 20
5.407334
 30
0.0
 40
0.0
 41
0.0
  0
VERTEX
  5
3FD
100
AcDbEntity
  8
1
  6
Continuous
 62
     6
 48
0.75
100
AcDbVertex
100
AcDb2dVertex
 10
-1234.981998
 20
-34.542666
 30
0.0
 40
0.0
 41
0.0
  0
VERTEX
  5
3FE
100
AcDbEntity
  8
1
  6
Continuous
 62
     6
 48
0.75
100
AcDbVertex
100
AcDb2dVertex
 10
-1216.191998
 20
-44.690166
 30
0.0
 40
0.0
 41
0.0
  0
VERTEX
  5
3FF
100
AcDbEntity
  8
1
  6
Continuous
 62
     6
 48
0.75
100
AcDbVertex
100
AcDb2dVertex
 10
-1194.014498
 20
-55.627666
 30
0.0
 40
0.0
 41
0.0
  0
VERTEX
  5
400
100
AcDbEntity
  8
1
  6
Continuous
 62
     6
 48
0.75
100
AcDbVertex
100
AcDb2dVertex
 10
-1172.454498
 20
-66.565166
 30
0.0
 40
0.0
 41
0.0
  0
VERTEX
  5
401
100
AcDbEntity
  8
1
  6
Continuous
 62
     6
 48
0.75
100
AcDbVertex
100
AcDb2dVertex
 10
-1149.964498
 20
-77.502666
 30
0.0
 40
0.0
 41
0.0
  0
VERTEX
  5
402
100
AcDbEntity
  8
1
  6
Continuous
 62
     6
 48
0.75
100
AcDbVertex
100
AcDb2dVertex
 10
-1128.714498
 20
-88.440166
 30
0.0
 40
0.0
 41
0.0
  0
SEQEND
  5
403
100
AcDbEntity
  8
0
  0
POLYLINE
  5
404
100
AcDbEntity
  8
1
  6
Continuous
 62
     6
 48
0.75
100
AcDb2dPolyline
 66
     1
 10
0.0
 20
0.0
 30
0.0
 70
   128
  0
VERTEX
  5
405
100
AcDbEntity
  8
1
  6
Continuous
 62
     6
 48
0.75
100
AcDbVertex
100
AcDb2dVertex
 10
-1029.531998
 20
5.407334
 30
0.0
 40
0.0
 41
0.0
  0
VERTEX
  5
406
100
AcDbEntity
  8
1
  6
Continuous
 62
     6
 48
0.75
100
AcDbVertex
100
AcDb2dVertex
 10
-1022.446998
 20
-34.542666
 30
0.0
 40
0.0
 41
0.0
  0
VERTEX
  5
407
100
AcDbEntity
  8
1
  6
Continuous
 62
     6
 48
0.75
100
AcDbVertex
100
AcDb2dVertex
 10
-1041.236998
 20
-44.690166
 30
0.0
 40
0.0
 41
0.0
  0
VERTEX
  5
408
100
AcDbEntity
  8
1
  6
Continuous
 62
     6
 48
0.75
100
AcDbVertex
100
AcDb2dVertex
 10
-1063.414498
 20
-55.627666
 30
0.0
 40
0.0
 41
0.0
  0
VERTEX
  5
409
100
AcDbEntity
  8
1
  6
Continuous
 62
     6
 48
0.75
100
AcDbVertex
100
AcDb2dVertex
 10
-1084.974498
 20
-66.565166
 30
0.0
 40
0.0
 41
0.0
  0
VERTEX
  5
40A
100
AcDbEntity
  8
1
  6
Continuous
 62
     6
 48
0.75
100
AcDbVertex
100
AcDb2dVertex
 10
-1107.464498
 20
-77.502666
 30
0.0
 40
0.0
 41
0.0
  0
VERTEX
  5
40B
100
AcDbEntity
  8
1
  6
Continuous
 62
     6
 48
0.75
100
AcDbVertex
100
AcDb2dVertex
 10
-1128.714498
 20
-88.440166
 30
0.0
 40
0.0
 41
0.0
  0
SEQEND
  5
40C
100
AcDbEntity
  8
0
  0
POLYLINE
  5
40D
100
AcDbEntity
  8
1
  6
Continuous
 62
     6
 48
0.75
100
AcDb2dPolyline
 66
     1
 10
0.0
 20
0.0
 30
0.0
 70
   128
  0
VERTEX
  5
40E
100
AcDbEntity
  8
1
  6
Continuous
 62
     6
 48
0.75
100
AcDbVertex
100
AcDb2dVertex
 10
-1227.896998
 20
5.407334
 30
0.0
 40
0.0
 41
0.0
  0
VERTEX
  5
40F
100
AcDbEntity
  8
1
  6
Continuous
 62
     6
 48
0.75
100
AcDbVertex
100
AcDb2dVertex
 10
-1234.981998
 20
-30.737666
 30
0.0
 40
0.0
 41
0.0
  0
VERTEX
  5
410
100
AcDbEntity
  8
1
  6
Continuous
 62
     6
 48
0.75
100
AcDbVertex
100
AcDb2dVertex
 10
-1211.879498
 20
-44.690166
 30
0.0
 40
0.0
 41
0.0
  0
VERTEX
  5
411
100
AcDbEntity
  8
1
  6
Continuous
 62
     6
 48
0.75
100
AcDbVertex
100
AcDb2dVertex
 10
-1192.166998
 20
-55.627666
 30
0.0
 40
0.0
 41
0.0
  0
VERTEX
  5
412
100
AcDbEntity
  8
1
  6
Continuous
 62
     6
 48
0.75
100
AcDbVertex
100
AcDb2dVertex
 10
-1170.604498
 20
-66.565166
 30
0.0
 40
0.0
 41
0.0
  0
VERTEX
  5
413
100
AcDbEntity
  8
1
  6
Continuous
 62
     6
 48
0.75
100
AcDbVertex
100
AcDb2dVertex
 10
-1148.714498
 20
-77.502666
 30
0.0
 40
0.0
 41
0.0
  0
VERTEX
  5
414
100
AcDbEntity
  8
1
  6
Continuous
 62
     6
 48
0.75
100
AcDbVertex
100
AcDb2dVertex
 10
-1148.511998
 20
-77.612666
 30
0.0
 40
0.0
 41
0.0
  0
VERTEX
  5
415
100
AcDbEntity
  8
1
  6
Continuous
 62
     6
 48
0.75
100
AcDbVertex
100
AcDb2dVertex
 10
-1147.906998
 20
-77.942666
 30
0.0
 40
0.0
 41
0.0
  0
VERTEX
  5
416
100
AcDbEntity
  8
1
  6
Continuous
 62
     6
 48
0.75
100
AcDbVertex
100
AcDb2dVertex
 10
-1146.906998
 20
-78.490166
 30
0.0
 40
0.0
 41
0.0
  0
VERTEX
  5
417
100
AcDbEntity
  8
1
  6
Continuous
 62
     6
 48
0.75
100
AcDbVertex
100
AcDb2dVertex
 10
-1145.504498
 20
-79.257666
 30
0.0
 40
0.0
 41
0.0
  0
VERTEX
  5
418
100
AcDbEntity
  8
1
  6
Continuous
 62
     6
 48
0.75
100
AcDbVertex
100
AcDb2dVertex
 10
-1143.704498
 20
-80.242666
 30
0.0
 40
0.0
 41
0.0
  0
VERTEX
  5
419
100
AcDbEntity
  8
1
  6
Continuous
 62
     6
 48
0.75
100
AcDbVertex
100
AcDb2dVertex
 10
-1141.504498
 20
-81.445166
 30
0.0
 40
0.0
 41
0.0
  0
VERTEX
  5
41A
100
AcDbEntity
  8
1
  6
Continuous
 62
     6
 48
0.75
100
AcDbVertex
100
AcDb2dVertex
 10
-1138.906998
 20
-82.865166
 30
0.0
 40
0.0
 41
0.0
  0
VERTEX
  5
41B
100
AcDbEntity
  8
1
  6
Continuous
 62
     6
 48
0.75
100
AcDbVertex
100
AcDb2dVertex
 10
-1135.906998
 20
-84.505166
 30
0.0
 40
0.0
 41
0.0
  0
VERTEX
  5
41C
100
AcDbEntity
  8
1
  6
Continuous
 62
     6
 48
0.75
100
AcDbVertex
100
AcDb2dVertex
 10
-1132.511998
 20
-86.362666
 30
0.0
 40
0.0
 41
0.0
  0
VERTEX
  5
41D
100
AcDbEntity
  8
1
  6
Continuous
 62
     6
 48
0.75
100
AcDbVertex
100
AcDb2dVertex
 10
-1128.714498
 20
-88.440166
 30
0.0
 40
0.0
 41
0.0
  0
SEQEND
  5
41E
100
AcDbEntity
  8
0
  0
POLYLINE
  5
41F
100
AcDbEntity
  8
1
  6
Continuous
 62
     6
 48
0.75
100
AcDb2dPolyline
 66
     1
 10
0.0
 20
0.0
 30
0.0
 70
   128
  0
VERTEX
  5
420
100
AcDbEntity
  8
1
  6
Continuous
 62
     6
 48
0.75
100
AcDbVertex
100
AcDb2dVertex
 10
-1227.896998
 20
5.407334
 30
0.0
 40
0.0
 41
0.0
  0
VERTEX
  5
421
100
AcDbEntity
  8
1
  6
Continuous
 62
     6
 48
0.75
100
AcDbVertex
100
AcDb2dVertex
 10
-1234.981998
 20
-30.737666
 30
0.0
 40
0.0
 41
0.0
  0
VERTEX
  5
422
100
AcDbEntity
  8
1
  6
Continuous
 62
     6
 48
0.75
100
AcDbVertex
100
AcDb2dVertex
 10
-1211.879498
 20
-44.690166
 30
0.0
 40
0.0
 41
0.0
  0
VERTEX
  5
423
100
AcDbEntity
  8
1
  6
Continuous
 62
     6
 48
0.75
100
AcDbVertex
100
AcDb2dVertex
 10
-1192.166998
 20
-55.627666
 30
0.0
 40
0.0
 41
0.0
  0
VERTEX
  5
424
100
AcDbEntity
  8
1
  6
Continuous
 62
     6
 48
0.75
100
AcDbVertex
100
AcDb2dVertex
 10
-1170.604498
 20
-66.565166
 30
0.0
 40
0.0
 41
0.0
  0
VERTEX
  5
425
100
AcDbEntity
  8
1
  6
Continuous
 62
     6
 48
0.75
100
AcDbVertex
100
AcDb2dVertex
 10
-1148.714498
 20
-77.502666
 30
0.0
 40
0.0
 41
0.0
  0
VERTEX
  5
426
100
AcDbEntity
  8
1
  6
Continuous
 62
     6
 48
0.75
100
AcDbVertex
100
AcDb2dVertex
 10
-1128.714498
 20
-88.440166
 30
0.0
 40
0.0
 41
0.0
  0
SEQEND
  5
427
100
AcDbEntity
  8
0
  0
POLYLINE
  5
428
100
AcDbEntity
  8
1
  6
Continuous
 62
     6
 48
0.75
100
AcDb2dPolyline
 66
     1
 10
0.0
 20
0.0
 30
0.0
 70
   128
  0
VERTEX
  5
429
100
AcDbEntity
  8
1
  6
Continuous
 62
     6
 48
0.75
100
AcDbVertex
100
AcDb2dVertex
 10
-1029.531998
 20
5.407334
 30
0.0
 40
0.0
 41
0.0
  0
VERTEX
  5
42A
100
AcDbEntity
  8
1
  6
Continuous
 62
     6
 48
0.75
100
AcDbVertex
100
AcDb2dVertex
 10
-1022.446998
 20
-30.737666
 30
0.0
 40
0.0
 41
0.0
  0
VERTEX
  5
42B
100
AcDbEntity
  8
1
  6
Continuous
 62
     6
 48
0.75
100
AcDbVertex
100
AcDb2dVertex
 10
-1045.549498
 20
-44.690166
 30
0.0
 40
0.0
 41
0.0
  0
VERTEX
  5
42C
100
AcDbEntity
  8
1
  6
Continuous
 62
     6
 48
0.75
100
AcDbVertex
100
AcDb2dVertex
 10
-1065.261998
 20
-55.627666
 30
0.0
 40
0.0
 41
0.0
  0
VERTEX
  5
42D
100
AcDbEntity
  8
1
  6
Continuous
 62
     6
 48
0.75
100
AcDbVertex
100
AcDb2dVertex
 10
-1086.824498
 20
-66.565166
 30
0.0
 40
0.0
 41
0.0
  0
VERTEX
  5
42E
100
AcDbEntity
  8
1
  6
Continuous
 62
     6
 48
0.75
100
AcDbVertex
100
AcDb2dVertex
 10
-1108.714498
 20
-77.502666
 30
0.0
 40
0.0
 41
0.0
  0
VERTEX
  5
42F
100
AcDbEntity
  8
1
  6
Continuous
 62
     6
 48
0.75
100
AcDbVertex
100
AcDb2dVertex
 10
-1108.916998
 20
-77.612666
 30
0.0
 40
0.0
 41
0.0
  0
VERTEX
  5
430
100
AcDbEntity
  8
1
  6
Continuous
 62
     6
 48
0.75
100
AcDbVertex
100
AcDb2dVertex
 10
-1109.521998
 20
-77.942666
 30
0.0
 40
0.0
 41
0.0
  0
VERTEX
  5
431
100
AcDbEntity
  8
1
  6
Continuous
 62
     6
 48
0.75
100
AcDbVertex
100
AcDb2dVertex
 10
-1110.521998
 20
-78.490166
 30
0.0
 40
0.0
 41
0.0
  0
VERTEX
  5
432
100
AcDbEntity
  8
1
  6
Continuous
 62
     6
 48
0.75
100
AcDbVertex
100
AcDb2dVertex
 10
-1111.924498
 20
-79.257666
 30
0.0
 40
0.0
 41
0.0
  0
VERTEX
  5
433
100
AcDbEntity
  8
1
  6
Continuous
 62
     6
 48
0.75
100
AcDbVertex
100
AcDb2dVertex
 10
-1113.724498
 20
-80.242666
 30
0.0
 40
0.0
 41
0.0
  0
VERTEX
  5
434
100
AcDbEntity
  8
1
  6
Continuous
 62
     6
 48
0.75
100
AcDbVertex
100
AcDb2dVertex
 10
-1115.924498
 20
-81.445166
 30
0.0
 40
0.0
 41
0.0
  0
VERTEX
  5
435
100
AcDbEntity
  8
1
  6
Continuous
 62
     6
 48
0.75
100
AcDbVertex
100
AcDb2dVertex
 10
-1118.521998
 20
-82.865166
 30
0.0
 40
0.0
 41
0.0
  0
VERTEX
  5
436
100
AcDbEntity
  8
1
  6
Continuous
 62
     6
 48
0.75
100
AcDbVertex
100
AcDb2dVertex
 10
-1121.521998
 20
-84.505166
 30
0.0
 40
0.0
 41
0.0
  0
VERTEX
  5
437
100
AcDbEntity
  8
1
  6
Continuous
 62
     6
 48
0.75
100
AcDbVertex
100
AcDb2dVertex
 10
-1124.916998
 20
-86.362666
 30
0.0
 40
0.0
 41
0.0
  0
VERTEX
  5
438
100
AcDbEntity
  8
1
  6
Continuous
 62
     6
 48
0.75
100
AcDbVertex
100
AcDb2dVertex
 10
-1128.714498
 20
-88.440166
 30
0.0
 40
0.0
 41
0.0
  0
SEQEND
  5
439
100
AcDbEntity
  8
0
  0
POLYLINE
  5
43A
100
AcDbEntity
  8
0
  6
Continuous
 62
     6
 48
2.0
100
AcDb2dPolyline
 66
     1
 10
0.0
 20
0.0
 30
0.0
 70
   128
  0
VERTEX
  5
43B
100
AcDbEntity
  8
0
  6
Continuous
 62
     6
 48
2.0
100
AcDbVertex
100
AcDb2dVertex
 10
-1249.693757
 20
92.076017
 30
0.0
 40
0.0
 41
0.0
  0
VERTEX
  5
43C
100
AcDbEntity
  8
0
  6
Continuous
 62
     6
 48
2.0
100
AcDbVertex
100
AcDb2dVertex
 10
93.27674
 20
92.076017
 30
0.0
 40
0.0
 41
0.0
  0
VERTEX
  5
43D
100
AcDbEntity
  8
0
  6
Continuous
 62
     6
 48
2.0
100
AcDbVertex
100
AcDb2dVertex
 10
93.27674
 20
-429.139422
 30
0.0
 40
0.0
 41
0.0
  0
VERTEX
  5
43E
100
AcDbEntity
  8
0
  6
Continuous
 62
     6
 48
2.0
100
AcDbVertex
100
AcDb2dVertex
 10
-1249.693757
 20
-429.139422
 30
0.0
 40
0.0
 41
0.0
  0
VERTEX
  5
43F
100
AcDbEntity
  8
0
  6
Continuous
 62
     6
 48
2.0
100
AcDbVertex
100
AcDb2dVertex
 10
-1249.693757
 20
92.076017
 30
0.0
 40
0.0
 41
0.0
  0
SEQEND
  5
440
100
AcDbEntity
  8
0
  0
TEXT
  5
441
100
AcDbEntity
  8
0
 62
     6
 48
0.0
100
AcDbText
 10
-1215.368519
 20
-116.172068
 30
0.0
 40
12.0
  1
Loa  =  32.50 metre
 72
     5
 11
-1070.318745
 21
-116.172068
 31
0.0
210
0.0
220
0.0
230
1.0
100
AcDbText
  0
TEXT
  5
442
100
AcDbEntity
  8
0
 62
     6
 48
0.0
100
AcDbText
 10
-1215.368519
 20
-140.172068
 30
0.0
 40
12.0
  1
Lwl  =  28.61 metre
 72
     5
 11
-1071.31422
 21
-140.172068
 31
0.0
210
0.0
220
0.0
230
1.0
100
AcDbText
  0
TEXT
  5
443
100
AcDbEntity
  8
0
 62
     6
 48
0.0
100
AcDbText
 10
-1215.368519
 20
-164.172068
 30
0.0
 40
12.0
  1
Boa =   8.50 metre
 72
     5
 11
-1078.354944
 21
-164.172068
 31
0.0
210
0.0
220
0.0
230
1.0
100
AcDbText
  0
TEXT
  5
444
100
AcDbEntity
  8
0
 62
     6
 48
0.0
100
AcDbText
 10
-1215.368519
 20
-188.172068
 30
0.0
 40
12.0
  1
Bwl =    8.24 metre
 72
     5
 11
-1074.825533
 21
-188.172068
 31
0.0
210
0.0
220
0.0
230
1.0
100
AcDbText
  0
TEXT
  5
445
100
AcDbEntity
  8
0
 62
     6
 48
0.0
100
AcDbText
 10
-1215.368519
 20
-212.172068
 30
0.0
 40
12.0
  1
Twl =    1.75 metre
 72
     5
 11
-1075.839107
 21
-212.172068
 31
0.0
210
0.0
220
0.0
230
1.0
100
AcDbText
  0
TEXT
  5
446
100
AcDbEntity
  8
0
 62
     6
 48
0.0
100
AcDbText
 10
-1215.368519
 20
-236.172068
 30
0.0
 40
12.0
  1
Dep =  151.61 ton
 72
     5
 11
-1082.879831
 21
-236.172068
 31
0.0
210
0.0
220
0.0
230
1.0
100
AcDbText
  0
TEXT
  5
447
100
AcDbEntity
  8
0
 62
     6
 48
0.0
100
AcDbText
 10
-1215.368519
 20
-260.172068
 30
0.0
 40
12.0
  1
S     =  199.48 metrekare
 72
     5
 11
-1033.612863
 21
-260.172068
 31
0.0
210
0.0
220
0.0
230
1.0
100
AcDbText
  0
TEXT
  5
448
100
AcDbEntity
  8
0
 62
     6
 48
0.0
100
AcDbText
 10
-1215.368519
 20
-284.172068
 30
0.0
 40
12.0
  1
Cx   =   0.557 
 72
     5
 11
-1111.531415
 21
-284.172068
 31
0.0
210
0.0
220
0.0
230
1.0
100
AcDbText
  0
TEXT
  5
449
100
AcDbEntity
  8
0
 62
     6
 48
0.0
100
AcDbText
 10
-1215.368519
 20
-308.172068
 30
0.0
 40
12.0
  1
Cb  =   0.359
 72
     5
 11
-1120.581189
 21
-308.172068
 31
0.0
210
0.0
220
0.0
230
1.0
100
AcDbText
  0
TEXT
  5
44A
100
AcDbEntity
  8
0
 62
     6
 48
0.0
100
AcDbText
 10
-1215.368519
 20
-332.172068
 30
0.0
 40
12.0
  1
Cwp = 0.751
 72
     5
 11
-1122.083451
 21
-332.172068
 31
0.0
210
0.0
220
0.0
230
1.0
100
AcDbText
  0
TEXT
  5
44B
100
AcDbEntity
  8
0
 62
     6
 48
0.0
100
AcDbText
 10
-1215.368519
 20
-356.172068
 30
0.0
 40
12.0
  1
Lcb  = % 60.954
 72
     5
 11
-1093.956754
 21
-356.172068
 31
0.0
210
0.0
220
0.0
230
1.0
100
AcDbText
  0
TEXT
  5
44C
100
AcDbEntity
  8
0
 62
     6
 48
0.0
100
AcDbText
 10
-1215.368519
 20
-380.172068
 30
0.0
 40
12.0
  1
>     = 13.843 derece
 72
     5
 11
-1065.051777
 21
-380.172068
 31
0.0
210
0.0
220
0.0
230
1.0
100
AcDbText
  0
TEXT
  5
44D
100
AcDbEntity
  8
0
 62
     6
 48
0.0
100
AcDbText
 10
-1215.368519
 20
-404.172068
 30
0.0
 40
12.0
  1
At/Ax= 0.663
 72
     5
 11
-1116.54499
 21
-404.172068
 31
0.0
210
0.0
220
0.0
230
1.0
100
AcDbText
  0
TEXT
  5
44E
100
AcDbEntity
  8
0
 62
     6
 48
0.0
100
AcDbText
 10
-891.425183
 20
48.145666
 30
0.0
 40
22.0
  1
ÇEMBERCI TASARLANAN MODEL = ITU - 165
 72
     5
 11
-192.170281
 21
48.145666
 31
0.0
210
0.0
220
0.0
230
1.0
100
AcDbText
  0
ENDSEC
  0
SECTION
  2
OBJECTS
  0
DICTIONARY
  5
19
100
AcDbDictionary
280
     0
281
     1
  3
ACAD_GROUP
350
1A
  3
ACAD_MLINESTYLE
350
1B
  3
ACAD_LAYOUT
350
1E
  3
ACAD_PLOTSETTINGS
350
22
  3
ACAD_PLOTSTYLENAME
350
1F
  3
ACAD_WIPEOUT_VARS
350
23
  0
DICTIONARY
  5
1A
102
{ACAD_REACTORS
330
19
102
}
100
AcDbDictionary
280
     0
281
     1
  0
DICTIONARY
  5
1B
102
{ACAD_REACTORS
330
19
102
}
100
AcDbDictionary
280
     0
281
     1
  3
Standard
350
1C
  0
MLINESTYLE
  5
1C
102
{ACAD_REACTORS
330
1B
102
}
100
AcDbMlineStyle
  2
Standard
 70
     0
  3

 62
     0
 51
90.0
 52
90.0
 71
     2
 49
0.5
 62
   256
  6
BYLAYER
 49
-0.5
 62
   256
  6
BYLAYER
  0
ACDBDICTIONARYWDFLT
  5
1F
102
{ACAD_REACTORS
330
19
102
}
100
AcDbDictionary
281
     1
  3
Normal
350
1D
100
AcDbDictionaryWithDefault
340
1D
  0
ACDBPLACEHOLDER
  5
1D
102
{ACAD_REACTORS
330
1F
102
}
  0
LAYOUT
  5
20
102
{ACAD_REACTORS
330
1E
102
}
100
AcDbPlotSettings
  1

  2

  4

  6

 40
0.0
 41
0.0
 42
0.0
 43
0.0
 44
0.0
 45
0.0
 46
0.0
 47
0.0
 48
0.0
 49
0.0
140
0.0
141
0.0
142
1.0
143
1.0
 70
  1024
 72
     0
 73
     0
 74
     0
  7

 75
     0
147
1.0
148
0.0
149
0.0
100
AcDbLayout
  1
Model
 70
     0
 71
     0
 10
0.0
 20
0.0
 11
0.0
 21
0.0
 12
0.0
 22
0.0
 32
0.0
 14
0.0
 24
0.0
 34
0.0
 15
0.0
 25
0.0
 35
0.0
146
0.0
 13
0.0
 23
0.0
 33
0.0
 16
0.0
 26
0.0
 36
0.0
 17
0.0
 27
0.0
 37
0.0
 76
     0
330
A
331
0
345
0
346
0
  0
LAYOUT
  5
21
102
{ACAD_REACTORS
330
1E
102
}
100
AcDbPlotSettings
  1

  2

  4

  6

 40
0.0
 41
0.0
 42
0.0
 43
0.0
 44
0.0
 45
0.0
 46
0.0
 47
0.0
 48
0.0
 49
0.0
140
0.0
141
0.0
142
1.0
143
1.0
 70
     0
 72
     0
 73
     0
 74
     0
  7

 75
     0
147
1.0
148
0.0
149
0.0
100
AcDbLayout
  1
Layout1
 70
     0
 71
     0
 10
0.0
 20
0.0
 11
0.0
 21
0.0
 12
0.0
 22
0.0
 32
0.0
 14
0.0
 24
0.0
 34
0.0
 15
0.0
 25
0.0
 35
0.0
146
0.0
 13
0.0
 23
0.0
 33
0.0
 16
0.0
 26
0.0
 36
0.0
 17
0.0
 27
0.0
 37
0.0
 76
     0
330
B
331
0
345
0
346
0
  0
DICTIONARY
  5
1E
102
{ACAD_REACTORS
330
19
102
}
100
AcDbDictionary
280
     0
281
     1
  3
Layout1
350
21
  3
Model
350
20
  0
DICTIONARY
  5
22
102
{ACAD_REACTORS
330
19
102
}
100
AcDbDictionary
280
     0
281
     1
  0
WIPEOUTVARIABLES
  5
23
100
AcDbWipeoutVariables
 70
     1
  0
ENDSEC
  0
EOF
