  0
SECTION
  2
HEADER
  9
$ACADVER
  1
AC1014
  9
$ACADMAINTVER
 70
     0
  9
$DWGCODEPAGE
  3
ANSI_1252
  9
$INSBASE
 10
0.0
 20
0.0
 30
0.0
  9
$EXTMIN
 10
1.997726
 20
0.893938
 30
0.0
  9
$EXTMAX
 10
2.997826
 20
1.094173
 30
0.0
  9
$LIMMIN
 10
0.0
 20
0.0
  9
$LIMMAX
 10
0.0
 20
0.0
  9
$ORTHOMODE
 70
     0
  9
$REGENMODE
 70
     1
  9
$FILLMODE
 70
     1
  9
$QTEXTMODE
 70
     0
  9
$MIRRTEXT
 70
     1
  9
$DRAGMODE
 70
     2
  9
$LTSCALE
 40
1.0
  9
$OSMODE
 70
     0
  9
$ATTMODE
 70
     1
  9
$TEXTSIZE
 40
0.2
  9
$TRACEWID
 40
0.05
  9
$TEXTSTYLE
  7
STANDARD
  9
$CLAYER
  8
0
  9
$CELTYPE
  6
CONTINUOUS
  9
$CECOLOR
 62
   256
  9
$CELTSCALE
 40
1.0
  9
$DELOBJ
 70
     1
  9
$DISPSILH
 70
     0
  9
$DIMSCALE
 40
1.0
  9
$DIMASZ
 40
0.18
  9
$DIMEXO
 40
0.0625
  9
$DIMDLI
 40
0.38
  9
$DIMRND
 40
0.0
  9
$DIMDLE
 40
0.0
  9
$DIMEXE
 40
0.18
  9
$DIMTP
 40
0.0
  9
$DIMTM
 40
0.0
  9
$DIMTXT
 40
0.18
  9
$DIMCEN
 40
0.09
  9
$DIMTSZ
 40
0.0
  9
$DIMTOL
 70
     0
  9
$DIMLIM
 70
     0
  9
$DIMTIH
 70
     1
  9
$DIMTOH
 70
     1
  9
$DIMSE1
 70
     0
  9
$DIMSE2
 70
     0
  9
$DIMTAD
 70
     0
  9
$DIMZIN
 70
     0
  9
$DIMBLK
  1

  9
$DIMASO
 70
     1
  9
$DIMSHO
 70
     1
  9
$DIMPOST
  1

  9
$DIMAPOST
  1

  9
$DIMALT
 70
     0
  9
$DIMALTD
 70
     2
  9
$DIMALTF
 40
25.4
  9
$DIMLFAC
 40
1.0
  9
$DIMTOFL
 70
     0
  9
$DIMTVP
 40
0.0
  9
$DIMTIX
 70
     0
  9
$DIMSOXD
 70
     0
  9
$DIMSAH
 70
     0
  9
$DIMBLK1
  1

  9
$DIMBLK2
  1

  9
$DIMSTYLE
  2
STANDARD
  9
$DIMCLRD
 70
     0
  9
$DIMCLRE
 70
     0
  9
$DIMCLRT
 70
     0
  9
$DIMTFAC
 40
1.0
  9
$DIMGAP
 40
0.09
  9
$DIMJUST
 70
     0
  9
$DIMSD1
 70
     0
  9
$DIMSD2
 70
     0
  9
$DIMTOLJ
 70
     1
  9
$DIMTZIN
 70
     0
  9
$DIMALTZ
 70
     0
  9
$DIMALTTZ
 70
     0
  9
$DIMFIT
 70
     3
  9
$DIMUPT
 70
     0
  9
$DIMUNIT
 70
     2
  9
$DIMDEC
 70
     4
  9
$DIMTDEC
 70
     4
  9
$DIMALTU
 70
     2
  9
$DIMALTTD
 70
     2
  9
$DIMTXSTY
  7
STANDARD
  9
$DIMAUNIT
 70
     0
  9
$LUNITS
 70
     2
  9
$LUPREC
 70
     4
  9
$SKETCHINC
 40
0.1
  9
$FILLETRAD
 40
0.0
  9
$AUNITS
 70
     0
  9
$AUPREC
 70
     0
  9
$MENU
  1
acad
  9
$ELEVATION
 40
0.0
  9
$PELEVATION
 40
0.0
  9
$THICKNESS
 40
0.0
  9
$LIMCHECK
 70
     0
  9
$BLIPMODE
 70
     1
  9
$CHAMFERA
 40
0.0
  9
$CHAMFERB
 40
0.0
  9
$CHAMFERC
 40
0.0
  9
$CHAMFERD
 40
0.0
  9
$SKPOLY
 70
     0
  9
$TDCREATE
 40
0.000000000
  9
$TDUPDATE
 40
0.000000000
  9
$TDINDWG
 40
0.0000000000
  9
$TDUSRTIMER
 40
0.0000000000
  9
$USRTIMER
 70
     1
  9
$ANGBASE
 50
0.0
  9
$ANGDIR
 70
     0
  9
$PDMODE
 70
     0
  9
$PDSIZE
 40
0.0
  9
$PLINEWID
 40
0.0
  9
$COORDS
 70
     0
  9
$SPLFRAME
 70
     0
  9
$SPLINETYPE
 70
     6
  9
$SPLINESEGS
 70
     8
  9
$ATTDIA
 70
     0
  9
$ATTREQ
 70
     1
  9
$HANDLING
 70
     1
  9
$HANDSEED
  5
19F
  9
$SURFTAB1
 70
     6
  9
$SURFTAB2
 70
     6
  9
$SURFTYPE
 70
     6
  9
$SURFU
 70
     6
  9
$SURFV
 70
     6
  9
$UCSNAME
  2

  9
$UCSORG
 10
0.0
 20
0.0
 30
0.0
  9
$UCSXDIR
 10
1.0
 20
0.0
 30
0.0
  9
$UCSYDIR
 10
0.0
 20
1.0
 30
0.0
  9
$PUCSNAME
  2

  9
$PUCSORG
 10
0.0
 20
0.0
 30
0.0
  9
$PUCSXDIR
 10
1.0
 20
0.0
 30
0.0
  9
$PUCSYDIR
 10
0.0
 20
1.0
 30
0.0
  9
$USERI1
 70
     0
  9
$USERI2
 70
     0
  9
$USERI3
 70
     0
  9
$USERI4
 70
     0
  9
$USERI5
 70
     0
  9
$USERR1
 40
0.0
  9
$USERR2
 40
0.0
  9
$USERR3
 40
0.0
  9
$USERR4
 40
0.0
  9
$USERR5
 40
0.0
  9
$WORLDVIEW
 70
     1
  9
$SHADEDGE
 70
     3
  9
$SHADEDIF
 70
    70
  9
$TILEMODE
 70
     1
  9
$MAXACTVP
 70
    16
  9
$PINSBASE
 10
0.0
 20
0.0
 30
0.0
  9
$PLIMCHECK
 70
     0
  9
$PEXTMIN
 10
1.000000E+20
 20
1.000000E+20
 30
1.000000E+20
  9
$PEXTMAX
 10
-1.000000E+20
 20
-1.000000E+20
 30
-1.000000E+20
  9
$PLIMMIN
 10
0.0
 20
0.0
  9
$PLIMMAX
 10
12.0
 20
9.0
  9
$UNITMODE
 70
     0
  9
$VISRETAIN
 70
     0
  9
$PLINEGEN
 70
     0
  9
$PSLTSCALE
 70
     0
  9
$TREEDEPTH
 70
  3020
  9
$PICKSTYLE
 70
     1
  9
$CMLSTYLE
  2
STANDARD
  9
$CMLJUST
 70
     0
  9
$CMLSCALE
 40
1.0
  9
$PROXYGRAPHICS
 70
     0
  9
$MEASUREMENT
 70
     0
  0
ENDSEC
  0
SECTION
  2
CLASSES
  0
CLASS
  1
LWPOLYLINE
  2
AcDbPolyline
  3
"AutoCAD"
 90
        0
280
     0
281
     1
  0
CLASS
  1
IMAGE
  2
AcDbRasterImage
  3
ISM
 90
      127
280
     0
281
     1
  0
CLASS
  1
OLE2FRAME
  2
AcDbOle2Frame
  3
""
 90
        0
280
     0
281
     1
  0
CLASS
  1
HATCH
  2
AcDbHatch
  3
"ACAD_SEDONA"
 90
        0
280
     0
281
     1
  0
CLASS
  1
DICTIONARYVAR
  2
AcDbDictionaryVar
  3
"AutoCAD"
 90
        0
280
     0
281
     0
  0
CLASS
  1
RASTERVARIABLES
  2
AcDbRasterVariables
  3
ISM
 90
        0
280
     0
281
     0
  0
CLASS
  1
IMAGEDEF
  2
AcDbRasterImageDef
  3
ISM
 90
        0
280
     0
281
     0
  0
CLASS
  1
IMAGEDEF_REACTOR
  2
AcDbRasterImageDefReactor
  3
ISM
 90
        1
280
     0
281
     0
  0
CLASS
  1
IDBUFFER
  2
AcDbIdBuffer
  3
"Acad"
 90
        0
280
     0
281
     0
  0
CLASS
  1
SPATIAL_FILTER
  2
AcDbSpatialFilter
  3
"Acad"
 90
        0
280
     0
281
     0
  0
CLASS
  1
XRECORD
  2
AcDbXrecord
  3
"<Built In>"
 90
        0
280
     0
281
     0
  0
CLASS
  1
SORTENTSTABLE
  2
AcDbSortentsTable
  3
"AutoCAD"
 90
        0
280
     0
281
     0
  0
CLASS
  1
LAYER_INDEX
  2
AcDbLayerIndex
  3
"Acad"
 90
        0
280
     0
281
     0
  0
CLASS
  1
SPATIAL_INDEX
  2
AcDbSpatialIndex
  3
"Acad"
 90
        0
280
     0
281
     0
  0
CLASS
  1
OBJECT_PTR
  2
CAseDLPNTableRecord
  3
"ASE-LPNTableRecord"
 90
        1
280
     0
281
     0
  0
CLASS
  1
LAYOUT
  2
AcDbLayout
  3
"AutoCAD 2000"
 90
        1
280
     0
281
     0
  0
CLASS
  1
PLOTSETTINGS
  2
AcDbPlotSettings
  3
"AutoCAD 2000"
 90
        1
280
     0
281
     0
  0
CLASS
  1
ACDBDICTIONARYWDFLT
  2
AcDbDictionaryWithDefault
  3
"AutoCAD 2000"
 90
        1
280
     0
281
     0
  0
CLASS
  1
ACDBPLACEHOLDER
  2
AcDbPlaceHolder
  3
"AutoCAD 2000"
 90
        1
280
     0
281
     0
  0
CLASS
  1
VBA_PROJECT
  2
AcDbVbaProject
  3
"acadvba"
 90
        1
280
     0
281
     0
  0
CLASS
  1
WIPEOUT
  2
AcDbWipeout
  3
WipeOut|AutoCAD Express Tool|expresstools@autodesk.com
 90
      127
280
     0
281
     1
  0
CLASS
  1
WIPEOUTVARIABLES
  2
AcDbWipeoutVariables
  3
WipeOut|AutoCAD Express Tool|expresstools@autodesk.com
 90
        0
280
     0
281
     0
  0
CLASS
  1
RTEXT
  2
RText
  3
RText|AutoCAD Express Tool|expresstools@autodesk.com
 90
        0
280
     0
281
     1
  0
CLASS
  1
ARCALIGNEDTEXT
  2
AcDbArcAlignedText
  3
ATEXT|AutoCAD Express Tool|expresstools@autodesk.com
 90
        0
280
     0
281
     1
  0
ENDSEC
  0
SECTION
  2
TABLES
  0
TABLE
  2
VPORT
  5
7
100
AcDbSymbolTable
 70
     2
  0
VPORT
  5
15
100
AcDbSymbolTableRecord
100
AcDbViewportTableRecord
  2
*ACTIVE
 70
     0
 10
0.0
 20
0.0
 11
1.0
 21
1.0
 12
6.591288
 22
4.579184
 13
0.0
 23
0.0
 14
1.0
 24
1.0
 15
0.0
 25
0.0
 16
0.0
 26
0.0
 36
1.0
 17
0.0
 27
0.0
 37
0.0
 40
9.158369
 41
0.688564
 42
50.0
 43
0.0
 44
0.0
 50
0.0
 51
0.0
 71
     0
 72
   100
 73
     1
 74
     1
 75
     0
 76
     0
 77
     0
 78
     0
  0
VPORT
  5
2C
100
AcDbSymbolTableRecord
100
AcDbViewportTableRecord
  2
DCADVPORT
 70
     0
 10
1.997726
 20
0.893938
 11
2.997826
 21
1.094173
 12
6.21
 22
9.02
 13
0.0
 23
0.0
 14
1.0
 24
1.0
 15
0.0
 25
0.0
 16
0.0
 26
0.0
 36
1.0
 17
0.0
 27
0.0
 37
0.0
 40
18.04
 41
0.688564
 42
50.0
 43
1.0
 44
1.0
 50
0.0
 51
0.0
 71
     0
 72
   100
 73
     1
 74
     1
 75
     0
 76
     0
 77
     0
 78
     0
  0
ENDTAB
  0
TABLE
  2
LTYPE
  5
4
100
AcDbSymbolTable
 70
    15
  0
LTYPE
  5
11
100
AcDbSymbolTableRecord
100
AcDbLinetypeTableRecord
  2
BYBLOCK
 70
    64
  3

 72
    65
 73
     0
 40
0.0
  0
LTYPE
  5
12
100
AcDbSymbolTableRecord
100
AcDbLinetypeTableRecord
  2
BYLAYER
 70
    64
  3

 72
    65
 73
     0
 40
0.0
  0
LTYPE
  5
13
100
AcDbSymbolTableRecord
100
AcDbLinetypeTableRecord
  2
CONTINUOUS
 70
    64
  3
Solid line
 72
    65
 73
     0
 40
0.0
  0
LTYPE
  5
1E
100
AcDbSymbolTableRecord
100
AcDbLinetypeTableRecord
  2
CONTINUOUS
 70
     0
  3
Solid line
 72
    65
 73
     0
 40
0.0
  0
LTYPE
  5
1F
100
AcDbSymbolTableRecord
100
AcDbLinetypeTableRecord
  2
BORDER
 70
    64
  3
__ __ . __ __ . __ __ . __ __ . __ __ . __ __ .
 72
    65
 73
     6
 40
1.75
 49
0.5
 74
     0
 49
-0.25
 74
     0
 49
0.5
 74
     0
 49
-0.25
 74
     0
 49
0.0
 74
     0
 49
-0.25
 74
     0
  0
LTYPE
  5
20
100
AcDbSymbolTableRecord
100
AcDbLinetypeTableRecord
  2
BORDER2
 70
    64
  3
__.__.__.__.__.__.__.__.__.__.__.__.__.__.__.__
 72
    65
 73
     6
 40
0.875
 49
0.25
 74
     0
 49
-0.125
 74
     0
 49
0.25
 74
     0
 49
-0.125
 74
     0
 49
0.0
 74
     0
 49
-0.125
 74
     0
  0
LTYPE
  5
21
100
AcDbSymbolTableRecord
100
AcDbLinetypeTableRecord
  2
CENTER
 70
    64
  3
____ _ ____ _ ____ _ ____ _ ____ _ ____ _ ____ 
 72
    65
 73
     4
 40
2.0
 49
1.25
 74
     0
 49
-0.25
 74
     0
 49
0.25
 74
     0
 49
-0.25
 74
     0
  0
LTYPE
  5
22
100
AcDbSymbolTableRecord
100
AcDbLinetypeTableRecord
  2
DASHDOT
 70
    64
  3
__ . __ . __ . __ . __ . __ . __ . __ . __ . __
 72
    65
 73
     4
 40
1.0
 49
0.5
 74
     0
 49
-0.25
 74
     0
 49
0.0
 74
     0
 49
-0.25
 74
     0
  0
LTYPE
  5
23
100
AcDbSymbolTableRecord
100
AcDbLinetypeTableRecord
  2
DASHDOT2
 70
    64
  3
_._._._._._._._._._._._._._._._._._._._._._._._
 72
    65
 73
     4
 40
0.5
 49
0.25
 74
     0
 49
-0.125
 74
     0
 49
0.0
 74
     0
 49
-0.125
 74
     0
  0
LTYPE
  5
24
100
AcDbSymbolTableRecord
100
AcDbLinetypeTableRecord
  2
DASHED
 70
    64
  3
__ __ __ __ __ __ __ __ __ __ __ __ __ __ __ __
 72
    65
 73
     2
 40
0.75
 49
0.5
 74
     0
 49
-0.25
 74
     0
  0
LTYPE
  5
25
100
AcDbSymbolTableRecord
100
AcDbLinetypeTableRecord
  2
DIVIDE
 70
    64
  3
____ . . ____ . . ____ . . ____ . . ____ . . __
 72
    65
 73
     6
 40
1.25
 49
0.5
 74
     0
 49
-0.25
 74
     0
 49
0.0
 74
     0
 49
-0.25
 74
     0
 49
0.0
 74
     0
 49
-0.25
 74
     0
  0
LTYPE
  5
26
100
AcDbSymbolTableRecord
100
AcDbLinetypeTableRecord
  2
DIVIDE2
 70
    64
  3
__..__..__..__..__..__..__..__..__..__..__..__.
 72
    65
 73
     6
 40
0.625
 49
0.25
 74
     0
 49
-0.125
 74
     0
 49
0.0
 74
     0
 49
-0.125
 74
     0
 49
0.0
 74
     0
 49
-0.125
 74
     0
  0
LTYPE
  5
27
100
AcDbSymbolTableRecord
100
AcDbLinetypeTableRecord
  2
DOT
 70
    64
  3
. . . . . . . . . . . . . . . . . . . . . . . .
 72
    65
 73
     2
 40
0.25
 49
0.0
 74
     0
 49
-0.25
 74
     0
  0
LTYPE
  5
28
100
AcDbSymbolTableRecord
100
AcDbLinetypeTableRecord
  2
HIDDEN
 70
    64
  3
__ __ __ __ __ __ __ __ __ __ __ __ __ __ __ __
 72
    65
 73
     2
 40
0.375
 49
0.25
 74
     0
 49
-0.125
 74
     0
  0
LTYPE
  5
29
100
AcDbSymbolTableRecord
100
AcDbLinetypeTableRecord
  2
PHANTOM
 70
    64
  3
______  __  __  ______  __  __  ______  __  __ 
 72
    65
 73
     6
 40
2.5
 49
1.25
 74
     0
 49
-0.25
 74
     0
 49
0.25
 74
     0
 49
-0.25
 74
     0
 49
0.25
 74
     0
 49
-0.25
 74
     0
  0
ENDTAB
  0
TABLE
  2
LAYER
  5
2
100
AcDbSymbolTable
 70
     3
  0
LAYER
  5
14
100
AcDbSymbolTableRecord
100
AcDbLayerTableRecord
  2
0
 70
     0
 62
     7
  6
CONTINUOUS
  0
LAYER
  5
2A
100
AcDbSymbolTableRecord
100
AcDbLayerTableRecord
  2
0
 70
     0
 62
     7
  6
CONTINUOUS
  0
LAYER
  5
2B
100
AcDbSymbolTableRecord
100
AcDbLayerTableRecord
  2
1
 70
     0
 62
     7
  6
CONTINUOUS
  0
ENDTAB
  0
TABLE
  2
STYLE
  5
3
100
AcDbSymbolTable
 70
     2
  0
STYLE
  5
17
100
AcDbSymbolTableRecord
100
AcDbTextStyleTableRecord
  2
STANDARD
 70
     0
 40
0.0
 41
1.0
 50
0.0
 71
     0
 42
0.0
  3
txt
  4

  0
STYLE
  5
1D
100
AcDbSymbolTableRecord
100
AcDbTextStyleTableRecord
  2
BIGFONT
 70
    64
 40
3.0
 41
1.0
 50
0.0
 71
     0
 42
0.2
  3

  4
BIGFONT
  0
ENDTAB
  0
TABLE
  2
VIEW
  5
5
100
AcDbSymbolTable
 70
     0
  0
ENDTAB
  0
TABLE
  2
UCS
  5
6
100
AcDbSymbolTable
 70
     0
  0
ENDTAB
  0
TABLE
  2
APPID
  5
8
100
AcDbSymbolTable
 70
     1
  0
APPID
  5
16
100
AcDbSymbolTableRecord
100
AcDbRegAppTableRecord
  2
ACAD
 70
     0
  0
ENDTAB
  0
TABLE
  2
DIMSTYLE
  5
9
100
AcDbSymbolTable
 70
     1
  0
DIMSTYLE
105
18
100
AcDbSymbolTableRecord
100
AcDbDimStyleTableRecord
  2
STANDARD
 70
     0
  3

  4

  5

  6

  7

 40
1.0
 41
0.18
 42
0.0625
 43
0.38
 44
0.18
 45
0.0
 46
0.0
 47
0.0
 48
0.0
 71
     0
 72
     0
 73
     1
 74
     1
 75
     0
 76
     0
 77
     0
 78
     0
140
0.18
141
0.09
142
0.0
143
25.4
144
1.0
145
0.0
146
1.0
147
0.09
170
     0
171
     2
172
     0
173
     0
174
     0
175
     0
176
     0
177
     0
178
     0
270
     2
271
     4
272
     4
273
     2
274
     2
275
     0
280
     0
281
     0
282
     0
283
     1
284
     0
285
     0
286
     0
287
     0
288
     0
340
17
  0
ENDTAB
  0
TABLE
  2
BLOCK_RECORD
  5
1
100
AcDbSymbolTable
 70
     0
  0
BLOCK_RECORD
  5
A
100
AcDbSymbolTableRecord
100
AcDbBlockTableRecord
  2
*MODEL_SPACE
  0
BLOCK_RECORD
  5
B
100
AcDbSymbolTableRecord
100
AcDbBlockTableRecord
  2
*PAPER_SPACE
  0
ENDTAB
  0
ENDSEC
  0
SECTION
  2
BLOCKS
  0
BLOCK
  5
D
100
AcDbEntity
  8
0
100
AcDbBlockBegin
  2
*MODEL_SPACE
 70
     0
 10
0.0
 20
0.0
 30
0.0
  3
*MODEL_SPACE
  1

  0
ENDBLK
  5
E
100
AcDbEntity
  8
0
100
AcDbBlockEnd
  0
BLOCK
  5
F
100
AcDbEntity
 67
     1
  8
0
100
AcDbBlockBegin
  2
*PAPER_SPACE
 70
     0
 10
0.0
 20
0.0
 30
0.0
  3
*PAPER_SPACE
  1

  0
ENDBLK
  5
10
100
AcDbEntity
 67
     1
  8
0
100
AcDbBlockEnd
  0
ENDSEC
  0
SECTION
  2
ENTITIES
  0
POLYLINE
  5
2D
100
AcDbEntity
  8
1
  6
CONTINUOUS
 62
   212
 48
0.75
100
AcDb2dPolyline
 66
     1
 10
0.0
 20
0.0
 30
0.0
 70
   128
  0
VERTEX
  5
2E
100
AcDbEntity
  8
1
  6
CONTINUOUS
 62
   212
 48
0.75
100
AcDbVertex
100
AcDb2dVertex
 10
2.997552
 20
0.994064
 30
0.0
 40
0.0
 41
0.0
  0
VERTEX
  5
2F
100
AcDbEntity
  8
1
  6
CONTINUOUS
 62
   212
 48
0.75
100
AcDbVertex
100
AcDb2dVertex
 10
2.997552
 20
0.99784
 30
0.0
 40
0.0
 41
0.0
  0
SEQEND
  5
30
100
AcDbEntity
  8
0
  0
POLYLINE
  5
31
100
AcDbEntity
  8
1
  6
CONTINUOUS
 62
   212
 48
0.75
100
AcDb2dPolyline
 66
     1
 10
0.0
 20
0.0
 30
0.0
 70
   128
  0
VERTEX
  5
32
100
AcDbEntity
  8
1
  6
CONTINUOUS
 62
   212
 48
0.75
100
AcDbVertex
100
AcDb2dVertex
 10
2.995852
 20
0.994064
 30
0.0
 40
0.0
 41
0.0
  0
VERTEX
  5
33
100
AcDbEntity
  8
1
  6
CONTINUOUS
 62
   212
 48
0.75
100
AcDbVertex
100
AcDb2dVertex
 10
2.995852
 20
1.002942
 30
0.0
 40
0.0
 41
0.0
  0
SEQEND
  5
34
100
AcDbEntity
  8
0
  0
POLYLINE
  5
35
100
AcDbEntity
  8
1
  6
CONTINUOUS
 62
   212
 48
0.75
100
AcDb2dPolyline
 66
     1
 10
0.0
 20
0.0
 30
0.0
 70
   128
  0
VERTEX
  5
36
100
AcDbEntity
  8
1
  6
CONTINUOUS
 62
   212
 48
0.75
100
AcDbVertex
100
AcDb2dVertex
 10
2.989352
 20
0.994064
 30
0.0
 40
0.0
 41
0.0
  0
VERTEX
  5
37
100
AcDbEntity
  8
1
  6
CONTINUOUS
 62
   212
 48
0.75
100
AcDbVertex
100
AcDb2dVertex
 10
2.989352
 20
1.010697
 30
0.0
 40
0.0
 41
0.0
  0
SEQEND
  5
38
100
AcDbEntity
  8
0
  0
POLYLINE
  5
39
100
AcDbEntity
  8
1
  6
CONTINUOUS
 62
   212
 48
0.75
100
AcDb2dPolyline
 66
     1
 10
0.0
 20
0.0
 30
0.0
 70
   128
  0
VERTEX
  5
3A
100
AcDbEntity
  8
1
  6
CONTINUOUS
 62
   212
 48
0.75
100
AcDbVertex
100
AcDb2dVertex
 10
2.980752
 20
0.994064
 30
0.0
 40
0.0
 41
0.0
  0
VERTEX
  5
3B
100
AcDbEntity
  8
1
  6
CONTINUOUS
 62
   212
 48
0.75
100
AcDbVertex
100
AcDb2dVertex
 10
2.980752
 20
1.016616
 30
0.0
 40
0.0
 41
0.0
  0
SEQEND
  5
3C
100
AcDbEntity
  8
0
  0
POLYLINE
  5
3D
100
AcDbEntity
  8
1
  6
CONTINUOUS
 62
   212
 48
0.75
100
AcDb2dPolyline
 66
     1
 10
0.0
 20
0.0
 30
0.0
 70
   128
  0
VERTEX
  5
3E
100
AcDbEntity
  8
1
  6
CONTINUOUS
 62
   212
 48
0.75
100
AcDbVertex
100
AcDb2dVertex
 10
2.978952
 20
0.994064
 30
0.0
 40
0.0
 41
0.0
  0
VERTEX
  5
3F
100
AcDbEntity
  8
1
  6
CONTINUOUS
 62
   212
 48
0.75
100
AcDbVertex
100
AcDb2dVertex
 10
2.978952
 20
1.017636
 30
0.0
 40
0.0
 41
0.0
  0
SEQEND
  5
40
100
AcDbEntity
  8
0
  0
POLYLINE
  5
41
100
AcDbEntity
  8
1
  6
CONTINUOUS
 62
   212
 48
0.75
100
AcDb2dPolyline
 66
     1
 10
0.0
 20
0.0
 30
0.0
 70
   128
  0
VERTEX
  5
42
100
AcDbEntity
  8
1
  6
CONTINUOUS
 62
   212
 48
0.75
100
AcDbVertex
100
AcDb2dVertex
 10
2.967552
 20
0.994064
 30
0.0
 40
0.0
 41
0.0
  0
VERTEX
  5
43
100
AcDbEntity
  8
1
  6
CONTINUOUS
 62
   212
 48
0.75
100
AcDbVertex
100
AcDb2dVertex
 10
2.967552
 20
1.024167
 30
0.0
 40
0.0
 41
0.0
  0
SEQEND
  5
44
100
AcDbEntity
  8
0
  0
POLYLINE
  5
45
100
AcDbEntity
  8
1
  6
CONTINUOUS
 62
   212
 48
0.75
100
AcDb2dPolyline
 66
     1
 10
0.0
 20
0.0
 30
0.0
 70
   128
  0
VERTEX
  5
46
100
AcDbEntity
  8
1
  6
CONTINUOUS
 62
   212
 48
0.75
100
AcDbVertex
100
AcDb2dVertex
 10
2.947552
 20
0.994064
 30
0.0
 40
0.0
 41
0.0
  0
VERTEX
  5
47
100
AcDbEntity
  8
1
  6
CONTINUOUS
 62
   212
 48
0.75
100
AcDbVertex
100
AcDb2dVertex
 10
2.947552
 20
1.034779
 30
0.0
 40
0.0
 41
0.0
  0
SEQEND
  5
48
100
AcDbEntity
  8
0
  0
POLYLINE
  5
49
100
AcDbEntity
  8
1
  6
CONTINUOUS
 62
   212
 48
0.75
100
AcDb2dPolyline
 66
     1
 10
0.0
 20
0.0
 30
0.0
 70
   128
  0
VERTEX
  5
4A
100
AcDbEntity
  8
1
  6
CONTINUOUS
 62
   212
 48
0.75
100
AcDbVertex
100
AcDb2dVertex
 10
2.926352
 20
0.994064
 30
0.0
 40
0.0
 41
0.0
  0
VERTEX
  5
4B
100
AcDbEntity
  8
1
  6
CONTINUOUS
 62
   212
 48
0.75
100
AcDbVertex
100
AcDb2dVertex
 10
2.926352
 20
1.044881
 30
0.0
 40
0.0
 41
0.0
  0
SEQEND
  5
4C
100
AcDbEntity
  8
0
  0
POLYLINE
  5
4D
100
AcDbEntity
  8
1
  6
CONTINUOUS
 62
   212
 48
0.75
100
AcDb2dPolyline
 66
     1
 10
0.0
 20
0.0
 30
0.0
 70
   128
  0
VERTEX
  5
4E
100
AcDbEntity
  8
1
  6
CONTINUOUS
 62
   212
 48
0.75
100
AcDbVertex
100
AcDb2dVertex
 10
2.900252
 20
0.994064
 30
0.0
 40
0.0
 41
0.0
  0
VERTEX
  5
4F
100
AcDbEntity
  8
1
  6
CONTINUOUS
 62
   212
 48
0.75
100
AcDbVertex
100
AcDb2dVertex
 10
2.900252
 20
1.055595
 30
0.0
 40
0.0
 41
0.0
  0
SEQEND
  5
50
100
AcDbEntity
  8
0
  0
POLYLINE
  5
51
100
AcDbEntity
  8
1
  6
CONTINUOUS
 62
   212
 48
0.75
100
AcDb2dPolyline
 66
     1
 10
0.0
 20
0.0
 30
0.0
 70
   128
  0
VERTEX
  5
52
100
AcDbEntity
  8
1
  6
CONTINUOUS
 62
   212
 48
0.75
100
AcDbVertex
100
AcDb2dVertex
 10
2.886052
 20
0.994064
 30
0.0
 40
0.0
 41
0.0
  0
VERTEX
  5
53
100
AcDbEntity
  8
1
  6
CONTINUOUS
 62
   212
 48
0.75
100
AcDbVertex
100
AcDb2dVertex
 10
2.886052
 20
1.060799
 30
0.0
 40
0.0
 41
0.0
  0
SEQEND
  5
54
100
AcDbEntity
  8
0
  0
POLYLINE
  5
55
100
AcDbEntity
  8
1
  6
CONTINUOUS
 62
   212
 48
0.75
100
AcDb2dPolyline
 66
     1
 10
0.0
 20
0.0
 30
0.0
 70
   128
  0
VERTEX
  5
56
100
AcDbEntity
  8
1
  6
CONTINUOUS
 62
   212
 48
0.75
100
AcDbVertex
100
AcDb2dVertex
 10
2.861852
 20
0.994064
 30
0.0
 40
0.0
 41
0.0
  0
VERTEX
  5
57
100
AcDbEntity
  8
1
  6
CONTINUOUS
 62
   212
 48
0.75
100
AcDbVertex
100
AcDb2dVertex
 10
2.861852
 20
1.068248
 30
0.0
 40
0.0
 41
0.0
  0
SEQEND
  5
58
100
AcDbEntity
  8
0
  0
POLYLINE
  5
59
100
AcDbEntity
  8
1
  6
CONTINUOUS
 62
   212
 48
0.75
100
AcDb2dPolyline
 66
     1
 10
0.0
 20
0.0
 30
0.0
 70
   128
  0
VERTEX
  5
5A
100
AcDbEntity
  8
1
  6
CONTINUOUS
 62
   212
 48
0.75
100
AcDbVertex
100
AcDb2dVertex
 10
2.830852
 20
0.994064
 30
0.0
 40
0.0
 41
0.0
  0
VERTEX
  5
5B
100
AcDbEntity
  8
1
  6
CONTINUOUS
 62
   212
 48
0.75
100
AcDbVertex
100
AcDb2dVertex
 10
2.830852
 20
1.076105
 30
0.0
 40
0.0
 41
0.0
  0
SEQEND
  5
5C
100
AcDbEntity
  8
0
  0
POLYLINE
  5
5D
100
AcDbEntity
  8
1
  6
CONTINUOUS
 62
   212
 48
0.75
100
AcDb2dPolyline
 66
     1
 10
0.0
 20
0.0
 30
0.0
 70
   128
  0
VERTEX
  5
5E
100
AcDbEntity
  8
1
  6
CONTINUOUS
 62
   212
 48
0.75
100
AcDbVertex
100
AcDb2dVertex
 10
2.808152
 20
0.994064
 30
0.0
 40
0.0
 41
0.0
  0
VERTEX
  5
5F
100
AcDbEntity
  8
1
  6
CONTINUOUS
 62
   212
 48
0.75
100
AcDbVertex
100
AcDb2dVertex
 10
2.808152
 20
1.080595
 30
0.0
 40
0.0
 41
0.0
  0
SEQEND
  5
60
100
AcDbEntity
  8
0
  0
POLYLINE
  5
61
100
AcDbEntity
  8
1
  6
CONTINUOUS
 62
   212
 48
0.75
100
AcDb2dPolyline
 66
     1
 10
0.0
 20
0.0
 30
0.0
 70
   128
  0
VERTEX
  5
62
100
AcDbEntity
  8
1
  6
CONTINUOUS
 62
   212
 48
0.75
100
AcDbVertex
100
AcDb2dVertex
 10
2.795652
 20
0.994064
 30
0.0
 40
0.0
 41
0.0
  0
VERTEX
  5
63
100
AcDbEntity
  8
1
  6
CONTINUOUS
 62
   212
 48
0.75
100
AcDbVertex
100
AcDb2dVertex
 10
2.795652
 20
1.082534
 30
0.0
 40
0.0
 41
0.0
  0
SEQEND
  5
64
100
AcDbEntity
  8
0
  0
POLYLINE
  5
65
100
AcDbEntity
  8
1
  6
CONTINUOUS
 62
   212
 48
0.75
100
AcDb2dPolyline
 66
     1
 10
0.0
 20
0.0
 30
0.0
 70
   128
  0
VERTEX
  5
66
100
AcDbEntity
  8
1
  6
CONTINUOUS
 62
   212
 48
0.75
100
AcDbVertex
100
AcDb2dVertex
 10
2.778152
 20
0.994064
 30
0.0
 40
0.0
 41
0.0
  0
VERTEX
  5
67
100
AcDbEntity
  8
1
  6
CONTINUOUS
 62
   212
 48
0.75
100
AcDbVertex
100
AcDb2dVertex
 10
2.778152
 20
1.085187
 30
0.0
 40
0.0
 41
0.0
  0
SEQEND
  5
68
100
AcDbEntity
  8
0
  0
POLYLINE
  5
69
100
AcDbEntity
  8
1
  6
CONTINUOUS
 62
   212
 48
0.75
100
AcDb2dPolyline
 66
     1
 10
0.0
 20
0.0
 30
0.0
 70
   128
  0
VERTEX
  5
6A
100
AcDbEntity
  8
1
  6
CONTINUOUS
 62
   212
 48
0.75
100
AcDbVertex
100
AcDb2dVertex
 10
2.745452
 20
0.994064
 30
0.0
 40
0.0
 41
0.0
  0
VERTEX
  5
6B
100
AcDbEntity
  8
1
  6
CONTINUOUS
 62
   212
 48
0.75
100
AcDbVertex
100
AcDb2dVertex
 10
2.745452
 20
1.088962
 30
0.0
 40
0.0
 41
0.0
  0
SEQEND
  5
6C
100
AcDbEntity
  8
0
  0
POLYLINE
  5
6D
100
AcDbEntity
  8
1
  6
CONTINUOUS
 62
   212
 48
0.75
100
AcDb2dPolyline
 66
     1
 10
0.0
 20
0.0
 30
0.0
 70
   128
  0
VERTEX
  5
6E
100
AcDbEntity
  8
1
  6
CONTINUOUS
 62
   212
 48
0.75
100
AcDbVertex
100
AcDb2dVertex
 10
2.703052
 20
0.994064
 30
0.0
 40
0.0
 41
0.0
  0
VERTEX
  5
6F
100
AcDbEntity
  8
1
  6
CONTINUOUS
 62
   212
 48
0.75
100
AcDbVertex
100
AcDb2dVertex
 10
2.703052
 20
1.092228
 30
0.0
 40
0.0
 41
0.0
  0
SEQEND
  5
70
100
AcDbEntity
  8
0
  0
POLYLINE
  5
71
100
AcDbEntity
  8
1
  6
CONTINUOUS
 62
   212
 48
0.75
100
AcDb2dPolyline
 66
     1
 10
0.0
 20
0.0
 30
0.0
 70
   128
  0
VERTEX
  5
72
100
AcDbEntity
  8
1
  6
CONTINUOUS
 62
   212
 48
0.75
100
AcDbVertex
100
AcDb2dVertex
 10
2.668752
 20
0.994064
 30
0.0
 40
0.0
 41
0.0
  0
VERTEX
  5
73
100
AcDbEntity
  8
1
  6
CONTINUOUS
 62
   212
 48
0.75
100
AcDbVertex
100
AcDb2dVertex
 10
2.668752
 20
1.093656
 30
0.0
 40
0.0
 41
0.0
  0
SEQEND
  5
74
100
AcDbEntity
  8
0
  0
POLYLINE
  5
75
100
AcDbEntity
  8
1
  6
CONTINUOUS
 62
   212
 48
0.75
100
AcDb2dPolyline
 66
     1
 10
0.0
 20
0.0
 30
0.0
 70
   128
  0
VERTEX
  5
76
100
AcDbEntity
  8
1
  6
CONTINUOUS
 62
   212
 48
0.75
100
AcDbVertex
100
AcDb2dVertex
 10
2.619852
 20
0.994064
 30
0.0
 40
0.0
 41
0.0
  0
VERTEX
  5
77
100
AcDbEntity
  8
1
  6
CONTINUOUS
 62
   212
 48
0.75
100
AcDbVertex
100
AcDb2dVertex
 10
2.619852
 20
1.094064
 30
0.0
 40
0.0
 41
0.0
  0
SEQEND
  5
78
100
AcDbEntity
  8
0
  0
POLYLINE
  5
79
100
AcDbEntity
  8
1
  6
CONTINUOUS
 62
   212
 48
0.75
100
AcDb2dPolyline
 66
     1
 10
0.0
 20
0.0
 30
0.0
 70
   128
  0
VERTEX
  5
7A
100
AcDbEntity
  8
1
  6
CONTINUOUS
 62
   212
 48
0.75
100
AcDbVertex
100
AcDb2dVertex
 10
2.580752
 20
0.994064
 30
0.0
 40
0.0
 41
0.0
  0
VERTEX
  5
7B
100
AcDbEntity
  8
1
  6
CONTINUOUS
 62
   212
 48
0.75
100
AcDbVertex
100
AcDb2dVertex
 10
2.580752
 20
1.092738
 30
0.0
 40
0.0
 41
0.0
  0
SEQEND
  5
7C
100
AcDbEntity
  8
0
  0
POLYLINE
  5
7D
100
AcDbEntity
  8
1
  6
CONTINUOUS
 62
   212
 48
0.75
100
AcDb2dPolyline
 66
     1
 10
0.0
 20
0.0
 30
0.0
 70
   128
  0
VERTEX
  5
7E
100
AcDbEntity
  8
1
  6
CONTINUOUS
 62
   212
 48
0.75
100
AcDbVertex
100
AcDb2dVertex
 10
2.526952
 20
0.994064
 30
0.0
 40
0.0
 41
0.0
  0
VERTEX
  5
7F
100
AcDbEntity
  8
1
  6
CONTINUOUS
 62
   212
 48
0.75
100
AcDbVertex
100
AcDb2dVertex
 10
2.526952
 20
1.089269
 30
0.0
 40
0.0
 41
0.0
  0
SEQEND
  5
80
100
AcDbEntity
  8
0
  0
POLYLINE
  5
81
100
AcDbEntity
  8
1
  6
CONTINUOUS
 62
   212
 48
0.75
100
AcDb2dPolyline
 66
     1
 10
0.0
 20
0.0
 30
0.0
 70
   128
  0
VERTEX
  5
82
100
AcDbEntity
  8
1
  6
CONTINUOUS
 62
   212
 48
0.75
100
AcDbVertex
100
AcDb2dVertex
 10
2.465252
 20
0.994064
 30
0.0
 40
0.0
 41
0.0
  0
VERTEX
  5
83
100
AcDbEntity
  8
1
  6
CONTINUOUS
 62
   212
 48
0.75
100
AcDbVertex
100
AcDb2dVertex
 10
2.465252
 20
1.083554
 30
0.0
 40
0.0
 41
0.0
  0
SEQEND
  5
84
100
AcDbEntity
  8
0
  0
POLYLINE
  5
85
100
AcDbEntity
  8
1
  6
CONTINUOUS
 62
   212
 48
0.75
100
AcDb2dPolyline
 66
     1
 10
0.0
 20
0.0
 30
0.0
 70
   128
  0
VERTEX
  5
86
100
AcDbEntity
  8
1
  6
CONTINUOUS
 62
   212
 48
0.75
100
AcDbVertex
100
AcDb2dVertex
 10
2.410152
 20
0.994064
 30
0.0
 40
0.0
 41
0.0
  0
VERTEX
  5
87
100
AcDbEntity
  8
1
  6
CONTINUOUS
 62
   212
 48
0.75
100
AcDbVertex
100
AcDb2dVertex
 10
2.410152
 20
1.077126
 30
0.0
 40
0.0
 41
0.0
  0
SEQEND
  5
88
100
AcDbEntity
  8
0
  0
POLYLINE
  5
89
100
AcDbEntity
  8
1
  6
CONTINUOUS
 62
   212
 48
0.75
100
AcDb2dPolyline
 66
     1
 10
0.0
 20
0.0
 30
0.0
 70
   128
  0
VERTEX
  5
8A
100
AcDbEntity
  8
1
  6
CONTINUOUS
 62
   212
 48
0.75
100
AcDbVertex
100
AcDb2dVertex
 10
2.349052
 20
0.994064
 30
0.0
 40
0.0
 41
0.0
  0
VERTEX
  5
8B
100
AcDbEntity
  8
1
  6
CONTINUOUS
 62
   212
 48
0.75
100
AcDbVertex
100
AcDb2dVertex
 10
2.349052
 20
1.068452
 30
0.0
 40
0.0
 41
0.0
  0
SEQEND
  5
8C
100
AcDbEntity
  8
0
  0
POLYLINE
  5
8D
100
AcDbEntity
  8
1
  6
CONTINUOUS
 62
   212
 48
0.75
100
AcDb2dPolyline
 66
     1
 10
0.0
 20
0.0
 30
0.0
 70
   128
  0
VERTEX
  5
8E
100
AcDbEntity
  8
1
  6
CONTINUOUS
 62
   212
 48
0.75
100
AcDbVertex
100
AcDb2dVertex
 10
2.293452
 20
0.994064
 30
0.0
 40
0.0
 41
0.0
  0
VERTEX
  5
8F
100
AcDbEntity
  8
1
  6
CONTINUOUS
 62
   212
 48
0.75
100
AcDbVertex
100
AcDb2dVertex
 10
2.293452
 20
1.059167
 30
0.0
 40
0.0
 41
0.0
  0
SEQEND
  5
90
100
AcDbEntity
  8
0
  0
POLYLINE
  5
91
100
AcDbEntity
  8
1
  6
CONTINUOUS
 62
   212
 48
0.75
100
AcDb2dPolyline
 66
     1
 10
0.0
 20
0.0
 30
0.0
 70
   128
  0
VERTEX
  5
92
100
AcDbEntity
  8
1
  6
CONTINUOUS
 62
   212
 48
0.75
100
AcDbVertex
100
AcDb2dVertex
 10
2.256252
 20
0.994064
 30
0.0
 40
0.0
 41
0.0
  0
VERTEX
  5
93
100
AcDbEntity
  8
1
  6
CONTINUOUS
 62
   212
 48
0.75
100
AcDbVertex
100
AcDb2dVertex
 10
2.256252
 20
1.05233
 30
0.0
 40
0.0
 41
0.0
  0
SEQEND
  5
94
100
AcDbEntity
  8
0
  0
POLYLINE
  5
95
100
AcDbEntity
  8
1
  6
CONTINUOUS
 62
   212
 48
0.75
100
AcDb2dPolyline
 66
     1
 10
0.0
 20
0.0
 30
0.0
 70
   128
  0
VERTEX
  5
96
100
AcDbEntity
  8
1
  6
CONTINUOUS
 62
   212
 48
0.75
100
AcDbVertex
100
AcDb2dVertex
 10
2.225252
 20
0.994064
 30
0.0
 40
0.0
 41
0.0
  0
VERTEX
  5
97
100
AcDbEntity
  8
1
  6
CONTINUOUS
 62
   212
 48
0.75
100
AcDbVertex
100
AcDb2dVertex
 10
2.225252
 20
1.046309
 30
0.0
 40
0.0
 41
0.0
  0
SEQEND
  5
98
100
AcDbEntity
  8
0
  0
POLYLINE
  5
99
100
AcDbEntity
  8
1
  6
CONTINUOUS
 62
   212
 48
0.75
100
AcDb2dPolyline
 66
     1
 10
0.0
 20
0.0
 30
0.0
 70
   128
  0
VERTEX
  5
9A
100
AcDbEntity
  8
1
  6
CONTINUOUS
 62
   212
 48
0.75
100
AcDbVertex
100
AcDb2dVertex
 10
2.201652
 20
0.994064
 30
0.0
 40
0.0
 41
0.0
  0
VERTEX
  5
9B
100
AcDbEntity
  8
1
  6
CONTINUOUS
 62
   212
 48
0.75
100
AcDbVertex
100
AcDb2dVertex
 10
2.201652
 20
1.041616
 30
0.0
 40
0.0
 41
0.0
  0
SEQEND
  5
9C
100
AcDbEntity
  8
0
  0
POLYLINE
  5
9D
100
AcDbEntity
  8
1
  6
CONTINUOUS
 62
   212
 48
0.75
100
AcDb2dPolyline
 66
     1
 10
0.0
 20
0.0
 30
0.0
 70
   128
  0
VERTEX
  5
9E
100
AcDbEntity
  8
1
  6
CONTINUOUS
 62
   212
 48
0.75
100
AcDbVertex
100
AcDb2dVertex
 10
2.172752
 20
0.994064
 30
0.0
 40
0.0
 41
0.0
  0
VERTEX
  5
9F
100
AcDbEntity
  8
1
  6
CONTINUOUS
 62
   212
 48
0.75
100
AcDbVertex
100
AcDb2dVertex
 10
2.172752
 20
1.035595
 30
0.0
 40
0.0
 41
0.0
  0
SEQEND
  5
A0
100
AcDbEntity
  8
0
  0
POLYLINE
  5
A1
100
AcDbEntity
  8
1
  6
CONTINUOUS
 62
   212
 48
0.75
100
AcDb2dPolyline
 66
     1
 10
0.0
 20
0.0
 30
0.0
 70
   128
  0
VERTEX
  5
A2
100
AcDbEntity
  8
1
  6
CONTINUOUS
 62
   212
 48
0.75
100
AcDbVertex
100
AcDb2dVertex
 10
2.140452
 20
0.994064
 30
0.0
 40
0.0
 41
0.0
  0
VERTEX
  5
A3
100
AcDbEntity
  8
1
  6
CONTINUOUS
 62
   212
 48
0.75
100
AcDbVertex
100
AcDb2dVertex
 10
2.140452
 20
1.029064
 30
0.0
 40
0.0
 41
0.0
  0
SEQEND
  5
A4
100
AcDbEntity
  8
0
  0
POLYLINE
  5
A5
100
AcDbEntity
  8
1
  6
CONTINUOUS
 62
   212
 48
0.75
100
AcDb2dPolyline
 66
     1
 10
0.0
 20
0.0
 30
0.0
 70
   128
  0
VERTEX
  5
A6
100
AcDbEntity
  8
1
  6
CONTINUOUS
 62
   212
 48
0.75
100
AcDbVertex
100
AcDb2dVertex
 10
2.117752
 20
0.994064
 30
0.0
 40
0.0
 41
0.0
  0
VERTEX
  5
A7
100
AcDbEntity
  8
1
  6
CONTINUOUS
 62
   212
 48
0.75
100
AcDbVertex
100
AcDb2dVertex
 10
2.117752
 20
1.024269
 30
0.0
 40
0.0
 41
0.0
  0
SEQEND
  5
A8
100
AcDbEntity
  8
0
  0
POLYLINE
  5
A9
100
AcDbEntity
  8
1
  6
CONTINUOUS
 62
   212
 48
0.75
100
AcDb2dPolyline
 66
     1
 10
0.0
 20
0.0
 30
0.0
 70
   128
  0
VERTEX
  5
AA
100
AcDbEntity
  8
1
  6
CONTINUOUS
 62
   212
 48
0.75
100
AcDbVertex
100
AcDb2dVertex
 10
2.091652
 20
0.994064
 30
0.0
 40
0.0
 41
0.0
  0
VERTEX
  5
AB
100
AcDbEntity
  8
1
  6
CONTINUOUS
 62
   212
 48
0.75
100
AcDbVertex
100
AcDb2dVertex
 10
2.091652
 20
1.018656
 30
0.0
 40
0.0
 41
0.0
  0
SEQEND
  5
AC
100
AcDbEntity
  8
0
  0
POLYLINE
  5
AD
100
AcDbEntity
  8
1
  6
CONTINUOUS
 62
   212
 48
0.75
100
AcDb2dPolyline
 66
     1
 10
0.0
 20
0.0
 30
0.0
 70
   128
  0
VERTEX
  5
AE
100
AcDbEntity
  8
1
  6
CONTINUOUS
 62
   212
 48
0.75
100
AcDbVertex
100
AcDb2dVertex
 10
2.069952
 20
0.994064
 30
0.0
 40
0.0
 41
0.0
  0
VERTEX
  5
AF
100
AcDbEntity
  8
1
  6
CONTINUOUS
 62
   212
 48
0.75
100
AcDbVertex
100
AcDb2dVertex
 10
2.069952
 20
1.013962
 30
0.0
 40
0.0
 41
0.0
  0
SEQEND
  5
B0
100
AcDbEntity
  8
0
  0
POLYLINE
  5
B1
100
AcDbEntity
  8
1
  6
CONTINUOUS
 62
   212
 48
0.75
100
AcDb2dPolyline
 66
     1
 10
0.0
 20
0.0
 30
0.0
 70
   128
  0
VERTEX
  5
B2
100
AcDbEntity
  8
1
  6
CONTINUOUS
 62
   212
 48
0.75
100
AcDbVertex
100
AcDb2dVertex
 10
2.054752
 20
0.994064
 30
0.0
 40
0.0
 41
0.0
  0
VERTEX
  5
B3
100
AcDbEntity
  8
1
  6
CONTINUOUS
 62
   212
 48
0.75
100
AcDbVertex
100
AcDb2dVertex
 10
2.054752
 20
1.010595
 30
0.0
 40
0.0
 41
0.0
  0
SEQEND
  5
B4
100
AcDbEntity
  8
0
  0
POLYLINE
  5
B5
100
AcDbEntity
  8
1
  6
CONTINUOUS
 62
   212
 48
0.75
100
AcDb2dPolyline
 66
     1
 10
0.0
 20
0.0
 30
0.0
 70
   128
  0
VERTEX
  5
B6
100
AcDbEntity
  8
1
  6
CONTINUOUS
 62
   212
 48
0.75
100
AcDbVertex
100
AcDb2dVertex
 10
2.043252
 20
0.994064
 30
0.0
 40
0.0
 41
0.0
  0
VERTEX
  5
B7
100
AcDbEntity
  8
1
  6
CONTINUOUS
 62
   212
 48
0.75
100
AcDbVertex
100
AcDb2dVertex
 10
2.043252
 20
1.007942
 30
0.0
 40
0.0
 41
0.0
  0
SEQEND
  5
B8
100
AcDbEntity
  8
0
  0
POLYLINE
  5
B9
100
AcDbEntity
  8
1
  6
CONTINUOUS
 62
   212
 48
0.75
100
AcDb2dPolyline
 66
     1
 10
0.0
 20
0.0
 30
0.0
 70
   128
  0
VERTEX
  5
BA
100
AcDbEntity
  8
1
  6
CONTINUOUS
 62
   212
 48
0.75
100
AcDbVertex
100
AcDb2dVertex
 10
2.037952
 20
0.994064
 30
0.0
 40
0.0
 41
0.0
  0
VERTEX
  5
BB
100
AcDbEntity
  8
1
  6
CONTINUOUS
 62
   212
 48
0.75
100
AcDbVertex
100
AcDb2dVertex
 10
2.037952
 20
1.006718
 30
0.0
 40
0.0
 41
0.0
  0
SEQEND
  5
BC
100
AcDbEntity
  8
0
  0
POLYLINE
  5
BD
100
AcDbEntity
  8
1
  6
CONTINUOUS
 62
   212
 48
0.75
100
AcDb2dPolyline
 66
     1
 10
0.0
 20
0.0
 30
0.0
 70
   128
  0
VERTEX
  5
BE
100
AcDbEntity
  8
1
  6
CONTINUOUS
 62
   212
 48
0.75
100
AcDbVertex
100
AcDb2dVertex
 10
2.024752
 20
0.994064
 30
0.0
 40
0.0
 41
0.0
  0
VERTEX
  5
BF
100
AcDbEntity
  8
1
  6
CONTINUOUS
 62
   212
 48
0.75
100
AcDbVertex
100
AcDb2dVertex
 10
2.024752
 20
1.004064
 30
0.0
 40
0.0
 41
0.0
  0
SEQEND
  5
C0
100
AcDbEntity
  8
0
  0
POLYLINE
  5
C1
100
AcDbEntity
  8
1
  6
CONTINUOUS
 62
   212
 48
0.75
100
AcDb2dPolyline
 66
     1
 10
0.0
 20
0.0
 30
0.0
 70
   128
  0
VERTEX
  5
C2
100
AcDbEntity
  8
1
  6
CONTINUOUS
 62
   212
 48
0.75
100
AcDbVertex
100
AcDb2dVertex
 10
2.019852
 20
0.994064
 30
0.0
 40
0.0
 41
0.0
  0
VERTEX
  5
C3
100
AcDbEntity
  8
1
  6
CONTINUOUS
 62
   212
 48
0.75
100
AcDbVertex
100
AcDb2dVertex
 10
2.019852
 20
1.00284
 30
0.0
 40
0.0
 41
0.0
  0
SEQEND
  5
C4
100
AcDbEntity
  8
0
  0
POLYLINE
  5
C5
100
AcDbEntity
  8
1
  6
CONTINUOUS
 62
   212
 48
0.75
100
AcDb2dPolyline
 66
     1
 10
0.0
 20
0.0
 30
0.0
 70
   128
  0
VERTEX
  5
C6
100
AcDbEntity
  8
1
  6
CONTINUOUS
 62
   212
 48
0.75
100
AcDbVertex
100
AcDb2dVertex
 10
2.015652
 20
0.994064
 30
0.0
 40
0.0
 41
0.0
  0
VERTEX
  5
C7
100
AcDbEntity
  8
1
  6
CONTINUOUS
 62
   212
 48
0.75
100
AcDbVertex
100
AcDb2dVertex
 10
2.015652
 20
1.002024
 30
0.0
 40
0.0
 41
0.0
  0
SEQEND
  5
C8
100
AcDbEntity
  8
0
  0
POLYLINE
  5
C9
100
AcDbEntity
  8
1
  6
CONTINUOUS
 62
   212
 48
0.75
100
AcDb2dPolyline
 66
     1
 10
0.0
 20
0.0
 30
0.0
 70
   128
  0
VERTEX
  5
CA
100
AcDbEntity
  8
1
  6
CONTINUOUS
 62
   212
 48
0.75
100
AcDbVertex
100
AcDb2dVertex
 10
2.012252
 20
0.994064
 30
0.0
 40
0.0
 41
0.0
  0
VERTEX
  5
CB
100
AcDbEntity
  8
1
  6
CONTINUOUS
 62
   212
 48
0.75
100
AcDbVertex
100
AcDb2dVertex
 10
2.012252
 20
1.001105
 30
0.0
 40
0.0
 41
0.0
  0
SEQEND
  5
CC
100
AcDbEntity
  8
0
  0
POLYLINE
  5
CD
100
AcDbEntity
  8
1
  6
CONTINUOUS
 62
   212
 48
0.75
100
AcDb2dPolyline
 66
     1
 10
0.0
 20
0.0
 30
0.0
 70
   128
  0
VERTEX
  5
CE
100
AcDbEntity
  8
1
  6
CONTINUOUS
 62
   212
 48
0.75
100
AcDbVertex
100
AcDb2dVertex
 10
2.009052
 20
0.994064
 30
0.0
 40
0.0
 41
0.0
  0
VERTEX
  5
CF
100
AcDbEntity
  8
1
  6
CONTINUOUS
 62
   212
 48
0.75
100
AcDbVertex
100
AcDb2dVertex
 10
2.009052
 20
1.000391
 30
0.0
 40
0.0
 41
0.0
  0
SEQEND
  5
D0
100
AcDbEntity
  8
0
  0
POLYLINE
  5
D1
100
AcDbEntity
  8
1
  6
CONTINUOUS
 62
   212
 48
0.75
100
AcDb2dPolyline
 66
     1
 10
0.0
 20
0.0
 30
0.0
 70
   128
  0
VERTEX
  5
D2
100
AcDbEntity
  8
1
  6
CONTINUOUS
 62
   212
 48
0.75
100
AcDbVertex
100
AcDb2dVertex
 10
2.005652
 20
0.994064
 30
0.0
 40
0.0
 41
0.0
  0
VERTEX
  5
D3
100
AcDbEntity
  8
1
  6
CONTINUOUS
 62
   212
 48
0.75
100
AcDbVertex
100
AcDb2dVertex
 10
2.005652
 20
0.999677
 30
0.0
 40
0.0
 41
0.0
  0
SEQEND
  5
D4
100
AcDbEntity
  8
0
  0
POLYLINE
  5
D5
100
AcDbEntity
  8
1
  6
CONTINUOUS
 62
   212
 48
0.75
100
AcDb2dPolyline
 66
     1
 10
0.0
 20
0.0
 30
0.0
 70
   128
  0
VERTEX
  5
D6
100
AcDbEntity
  8
1
  6
CONTINUOUS
 62
   212
 48
0.75
100
AcDbVertex
100
AcDb2dVertex
 10
2.003352
 20
0.994064
 30
0.0
 40
0.0
 41
0.0
  0
VERTEX
  5
D7
100
AcDbEntity
  8
1
  6
CONTINUOUS
 62
   212
 48
0.75
100
AcDbVertex
100
AcDb2dVertex
 10
2.003352
 20
0.999269
 30
0.0
 40
0.0
 41
0.0
  0
SEQEND
  5
D8
100
AcDbEntity
  8
0
  0
POLYLINE
  5
D9
100
AcDbEntity
  8
1
  6
CONTINUOUS
 62
   212
 48
0.75
100
AcDb2dPolyline
 66
     1
 10
0.0
 20
0.0
 30
0.0
 70
   128
  0
VERTEX
  5
DA
100
AcDbEntity
  8
1
  6
CONTINUOUS
 62
   212
 48
0.75
100
AcDbVertex
100
AcDb2dVertex
 10
2.001052
 20
0.994064
 30
0.0
 40
0.0
 41
0.0
  0
VERTEX
  5
DB
100
AcDbEntity
  8
1
  6
CONTINUOUS
 62
   212
 48
0.75
100
AcDbVertex
100
AcDb2dVertex
 10
2.001052
 20
0.998758
 30
0.0
 40
0.0
 41
0.0
  0
SEQEND
  5
DC
100
AcDbEntity
  8
0
  0
POLYLINE
  5
DD
100
AcDbEntity
  8
1
  6
CONTINUOUS
 62
   212
 48
0.75
100
AcDb2dPolyline
 66
     1
 10
0.0
 20
0.0
 30
0.0
 70
   128
  0
VERTEX
  5
DE
100
AcDbEntity
  8
1
  6
CONTINUOUS
 62
   212
 48
0.75
100
AcDbVertex
100
AcDb2dVertex
 10
1.998852
 20
0.994064
 30
0.0
 40
0.0
 41
0.0
  0
VERTEX
  5
DF
100
AcDbEntity
  8
1
  6
CONTINUOUS
 62
   212
 48
0.75
100
AcDbVertex
100
AcDb2dVertex
 10
1.998852
 20
0.997942
 30
0.0
 40
0.0
 41
0.0
  0
SEQEND
  5
E0
100
AcDbEntity
  8
0
  0
SPLINE
  5
E1
100
AcDbEntity
  8
1
  6
CONTINUOUS
 62
   212
 48
0.75
100
AcDbSpline
210
0.0
220
0.0
230
1.0
 70
     0
 71
     3
 72
     0
 73
     0
 74
    48
 44
0.0
 11
2.9978220245733391
 21
0.9940454652370969
 31
0.0
 11
2.9975520832809033
 21
0.9978400078481748
 31
0.0
 11
2.9958520832809032
 21
1.0029420483481748
 31
0.0
 11
2.9893520832809033
 21
1.0106971499081749
 31
0.0
 11
2.9807520832809034
 21
1.016615516888175
 31
0.0
 11
2.9789520832809031
 21
1.0176359249881748
 31
0.0
 11
2.9675520832809035
 21
1.0241665368281749
 31
0.0
 11
2.9475520832809035
 21
1.034778781068175
 31
0.0
 11
2.9263520832809031
 21
1.0448808212581751
 31
0.0
 11
2.9002520832809031
 21
1.055595106308175
 31
0.0
 11
2.8860520832809033
 21
1.0607991876181748
 31
0.0
 11
2.8618520832809033
 21
1.0682481667481749
 31
0.0
 11
2.8308520832809032
 21
1.0761053091181749
 31
0.0
 11
2.8081520832809033
 21
1.0805951047581748
 31
0.0
 11
2.7956520832809031
 21
1.082533880148175
 31
0.0
 11
2.7781520832809035
 21
1.0850849003981748
 31
0.0
 11
2.7454520832809033
 21
1.0889624511781748
 31
0.0
 11
2.7030520832809031
 21
1.0922277570981749
 31
0.0
 11
2.6687520832809031
 21
1.0936563284381748
 31
0.0
 11
2.6198520832809034
 21
1.094064491678175
 31
0.0
 11
2.5807520832809034
 21
1.0927379611481749
 31
0.0
 11
2.5269520832809031
 21
1.0892685736081749
 31
0.0
 11
2.4652520832809031
 21
1.0835542882481748
 31
0.0
 11
2.4101520832809031
 21
1.0770236764081749
 31
0.0
 11
2.3490520832809034
 21
1.0684522483681749
 31
0.0
 11
2.2934520832809033
 21
1.0591665346581749
 31
0.0
 11
2.2562520832809034
 21
1.0523298003881749
 31
0.0
 11
2.2252520832809033
 21
1.0463093925981748
 31
0.0
 11
2.2016520832809032
 21
1.0416155153381748
 31
0.0
 11
2.1727520832809031
 21
1.0355951075481749
 31
0.0
 11
2.1404520832809033
 21
1.0289624548981748
 31
0.0
 11
2.1177520832809034
 21
1.024268577638175
 31
0.0
 11
2.0916520832809034
 21
1.0186563330881748
 31
0.0
 11
2.0699520832809033
 21
1.013962455828175
 31
0.0
 11
2.0547520832809032
 21
1.0105951090981748
 31
0.0
 11
2.0432520832809034
 21
1.0079420480381749
 31
0.0
 11
2.0379520832809033
 21
1.0067175583181749
 31
0.0
 11
2.0247520832809034
 21
1.0040644972581749
 31
0.0
 11
2.0198520832809033
 21
1.0028400075381749
 31
0.0
 11
2.0156520832809033
 21
1.0020236810581749
 31
0.0
 11
2.0122520832809032
 21
1.0011053137681747
 31
0.0
 11
2.0090520832809031
 21
1.0003910280981749
 31
0.0
 11
2.0056520832809031
 21
0.999676742428175
 31
0.0
 11
2.0033520832809031
 21
0.999268579188175
 31
0.0
 11
2.0010520832809031
 21
0.9987583751381748
 31
0.0
 11
1.9988520832809034
 21
0.9979420486581749
 31
0.0
 11
1.9978520832809035
 21
0.994064497878175
 31
0.0
 11
1.9977520832809033
 21
0.994064497878175
 31
0.0
  0
POLYLINE
  5
E2
100
AcDbEntity
  8
1
  6
CONTINUOUS
 62
   212
 48
0.75
100
AcDb2dPolyline
 66
     1
 10
0.0
 20
0.0
 30
0.0
 70
   128
  0
VERTEX
  5
E3
100
AcDbEntity
  8
1
  6
CONTINUOUS
 62
   212
 48
0.75
100
AcDbVertex
100
AcDb2dVertex
 10
2.997526
 20
0.994045
 30
0.0
 40
0.0
 41
0.0
  0
VERTEX
  5
E4
100
AcDbEntity
  8
1
  6
CONTINUOUS
 62
   212
 48
0.75
100
AcDbVertex
100
AcDb2dVertex
 10
2.997526
 20
0.99027
 30
0.0
 40
0.0
 41
0.0
  0
SEQEND
  5
E5
100
AcDbEntity
  8
0
  0
POLYLINE
  5
E6
100
AcDbEntity
  8
1
  6
CONTINUOUS
 62
   212
 48
0.75
100
AcDb2dPolyline
 66
     1
 10
0.0
 20
0.0
 30
0.0
 70
   128
  0
VERTEX
  5
E7
100
AcDbEntity
  8
1
  6
CONTINUOUS
 62
   212
 48
0.75
100
AcDbVertex
100
AcDb2dVertex
 10
2.995826
 20
0.994045
 30
0.0
 40
0.0
 41
0.0
  0
VERTEX
  5
E8
100
AcDbEntity
  8
1
  6
CONTINUOUS
 62
   212
 48
0.75
100
AcDbVertex
100
AcDb2dVertex
 10
2.995826
 20
0.985168
 30
0.0
 40
0.0
 41
0.0
  0
SEQEND
  5
E9
100
AcDbEntity
  8
0
  0
POLYLINE
  5
EA
100
AcDbEntity
  8
1
  6
CONTINUOUS
 62
   212
 48
0.75
100
AcDb2dPolyline
 66
     1
 10
0.0
 20
0.0
 30
0.0
 70
   128
  0
VERTEX
  5
EB
100
AcDbEntity
  8
1
  6
CONTINUOUS
 62
   212
 48
0.75
100
AcDbVertex
100
AcDb2dVertex
 10
2.989326
 20
0.994045
 30
0.0
 40
0.0
 41
0.0
  0
VERTEX
  5
EC
100
AcDbEntity
  8
1
  6
CONTINUOUS
 62
   212
 48
0.75
100
AcDbVertex
100
AcDb2dVertex
 10
2.989326
 20
0.977413
 30
0.0
 40
0.0
 41
0.0
  0
SEQEND
  5
ED
100
AcDbEntity
  8
0
  0
POLYLINE
  5
EE
100
AcDbEntity
  8
1
  6
CONTINUOUS
 62
   212
 48
0.75
100
AcDb2dPolyline
 66
     1
 10
0.0
 20
0.0
 30
0.0
 70
   128
  0
VERTEX
  5
EF
100
AcDbEntity
  8
1
  6
CONTINUOUS
 62
   212
 48
0.75
100
AcDbVertex
100
AcDb2dVertex
 10
2.980726
 20
0.994045
 30
0.0
 40
0.0
 41
0.0
  0
VERTEX
  5
F0
100
AcDbEntity
  8
1
  6
CONTINUOUS
 62
   212
 48
0.75
100
AcDbVertex
100
AcDb2dVertex
 10
2.980726
 20
0.971494
 30
0.0
 40
0.0
 41
0.0
  0
SEQEND
  5
F1
100
AcDbEntity
  8
0
  0
POLYLINE
  5
F2
100
AcDbEntity
  8
1
  6
CONTINUOUS
 62
   212
 48
0.75
100
AcDb2dPolyline
 66
     1
 10
0.0
 20
0.0
 30
0.0
 70
   128
  0
VERTEX
  5
F3
100
AcDbEntity
  8
1
  6
CONTINUOUS
 62
   212
 48
0.75
100
AcDbVertex
100
AcDb2dVertex
 10
2.978926
 20
0.994045
 30
0.0
 40
0.0
 41
0.0
  0
VERTEX
  5
F4
100
AcDbEntity
  8
1
  6
CONTINUOUS
 62
   212
 48
0.75
100
AcDbVertex
100
AcDb2dVertex
 10
2.978926
 20
0.970474
 30
0.0
 40
0.0
 41
0.0
  0
SEQEND
  5
F5
100
AcDbEntity
  8
0
  0
POLYLINE
  5
F6
100
AcDbEntity
  8
1
  6
CONTINUOUS
 62
   212
 48
0.75
100
AcDb2dPolyline
 66
     1
 10
0.0
 20
0.0
 30
0.0
 70
   128
  0
VERTEX
  5
F7
100
AcDbEntity
  8
1
  6
CONTINUOUS
 62
   212
 48
0.75
100
AcDbVertex
100
AcDb2dVertex
 10
2.967526
 20
0.994045
 30
0.0
 40
0.0
 41
0.0
  0
VERTEX
  5
F8
100
AcDbEntity
  8
1
  6
CONTINUOUS
 62
   212
 48
0.75
100
AcDbVertex
100
AcDb2dVertex
 10
2.967526
 20
0.963943
 30
0.0
 40
0.0
 41
0.0
  0
SEQEND
  5
F9
100
AcDbEntity
  8
0
  0
POLYLINE
  5
FA
100
AcDbEntity
  8
1
  6
CONTINUOUS
 62
   212
 48
0.75
100
AcDb2dPolyline
 66
     1
 10
0.0
 20
0.0
 30
0.0
 70
   128
  0
VERTEX
  5
FB
100
AcDbEntity
  8
1
  6
CONTINUOUS
 62
   212
 48
0.75
100
AcDbVertex
100
AcDb2dVertex
 10
2.947526
 20
0.994045
 30
0.0
 40
0.0
 41
0.0
  0
VERTEX
  5
FC
100
AcDbEntity
  8
1
  6
CONTINUOUS
 62
   212
 48
0.75
100
AcDbVertex
100
AcDb2dVertex
 10
2.947526
 20
0.953331
 30
0.0
 40
0.0
 41
0.0
  0
SEQEND
  5
FD
100
AcDbEntity
  8
0
  0
POLYLINE
  5
FE
100
AcDbEntity
  8
1
  6
CONTINUOUS
 62
   212
 48
0.75
100
AcDb2dPolyline
 66
     1
 10
0.0
 20
0.0
 30
0.0
 70
   128
  0
VERTEX
  5
FF
100
AcDbEntity
  8
1
  6
CONTINUOUS
 62
   212
 48
0.75
100
AcDbVertex
100
AcDb2dVertex
 10
2.926326
 20
0.994045
 30
0.0
 40
0.0
 41
0.0
  0
VERTEX
  5
100
100
AcDbEntity
  8
1
  6
CONTINUOUS
 62
   212
 48
0.75
100
AcDbVertex
100
AcDb2dVertex
 10
2.926326
 20
0.943229
 30
0.0
 40
0.0
 41
0.0
  0
SEQEND
  5
101
100
AcDbEntity
  8
0
  0
POLYLINE
  5
102
100
AcDbEntity
  8
1
  6
CONTINUOUS
 62
   212
 48
0.75
100
AcDb2dPolyline
 66
     1
 10
0.0
 20
0.0
 30
0.0
 70
   128
  0
VERTEX
  5
103
100
AcDbEntity
  8
1
  6
CONTINUOUS
 62
   212
 48
0.75
100
AcDbVertex
100
AcDb2dVertex
 10
2.900226
 20
0.994045
 30
0.0
 40
0.0
 41
0.0
  0
VERTEX
  5
104
100
AcDbEntity
  8
1
  6
CONTINUOUS
 62
   212
 48
0.75
100
AcDbVertex
100
AcDb2dVertex
 10
2.900226
 20
0.932515
 30
0.0
 40
0.0
 41
0.0
  0
SEQEND
  5
105
100
AcDbEntity
  8
0
  0
POLYLINE
  5
106
100
AcDbEntity
  8
1
  6
CONTINUOUS
 62
   212
 48
0.75
100
AcDb2dPolyline
 66
     1
 10
0.0
 20
0.0
 30
0.0
 70
   128
  0
VERTEX
  5
107
100
AcDbEntity
  8
1
  6
CONTINUOUS
 62
   212
 48
0.75
100
AcDbVertex
100
AcDb2dVertex
 10
2.886026
 20
0.994045
 30
0.0
 40
0.0
 41
0.0
  0
VERTEX
  5
108
100
AcDbEntity
  8
1
  6
CONTINUOUS
 62
   212
 48
0.75
100
AcDbVertex
100
AcDb2dVertex
 10
2.886026
 20
0.92731
 30
0.0
 40
0.0
 41
0.0
  0
SEQEND
  5
109
100
AcDbEntity
  8
0
  0
POLYLINE
  5
10A
100
AcDbEntity
  8
1
  6
CONTINUOUS
 62
   212
 48
0.75
100
AcDb2dPolyline
 66
     1
 10
0.0
 20
0.0
 30
0.0
 70
   128
  0
VERTEX
  5
10B
100
AcDbEntity
  8
1
  6
CONTINUOUS
 62
   212
 48
0.75
100
AcDbVertex
100
AcDb2dVertex
 10
2.861826
 20
0.994045
 30
0.0
 40
0.0
 41
0.0
  0
VERTEX
  5
10C
100
AcDbEntity
  8
1
  6
CONTINUOUS
 62
   212
 48
0.75
100
AcDbVertex
100
AcDb2dVertex
 10
2.861826
 20
0.919862
 30
0.0
 40
0.0
 41
0.0
  0
SEQEND
  5
10D
100
AcDbEntity
  8
0
  0
POLYLINE
  5
10E
100
AcDbEntity
  8
1
  6
CONTINUOUS
 62
   212
 48
0.75
100
AcDb2dPolyline
 66
     1
 10
0.0
 20
0.0
 30
0.0
 70
   128
  0
VERTEX
  5
10F
100
AcDbEntity
  8
1
  6
CONTINUOUS
 62
   212
 48
0.75
100
AcDbVertex
100
AcDb2dVertex
 10
2.830826
 20
0.994045
 30
0.0
 40
0.0
 41
0.0
  0
VERTEX
  5
110
100
AcDbEntity
  8
1
  6
CONTINUOUS
 62
   212
 48
0.75
100
AcDbVertex
100
AcDb2dVertex
 10
2.830826
 20
0.912004
 30
0.0
 40
0.0
 41
0.0
  0
SEQEND
  5
111
100
AcDbEntity
  8
0
  0
POLYLINE
  5
112
100
AcDbEntity
  8
1
  6
CONTINUOUS
 62
   212
 48
0.75
100
AcDb2dPolyline
 66
     1
 10
0.0
 20
0.0
 30
0.0
 70
   128
  0
VERTEX
  5
113
100
AcDbEntity
  8
1
  6
CONTINUOUS
 62
   212
 48
0.75
100
AcDbVertex
100
AcDb2dVertex
 10
2.808126
 20
0.994045
 30
0.0
 40
0.0
 41
0.0
  0
VERTEX
  5
114
100
AcDbEntity
  8
1
  6
CONTINUOUS
 62
   212
 48
0.75
100
AcDbVertex
100
AcDb2dVertex
 10
2.808126
 20
0.907515
 30
0.0
 40
0.0
 41
0.0
  0
SEQEND
  5
115
100
AcDbEntity
  8
0
  0
POLYLINE
  5
116
100
AcDbEntity
  8
1
  6
CONTINUOUS
 62
   212
 48
0.75
100
AcDb2dPolyline
 66
     1
 10
0.0
 20
0.0
 30
0.0
 70
   128
  0
VERTEX
  5
117
100
AcDbEntity
  8
1
  6
CONTINUOUS
 62
   212
 48
0.75
100
AcDbVertex
100
AcDb2dVertex
 10
2.795626
 20
0.994045
 30
0.0
 40
0.0
 41
0.0
  0
VERTEX
  5
118
100
AcDbEntity
  8
1
  6
CONTINUOUS
 62
   212
 48
0.75
100
AcDbVertex
100
AcDb2dVertex
 10
2.795626
 20
0.905576
 30
0.0
 40
0.0
 41
0.0
  0
SEQEND
  5
119
100
AcDbEntity
  8
0
  0
POLYLINE
  5
11A
100
AcDbEntity
  8
1
  6
CONTINUOUS
 62
   212
 48
0.75
100
AcDb2dPolyline
 66
     1
 10
0.0
 20
0.0
 30
0.0
 70
   128
  0
VERTEX
  5
11B
100
AcDbEntity
  8
1
  6
CONTINUOUS
 62
   212
 48
0.75
100
AcDbVertex
100
AcDb2dVertex
 10
2.778126
 20
0.994045
 30
0.0
 40
0.0
 41
0.0
  0
VERTEX
  5
11C
100
AcDbEntity
  8
1
  6
CONTINUOUS
 62
   212
 48
0.75
100
AcDbVertex
100
AcDb2dVertex
 10
2.778126
 20
0.902923
 30
0.0
 40
0.0
 41
0.0
  0
SEQEND
  5
11D
100
AcDbEntity
  8
0
  0
POLYLINE
  5
11E
100
AcDbEntity
  8
1
  6
CONTINUOUS
 62
   212
 48
0.75
100
AcDb2dPolyline
 66
     1
 10
0.0
 20
0.0
 30
0.0
 70
   128
  0
VERTEX
  5
11F
100
AcDbEntity
  8
1
  6
CONTINUOUS
 62
   212
 48
0.75
100
AcDbVertex
100
AcDb2dVertex
 10
2.745426
 20
0.994045
 30
0.0
 40
0.0
 41
0.0
  0
VERTEX
  5
120
100
AcDbEntity
  8
1
  6
CONTINUOUS
 62
   212
 48
0.75
100
AcDbVertex
100
AcDb2dVertex
 10
2.745426
 20
0.899147
 30
0.0
 40
0.0
 41
0.0
  0
SEQEND
  5
121
100
AcDbEntity
  8
0
  0
POLYLINE
  5
122
100
AcDbEntity
  8
1
  6
CONTINUOUS
 62
   212
 48
0.75
100
AcDb2dPolyline
 66
     1
 10
0.0
 20
0.0
 30
0.0
 70
   128
  0
VERTEX
  5
123
100
AcDbEntity
  8
1
  6
CONTINUOUS
 62
   212
 48
0.75
100
AcDbVertex
100
AcDb2dVertex
 10
2.703026
 20
0.994045
 30
0.0
 40
0.0
 41
0.0
  0
VERTEX
  5
124
100
AcDbEntity
  8
1
  6
CONTINUOUS
 62
   212
 48
0.75
100
AcDbVertex
100
AcDb2dVertex
 10
2.703026
 20
0.895882
 30
0.0
 40
0.0
 41
0.0
  0
SEQEND
  5
125
100
AcDbEntity
  8
0
  0
POLYLINE
  5
126
100
AcDbEntity
  8
1
  6
CONTINUOUS
 62
   212
 48
0.75
100
AcDb2dPolyline
 66
     1
 10
0.0
 20
0.0
 30
0.0
 70
   128
  0
VERTEX
  5
127
100
AcDbEntity
  8
1
  6
CONTINUOUS
 62
   212
 48
0.75
100
AcDbVertex
100
AcDb2dVertex
 10
2.668726
 20
0.994045
 30
0.0
 40
0.0
 41
0.0
  0
VERTEX
  5
128
100
AcDbEntity
  8
1
  6
CONTINUOUS
 62
   212
 48
0.75
100
AcDbVertex
100
AcDb2dVertex
 10
2.668726
 20
0.894453
 30
0.0
 40
0.0
 41
0.0
  0
SEQEND
  5
129
100
AcDbEntity
  8
0
  0
POLYLINE
  5
12A
100
AcDbEntity
  8
1
  6
CONTINUOUS
 62
   212
 48
0.75
100
AcDb2dPolyline
 66
     1
 10
0.0
 20
0.0
 30
0.0
 70
   128
  0
VERTEX
  5
12B
100
AcDbEntity
  8
1
  6
CONTINUOUS
 62
   212
 48
0.75
100
AcDbVertex
100
AcDb2dVertex
 10
2.619826
 20
0.994045
 30
0.0
 40
0.0
 41
0.0
  0
VERTEX
  5
12C
100
AcDbEntity
  8
1
  6
CONTINUOUS
 62
   212
 48
0.75
100
AcDbVertex
100
AcDb2dVertex
 10
2.619826
 20
0.894045
 30
0.0
 40
0.0
 41
0.0
  0
SEQEND
  5
12D
100
AcDbEntity
  8
0
  0
POLYLINE
  5
12E
100
AcDbEntity
  8
1
  6
CONTINUOUS
 62
   212
 48
0.75
100
AcDb2dPolyline
 66
     1
 10
0.0
 20
0.0
 30
0.0
 70
   128
  0
VERTEX
  5
12F
100
AcDbEntity
  8
1
  6
CONTINUOUS
 62
   212
 48
0.75
100
AcDbVertex
100
AcDb2dVertex
 10
2.580726
 20
0.994045
 30
0.0
 40
0.0
 41
0.0
  0
VERTEX
  5
130
100
AcDbEntity
  8
1
  6
CONTINUOUS
 62
   212
 48
0.75
100
AcDbVertex
100
AcDb2dVertex
 10
2.580726
 20
0.895372
 30
0.0
 40
0.0
 41
0.0
  0
SEQEND
  5
131
100
AcDbEntity
  8
0
  0
POLYLINE
  5
132
100
AcDbEntity
  8
1
  6
CONTINUOUS
 62
   212
 48
0.75
100
AcDb2dPolyline
 66
     1
 10
0.0
 20
0.0
 30
0.0
 70
   128
  0
VERTEX
  5
133
100
AcDbEntity
  8
1
  6
CONTINUOUS
 62
   212
 48
0.75
100
AcDbVertex
100
AcDb2dVertex
 10
2.526926
 20
0.994045
 30
0.0
 40
0.0
 41
0.0
  0
VERTEX
  5
134
100
AcDbEntity
  8
1
  6
CONTINUOUS
 62
   212
 48
0.75
100
AcDbVertex
100
AcDb2dVertex
 10
2.526926
 20
0.898841
 30
0.0
 40
0.0
 41
0.0
  0
SEQEND
  5
135
100
AcDbEntity
  8
0
  0
POLYLINE
  5
136
100
AcDbEntity
  8
1
  6
CONTINUOUS
 62
   212
 48
0.75
100
AcDb2dPolyline
 66
     1
 10
0.0
 20
0.0
 30
0.0
 70
   128
  0
VERTEX
  5
137
100
AcDbEntity
  8
1
  6
CONTINUOUS
 62
   212
 48
0.75
100
AcDbVertex
100
AcDb2dVertex
 10
2.465226
 20
0.994045
 30
0.0
 40
0.0
 41
0.0
  0
VERTEX
  5
138
100
AcDbEntity
  8
1
  6
CONTINUOUS
 62
   212
 48
0.75
100
AcDbVertex
100
AcDb2dVertex
 10
2.465226
 20
0.904555
 30
0.0
 40
0.0
 41
0.0
  0
SEQEND
  5
139
100
AcDbEntity
  8
0
  0
POLYLINE
  5
13A
100
AcDbEntity
  8
1
  6
CONTINUOUS
 62
   212
 48
0.75
100
AcDb2dPolyline
 66
     1
 10
0.0
 20
0.0
 30
0.0
 70
   128
  0
VERTEX
  5
13B
100
AcDbEntity
  8
1
  6
CONTINUOUS
 62
   212
 48
0.75
100
AcDbVertex
100
AcDb2dVertex
 10
2.410126
 20
0.994045
 30
0.0
 40
0.0
 41
0.0
  0
VERTEX
  5
13C
100
AcDbEntity
  8
1
  6
CONTINUOUS
 62
   212
 48
0.75
100
AcDbVertex
100
AcDb2dVertex
 10
2.410126
 20
0.910984
 30
0.0
 40
0.0
 41
0.0
  0
SEQEND
  5
13D
100
AcDbEntity
  8
0
  0
POLYLINE
  5
13E
100
AcDbEntity
  8
1
  6
CONTINUOUS
 62
   212
 48
0.75
100
AcDb2dPolyline
 66
     1
 10
0.0
 20
0.0
 30
0.0
 70
   128
  0
VERTEX
  5
13F
100
AcDbEntity
  8
1
  6
CONTINUOUS
 62
   212
 48
0.75
100
AcDbVertex
100
AcDb2dVertex
 10
2.349026
 20
0.994045
 30
0.0
 40
0.0
 41
0.0
  0
VERTEX
  5
140
100
AcDbEntity
  8
1
  6
CONTINUOUS
 62
   212
 48
0.75
100
AcDbVertex
100
AcDb2dVertex
 10
2.349026
 20
0.919657
 30
0.0
 40
0.0
 41
0.0
  0
SEQEND
  5
141
100
AcDbEntity
  8
0
  0
POLYLINE
  5
142
100
AcDbEntity
  8
1
  6
CONTINUOUS
 62
   212
 48
0.75
100
AcDb2dPolyline
 66
     1
 10
0.0
 20
0.0
 30
0.0
 70
   128
  0
VERTEX
  5
143
100
AcDbEntity
  8
1
  6
CONTINUOUS
 62
   212
 48
0.75
100
AcDbVertex
100
AcDb2dVertex
 10
2.293426
 20
0.994045
 30
0.0
 40
0.0
 41
0.0
  0
VERTEX
  5
144
100
AcDbEntity
  8
1
  6
CONTINUOUS
 62
   212
 48
0.75
100
AcDbVertex
100
AcDb2dVertex
 10
2.293426
 20
0.928943
 30
0.0
 40
0.0
 41
0.0
  0
SEQEND
  5
145
100
AcDbEntity
  8
0
  0
POLYLINE
  5
146
100
AcDbEntity
  8
1
  6
CONTINUOUS
 62
   212
 48
0.75
100
AcDb2dPolyline
 66
     1
 10
0.0
 20
0.0
 30
0.0
 70
   128
  0
VERTEX
  5
147
100
AcDbEntity
  8
1
  6
CONTINUOUS
 62
   212
 48
0.75
100
AcDbVertex
100
AcDb2dVertex
 10
2.256226
 20
0.994045
 30
0.0
 40
0.0
 41
0.0
  0
VERTEX
  5
148
100
AcDbEntity
  8
1
  6
CONTINUOUS
 62
   212
 48
0.75
100
AcDbVertex
100
AcDb2dVertex
 10
2.256226
 20
0.93578
 30
0.0
 40
0.0
 41
0.0
  0
SEQEND
  5
149
100
AcDbEntity
  8
0
  0
POLYLINE
  5
14A
100
AcDbEntity
  8
1
  6
CONTINUOUS
 62
   212
 48
0.75
100
AcDb2dPolyline
 66
     1
 10
0.0
 20
0.0
 30
0.0
 70
   128
  0
VERTEX
  5
14B
100
AcDbEntity
  8
1
  6
CONTINUOUS
 62
   212
 48
0.75
100
AcDbVertex
100
AcDb2dVertex
 10
2.225226
 20
0.994045
 30
0.0
 40
0.0
 41
0.0
  0
VERTEX
  5
14C
100
AcDbEntity
  8
1
  6
CONTINUOUS
 62
   212
 48
0.75
100
AcDbVertex
100
AcDb2dVertex
 10
2.225226
 20
0.9418
 30
0.0
 40
0.0
 41
0.0
  0
SEQEND
  5
14D
100
AcDbEntity
  8
0
  0
POLYLINE
  5
14E
100
AcDbEntity
  8
1
  6
CONTINUOUS
 62
   212
 48
0.75
100
AcDb2dPolyline
 66
     1
 10
0.0
 20
0.0
 30
0.0
 70
   128
  0
VERTEX
  5
14F
100
AcDbEntity
  8
1
  6
CONTINUOUS
 62
   212
 48
0.75
100
AcDbVertex
100
AcDb2dVertex
 10
2.201626
 20
0.994045
 30
0.0
 40
0.0
 41
0.0
  0
VERTEX
  5
150
100
AcDbEntity
  8
1
  6
CONTINUOUS
 62
   212
 48
0.75
100
AcDbVertex
100
AcDb2dVertex
 10
2.201626
 20
0.946494
 30
0.0
 40
0.0
 41
0.0
  0
SEQEND
  5
151
100
AcDbEntity
  8
0
  0
POLYLINE
  5
152
100
AcDbEntity
  8
1
  6
CONTINUOUS
 62
   212
 48
0.75
100
AcDb2dPolyline
 66
     1
 10
0.0
 20
0.0
 30
0.0
 70
   128
  0
VERTEX
  5
153
100
AcDbEntity
  8
1
  6
CONTINUOUS
 62
   212
 48
0.75
100
AcDbVertex
100
AcDb2dVertex
 10
2.172726
 20
0.994045
 30
0.0
 40
0.0
 41
0.0
  0
VERTEX
  5
154
100
AcDbEntity
  8
1
  6
CONTINUOUS
 62
   212
 48
0.75
100
AcDbVertex
100
AcDb2dVertex
 10
2.172726
 20
0.952515
 30
0.0
 40
0.0
 41
0.0
  0
SEQEND
  5
155
100
AcDbEntity
  8
0
  0
POLYLINE
  5
156
100
AcDbEntity
  8
1
  6
CONTINUOUS
 62
   212
 48
0.75
100
AcDb2dPolyline
 66
     1
 10
0.0
 20
0.0
 30
0.0
 70
   128
  0
VERTEX
  5
157
100
AcDbEntity
  8
1
  6
CONTINUOUS
 62
   212
 48
0.75
100
AcDbVertex
100
AcDb2dVertex
 10
2.140426
 20
0.994045
 30
0.0
 40
0.0
 41
0.0
  0
VERTEX
  5
158
100
AcDbEntity
  8
1
  6
CONTINUOUS
 62
   212
 48
0.75
100
AcDbVertex
100
AcDb2dVertex
 10
2.140426
 20
0.959045
 30
0.0
 40
0.0
 41
0.0
  0
SEQEND
  5
159
100
AcDbEntity
  8
0
  0
POLYLINE
  5
15A
100
AcDbEntity
  8
1
  6
CONTINUOUS
 62
   212
 48
0.75
100
AcDb2dPolyline
 66
     1
 10
0.0
 20
0.0
 30
0.0
 70
   128
  0
VERTEX
  5
15B
100
AcDbEntity
  8
1
  6
CONTINUOUS
 62
   212
 48
0.75
100
AcDbVertex
100
AcDb2dVertex
 10
2.117726
 20
0.994045
 30
0.0
 40
0.0
 41
0.0
  0
VERTEX
  5
15C
100
AcDbEntity
  8
1
  6
CONTINUOUS
 62
   212
 48
0.75
100
AcDbVertex
100
AcDb2dVertex
 10
2.117726
 20
0.963841
 30
0.0
 40
0.0
 41
0.0
  0
SEQEND
  5
15D
100
AcDbEntity
  8
0
  0
POLYLINE
  5
15E
100
AcDbEntity
  8
1
  6
CONTINUOUS
 62
   212
 48
0.75
100
AcDb2dPolyline
 66
     1
 10
0.0
 20
0.0
 30
0.0
 70
   128
  0
VERTEX
  5
15F
100
AcDbEntity
  8
1
  6
CONTINUOUS
 62
   212
 48
0.75
100
AcDbVertex
100
AcDb2dVertex
 10
2.091626
 20
0.994045
 30
0.0
 40
0.0
 41
0.0
  0
VERTEX
  5
160
100
AcDbEntity
  8
1
  6
CONTINUOUS
 62
   212
 48
0.75
100
AcDbVertex
100
AcDb2dVertex
 10
2.091626
 20
0.969453
 30
0.0
 40
0.0
 41
0.0
  0
SEQEND
  5
161
100
AcDbEntity
  8
0
  0
POLYLINE
  5
162
100
AcDbEntity
  8
1
  6
CONTINUOUS
 62
   212
 48
0.75
100
AcDb2dPolyline
 66
     1
 10
0.0
 20
0.0
 30
0.0
 70
   128
  0
VERTEX
  5
163
100
AcDbEntity
  8
1
  6
CONTINUOUS
 62
   212
 48
0.75
100
AcDbVertex
100
AcDb2dVertex
 10
2.069926
 20
0.994045
 30
0.0
 40
0.0
 41
0.0
  0
VERTEX
  5
164
100
AcDbEntity
  8
1
  6
CONTINUOUS
 62
   212
 48
0.75
100
AcDbVertex
100
AcDb2dVertex
 10
2.069926
 20
0.974147
 30
0.0
 40
0.0
 41
0.0
  0
SEQEND
  5
165
100
AcDbEntity
  8
0
  0
POLYLINE
  5
166
100
AcDbEntity
  8
1
  6
CONTINUOUS
 62
   212
 48
0.75
100
AcDb2dPolyline
 66
     1
 10
0.0
 20
0.0
 30
0.0
 70
   128
  0
VERTEX
  5
167
100
AcDbEntity
  8
1
  6
CONTINUOUS
 62
   212
 48
0.75
100
AcDbVertex
100
AcDb2dVertex
 10
2.054726
 20
0.994045
 30
0.0
 40
0.0
 41
0.0
  0
VERTEX
  5
168
100
AcDbEntity
  8
1
  6
CONTINUOUS
 62
   212
 48
0.75
100
AcDbVertex
100
AcDb2dVertex
 10
2.054726
 20
0.977515
 30
0.0
 40
0.0
 41
0.0
  0
SEQEND
  5
169
100
AcDbEntity
  8
0
  0
POLYLINE
  5
16A
100
AcDbEntity
  8
1
  6
CONTINUOUS
 62
   212
 48
0.75
100
AcDb2dPolyline
 66
     1
 10
0.0
 20
0.0
 30
0.0
 70
   128
  0
VERTEX
  5
16B
100
AcDbEntity
  8
1
  6
CONTINUOUS
 62
   212
 48
0.75
100
AcDbVertex
100
AcDb2dVertex
 10
2.043226
 20
0.994045
 30
0.0
 40
0.0
 41
0.0
  0
VERTEX
  5
16C
100
AcDbEntity
  8
1
  6
CONTINUOUS
 62
   212
 48
0.75
100
AcDbVertex
100
AcDb2dVertex
 10
2.043226
 20
0.980168
 30
0.0
 40
0.0
 41
0.0
  0
SEQEND
  5
16D
100
AcDbEntity
  8
0
  0
POLYLINE
  5
16E
100
AcDbEntity
  8
1
  6
CONTINUOUS
 62
   212
 48
0.75
100
AcDb2dPolyline
 66
     1
 10
0.0
 20
0.0
 30
0.0
 70
   128
  0
VERTEX
  5
16F
100
AcDbEntity
  8
1
  6
CONTINUOUS
 62
   212
 48
0.75
100
AcDbVertex
100
AcDb2dVertex
 10
2.037926
 20
0.994045
 30
0.0
 40
0.0
 41
0.0
  0
VERTEX
  5
170
100
AcDbEntity
  8
1
  6
CONTINUOUS
 62
   212
 48
0.75
100
AcDbVertex
100
AcDb2dVertex
 10
2.037926
 20
0.981392
 30
0.0
 40
0.0
 41
0.0
  0
SEQEND
  5
171
100
AcDbEntity
  8
0
  0
POLYLINE
  5
172
100
AcDbEntity
  8
1
  6
CONTINUOUS
 62
   212
 48
0.75
100
AcDb2dPolyline
 66
     1
 10
0.0
 20
0.0
 30
0.0
 70
   128
  0
VERTEX
  5
173
100
AcDbEntity
  8
1
  6
CONTINUOUS
 62
   212
 48
0.75
100
AcDbVertex
100
AcDb2dVertex
 10
2.024726
 20
0.994045
 30
0.0
 40
0.0
 41
0.0
  0
VERTEX
  5
174
100
AcDbEntity
  8
1
  6
CONTINUOUS
 62
   212
 48
0.75
100
AcDbVertex
100
AcDb2dVertex
 10
2.024726
 20
0.984045
 30
0.0
 40
0.0
 41
0.0
  0
SEQEND
  5
175
100
AcDbEntity
  8
0
  0
POLYLINE
  5
176
100
AcDbEntity
  8
1
  6
CONTINUOUS
 62
   212
 48
0.75
100
AcDb2dPolyline
 66
     1
 10
0.0
 20
0.0
 30
0.0
 70
   128
  0
VERTEX
  5
177
100
AcDbEntity
  8
1
  6
CONTINUOUS
 62
   212
 48
0.75
100
AcDbVertex
100
AcDb2dVertex
 10
2.019826
 20
0.994045
 30
0.0
 40
0.0
 41
0.0
  0
VERTEX
  5
178
100
AcDbEntity
  8
1
  6
CONTINUOUS
 62
   212
 48
0.75
100
AcDbVertex
100
AcDb2dVertex
 10
2.019826
 20
0.98527
 30
0.0
 40
0.0
 41
0.0
  0
SEQEND
  5
179
100
AcDbEntity
  8
0
  0
POLYLINE
  5
17A
100
AcDbEntity
  8
1
  6
CONTINUOUS
 62
   212
 48
0.75
100
AcDb2dPolyline
 66
     1
 10
0.0
 20
0.0
 30
0.0
 70
   128
  0
VERTEX
  5
17B
100
AcDbEntity
  8
1
  6
CONTINUOUS
 62
   212
 48
0.75
100
AcDbVertex
100
AcDb2dVertex
 10
2.015626
 20
0.994045
 30
0.0
 40
0.0
 41
0.0
  0
VERTEX
  5
17C
100
AcDbEntity
  8
1
  6
CONTINUOUS
 62
   212
 48
0.75
100
AcDbVertex
100
AcDb2dVertex
 10
2.015626
 20
0.986086
 30
0.0
 40
0.0
 41
0.0
  0
SEQEND
  5
17D
100
AcDbEntity
  8
0
  0
POLYLINE
  5
17E
100
AcDbEntity
  8
1
  6
CONTINUOUS
 62
   212
 48
0.75
100
AcDb2dPolyline
 66
     1
 10
0.0
 20
0.0
 30
0.0
 70
   128
  0
VERTEX
  5
17F
100
AcDbEntity
  8
1
  6
CONTINUOUS
 62
   212
 48
0.75
100
AcDbVertex
100
AcDb2dVertex
 10
2.012226
 20
0.994045
 30
0.0
 40
0.0
 41
0.0
  0
VERTEX
  5
180
100
AcDbEntity
  8
1
  6
CONTINUOUS
 62
   212
 48
0.75
100
AcDbVertex
100
AcDb2dVertex
 10
2.012226
 20
0.987004
 30
0.0
 40
0.0
 41
0.0
  0
SEQEND
  5
181
100
AcDbEntity
  8
0
  0
POLYLINE
  5
182
100
AcDbEntity
  8
1
  6
CONTINUOUS
 62
   212
 48
0.75
100
AcDb2dPolyline
 66
     1
 10
0.0
 20
0.0
 30
0.0
 70
   128
  0
VERTEX
  5
183
100
AcDbEntity
  8
1
  6
CONTINUOUS
 62
   212
 48
0.75
100
AcDbVertex
100
AcDb2dVertex
 10
2.009026
 20
0.994045
 30
0.0
 40
0.0
 41
0.0
  0
VERTEX
  5
184
100
AcDbEntity
  8
1
  6
CONTINUOUS
 62
   212
 48
0.75
100
AcDbVertex
100
AcDb2dVertex
 10
2.009026
 20
0.987719
 30
0.0
 40
0.0
 41
0.0
  0
SEQEND
  5
185
100
AcDbEntity
  8
0
  0
POLYLINE
  5
186
100
AcDbEntity
  8
1
  6
CONTINUOUS
 62
   212
 48
0.75
100
AcDb2dPolyline
 66
     1
 10
0.0
 20
0.0
 30
0.0
 70
   128
  0
VERTEX
  5
187
100
AcDbEntity
  8
1
  6
CONTINUOUS
 62
   212
 48
0.75
100
AcDbVertex
100
AcDb2dVertex
 10
2.005626
 20
0.994045
 30
0.0
 40
0.0
 41
0.0
  0
VERTEX
  5
188
100
AcDbEntity
  8
1
  6
CONTINUOUS
 62
   212
 48
0.75
100
AcDbVertex
100
AcDb2dVertex
 10
2.005626
 20
0.988433
 30
0.0
 40
0.0
 41
0.0
  0
SEQEND
  5
189
100
AcDbEntity
  8
0
  0
POLYLINE
  5
18A
100
AcDbEntity
  8
1
  6
CONTINUOUS
 62
   212
 48
0.75
100
AcDb2dPolyline
 66
     1
 10
0.0
 20
0.0
 30
0.0
 70
   128
  0
VERTEX
  5
18B
100
AcDbEntity
  8
1
  6
CONTINUOUS
 62
   212
 48
0.75
100
AcDbVertex
100
AcDb2dVertex
 10
2.003326
 20
0.994045
 30
0.0
 40
0.0
 41
0.0
  0
VERTEX
  5
18C
100
AcDbEntity
  8
1
  6
CONTINUOUS
 62
   212
 48
0.75
100
AcDbVertex
100
AcDb2dVertex
 10
2.003326
 20
0.988841
 30
0.0
 40
0.0
 41
0.0
  0
SEQEND
  5
18D
100
AcDbEntity
  8
0
  0
POLYLINE
  5
18E
100
AcDbEntity
  8
1
  6
CONTINUOUS
 62
   212
 48
0.75
100
AcDb2dPolyline
 66
     1
 10
0.0
 20
0.0
 30
0.0
 70
   128
  0
VERTEX
  5
18F
100
AcDbEntity
  8
1
  6
CONTINUOUS
 62
   212
 48
0.75
100
AcDbVertex
100
AcDb2dVertex
 10
2.001026
 20
0.994045
 30
0.0
 40
0.0
 41
0.0
  0
VERTEX
  5
190
100
AcDbEntity
  8
1
  6
CONTINUOUS
 62
   212
 48
0.75
100
AcDbVertex
100
AcDb2dVertex
 10
2.001026
 20
0.989351
 30
0.0
 40
0.0
 41
0.0
  0
SEQEND
  5
191
100
AcDbEntity
  8
0
  0
POLYLINE
  5
192
100
AcDbEntity
  8
1
  6
CONTINUOUS
 62
   212
 48
0.75
100
AcDb2dPolyline
 66
     1
 10
0.0
 20
0.0
 30
0.0
 70
   128
  0
VERTEX
  5
193
100
AcDbEntity
  8
1
  6
CONTINUOUS
 62
   212
 48
0.75
100
AcDbVertex
100
AcDb2dVertex
 10
1.998826
 20
0.994045
 30
0.0
 40
0.0
 41
0.0
  0
VERTEX
  5
194
100
AcDbEntity
  8
1
  6
CONTINUOUS
 62
   212
 48
0.75
100
AcDbVertex
100
AcDb2dVertex
 10
1.998826
 20
0.990168
 30
0.0
 40
0.0
 41
0.0
  0
SEQEND
  5
195
100
AcDbEntity
  8
0
  0
SPLINE
  5
196
100
AcDbEntity
  8
1
  6
CONTINUOUS
 62
   212
 48
0.75
100
AcDbSpline
210
0.0
220
0.0
230
1.0
 70
     0
 71
     3
 72
     0
 73
     0
 74
    48
 44
0.0
 11
2.99782630294066
 21
0.9940498309176973
 31
0.0
 11
2.9975258951744892
 21
0.9902696747902429
 31
0.0
 11
2.9958258951744892
 21
0.9851676342902431
 31
0.0
 11
2.9893258951744892
 21
0.977412532730243
 31
0.0
 11
2.9807258951744893
 21
0.9714941657502429
 31
0.0
 11
2.978925895174489
 21
0.970473757650243
 31
0.0
 11
2.9675258951744894
 21
0.9639431458102429
 31
0.0
 11
2.9475258951744894
 21
0.9533309015702429
 31
0.0
 11
2.926325895174489
 21
0.9432288613802429
 31
0.0
 11
2.900225895174489
 21
0.9325145763302429
 31
0.0
 11
2.8860258951744893
 21
0.9273104950202431
 31
0.0
 11
2.8618258951744893
 21
0.919861515890243
 31
0.0
 11
2.8308258951744891
 21
0.9120043735202429
 31
0.0
 11
2.8081258951744892
 21
0.9075145778802429
 31
0.0
 11
2.795625895174489
 21
0.9055758024902429
 31
0.0
 11
2.7781258951744894
 21
0.902922741430243
 31
0.0
 11
2.7454258951744892
 21
0.899147231460243
 31
0.0
 11
2.703025895174489
 21
0.8958819255402429
 31
0.0
 11
2.668725895174489
 21
0.8944533542002431
 31
0.0
 11
2.6198258951744893
 21
0.8940451909602428
 31
0.0
 11
2.5807258951744894
 21
0.8953717214902429
 31
0.0
 11
2.5269258951744891
 21
0.8988411090302431
 31
0.0
 11
2.465225895174489
 21
0.904555394390243
 31
0.0
 11
2.4101258951744891
 21
0.9109839654202431
 31
0.0
 11
2.3490258951744893
 21
0.9196574342702429
 31
0.0
 11
2.2934258951744892
 21
0.9289431479802429
 31
0.0
 11
2.2562258951744893
 21
0.935779882250243
 31
0.0
 11
2.2252258951744892
 21
0.941800290040243
 31
0.0
 11
2.2016258951744891
 21
0.9464941673002429
 31
0.0
 11
2.172725895174489
 21
0.952514575090243
 31
0.0
 11
2.1404258951744892
 21
0.959045186930243
 31
0.0
 11
2.1177258951744893
 21
0.9638411050002429
 31
0.0
 11
2.0916258951744893
 21
0.969453349550243
 31
0.0
 11
2.0699258951744892
 21
0.9741472268102429
 31
0.0
 11
2.0547258951744891
 21
0.977514573540243
 31
0.0
 11
2.0432258951744893
 21
0.9801676346002428
 31
0.0
 11
2.0379258951744892
 21
0.981392124320243
 31
0.0
 11
2.0247258951744893
 21
0.984045185380243
 31
0.0
 11
2.0198258951744892
 21
0.985269675100243
 31
0.0
 11
2.0156258951744892
 21
0.9860860015802428
 31
0.0
 11
2.0122258951744891
 21
0.987004368870243
 31
0.0
 11
2.009025895174489
 21
0.987718654540243
 31
0.0
 11
2.005625895174489
 21
0.988432940210243
 31
0.0
 11
2.003325895174489
 21
0.9888411034502429
 31
0.0
 11
2.001025895174489
 21
0.9893513075002429
 31
0.0
 11
1.9988258951744893
 21
0.990167633980243
 31
0.0
 11
1.9978258951744894
 21
0.994045184760243
 31
0.0
 11
1.9977258951744892
 21
0.994045184760243
 31
0.0
  0
POLYLINE
  5
197
100
AcDbEntity
  8
1
  6
CONTINUOUS
 62
   212
 48
0.75
100
AcDb2dPolyline
 66
     1
 10
0.0
 20
0.0
 30
0.0
 70
   128
  0
VERTEX
  5
198
100
AcDbEntity
  8
1
  6
CONTINUOUS
 62
   212
 48
0.75
100
AcDbVertex
100
AcDb2dVertex
 10
2.997826
 20
0.994045
 30
0.0
 40
0.0
 41
0.0
  0
VERTEX
  5
199
100
AcDbEntity
  8
1
  6
CONTINUOUS
 62
   212
 48
0.75
100
AcDbVertex
100
AcDb2dVertex
 10
1.997726
 20
0.994045
 30
0.0
 40
0.0
 41
0.0
  0
SEQEND
  5
19A
100
AcDbEntity
  8
0
  0
TEXT
  5
19B
100
AcDbEntity
  8
0
 62
   212
 48
0.0
100
AcDbText
 10
2.301263
 20
0.974773
 30
0.0
 40
0.01
  1
Boyu = 1 
 72
     5
 11
2.357778
 21
0.974773
 31
0.0
210
0.0
220
0.0
230
1.0
100
AcDbText
  0
TEXT
  5
19C
100
AcDbEntity
  8
0
 62
   212
 48
0.0
100
AcDbText
 10
2.301263
 20
0.954773
 30
0.0
 40
0.01
  1
Kalinlik = .2
 72
     5
 11
2.372192
 21
0.954773
 31
0.0
210
0.0
220
0.0
230
1.0
100
AcDbText
  0
TEXT
  5
19D
100
AcDbEntity
  8
0
 62
   212
 48
0.0
100
AcDbText
 10
2.497034
 20
0.946833
 30
0.0
 40
0.03
  1
A vistar Profili
 72
     5
 11
2.726089
 21
0.946833
 31
0.0
210
0.0
220
0.0
230
1.0
100
AcDbText
  0
TEXT
  5
19E
100
AcDbEntity
  8
0
 62
   212
 48
0.0
100
AcDbText
 10
2.4682
 20
1.019678
 30
0.0
 40
0.03
  1
Çemberci Denizcilik
 72
     5
 11
2.765415
 21
1.019678
 31
0.0
210
0.0
220
0.0
230
1.0
100
AcDbText
  0
ENDSEC
  0
SECTION
  2
OBJECTS
  0
DICTIONARY
  5
19
100
AcDbDictionary
  3
ACAD_GROUP
350
1A
  3
ACAD_MLINESTYLE
350
1B
  0
DICTIONARY
  5
1A
102
{ACAD_REACTORS
330
19
102
}
100
AcDbDictionary
  0
DICTIONARY
  5
1B
102
{ACAD_REACTORS
330
19
102
}
100
AcDbDictionary
  3
STANDARD
350
1C
  0
MLINESTYLE
  5
1C
102
{ACAD_REACTORS
330
1B
102
}
100
AcDbMlineStyle
  2
STANDARD
 70
     0
  3

 62
     0
 51
90.0
 52
90.0
 71
     2
 49
0.5
 62
   256
  6
BYLAYER
 49
-0.5
 62
   256
  6
BYLAYER
  0
ENDSEC
  0
EOF
