  0
SECTION
  2
HEADER
  9
$ACADVER
  1
AC1014
  9
$ACADMAINTVER
 70
     0
  9
$DWGCODEPAGE
  3
ANSI_1252
  9
$INSBASE
 10
0.0
 20
0.0
 30
0.0
  9
$EXTMIN
 10
1.997703
 20
0.867114
 30
0.0
  9
$EXTMAX
 10
2.997723
 20
1.067512
 30
0.0
  9
$LIMMIN
 10
0.0
 20
0.0
  9
$LIMMAX
 10
0.0
 20
0.0
  9
$ORTHOMODE
 70
     0
  9
$REGENMODE
 70
     1
  9
$FILLMODE
 70
     1
  9
$QTEXTMODE
 70
     0
  9
$MIRRTEXT
 70
     1
  9
$DRAGMODE
 70
     2
  9
$LTSCALE
 40
1.0
  9
$OSMODE
 70
     0
  9
$ATTMODE
 70
     1
  9
$TEXTSIZE
 40
0.2
  9
$TRACEWID
 40
0.05
  9
$TEXTSTYLE
  7
STANDARD
  9
$CLAYER
  8
0
  9
$CELTYPE
  6
CONTINUOUS
  9
$CECOLOR
 62
   256
  9
$CELTSCALE
 40
1.0
  9
$DELOBJ
 70
     1
  9
$DISPSILH
 70
     0
  9
$DIMSCALE
 40
1.0
  9
$DIMASZ
 40
0.18
  9
$DIMEXO
 40
0.0625
  9
$DIMDLI
 40
0.38
  9
$DIMRND
 40
0.0
  9
$DIMDLE
 40
0.0
  9
$DIMEXE
 40
0.18
  9
$DIMTP
 40
0.0
  9
$DIMTM
 40
0.0
  9
$DIMTXT
 40
0.18
  9
$DIMCEN
 40
0.09
  9
$DIMTSZ
 40
0.0
  9
$DIMTOL
 70
     0
  9
$DIMLIM
 70
     0
  9
$DIMTIH
 70
     1
  9
$DIMTOH
 70
     1
  9
$DIMSE1
 70
     0
  9
$DIMSE2
 70
     0
  9
$DIMTAD
 70
     0
  9
$DIMZIN
 70
     0
  9
$DIMBLK
  1

  9
$DIMASO
 70
     1
  9
$DIMSHO
 70
     1
  9
$DIMPOST
  1

  9
$DIMAPOST
  1

  9
$DIMALT
 70
     0
  9
$DIMALTD
 70
     2
  9
$DIMALTF
 40
25.4
  9
$DIMLFAC
 40
1.0
  9
$DIMTOFL
 70
     0
  9
$DIMTVP
 40
0.0
  9
$DIMTIX
 70
     0
  9
$DIMSOXD
 70
     0
  9
$DIMSAH
 70
     0
  9
$DIMBLK1
  1

  9
$DIMBLK2
  1

  9
$DIMSTYLE
  2
STANDARD
  9
$DIMCLRD
 70
     0
  9
$DIMCLRE
 70
     0
  9
$DIMCLRT
 70
     0
  9
$DIMTFAC
 40
1.0
  9
$DIMGAP
 40
0.09
  9
$DIMJUST
 70
     0
  9
$DIMSD1
 70
     0
  9
$DIMSD2
 70
     0
  9
$DIMTOLJ
 70
     1
  9
$DIMTZIN
 70
     0
  9
$DIMALTZ
 70
     0
  9
$DIMALTTZ
 70
     0
  9
$DIMFIT
 70
     3
  9
$DIMUPT
 70
     0
  9
$DIMUNIT
 70
     2
  9
$DIMDEC
 70
     4
  9
$DIMTDEC
 70
     4
  9
$DIMALTU
 70
     2
  9
$DIMALTTD
 70
     2
  9
$DIMTXSTY
  7
STANDARD
  9
$DIMAUNIT
 70
     0
  9
$LUNITS
 70
     2
  9
$LUPREC
 70
     4
  9
$SKETCHINC
 40
0.1
  9
$FILLETRAD
 40
0.0
  9
$AUNITS
 70
     0
  9
$AUPREC
 70
     0
  9
$MENU
  1
acad
  9
$ELEVATION
 40
0.0
  9
$PELEVATION
 40
0.0
  9
$THICKNESS
 40
0.0
  9
$LIMCHECK
 70
     0
  9
$BLIPMODE
 70
     1
  9
$CHAMFERA
 40
0.0
  9
$CHAMFERB
 40
0.0
  9
$CHAMFERC
 40
0.0
  9
$CHAMFERD
 40
0.0
  9
$SKPOLY
 70
     0
  9
$TDCREATE
 40
0.000000000
  9
$TDUPDATE
 40
0.000000000
  9
$TDINDWG
 40
0.0000000000
  9
$TDUSRTIMER
 40
0.0000000000
  9
$USRTIMER
 70
     1
  9
$ANGBASE
 50
0.0
  9
$ANGDIR
 70
     0
  9
$PDMODE
 70
     0
  9
$PDSIZE
 40
0.0
  9
$PLINEWID
 40
0.0
  9
$COORDS
 70
     0
  9
$SPLFRAME
 70
     0
  9
$SPLINETYPE
 70
     6
  9
$SPLINESEGS
 70
     8
  9
$ATTDIA
 70
     0
  9
$ATTREQ
 70
     1
  9
$HANDLING
 70
     1
  9
$HANDSEED
  5
1D7
  9
$SURFTAB1
 70
     6
  9
$SURFTAB2
 70
     6
  9
$SURFTYPE
 70
     6
  9
$SURFU
 70
     6
  9
$SURFV
 70
     6
  9
$UCSNAME
  2

  9
$UCSORG
 10
0.0
 20
0.0
 30
0.0
  9
$UCSXDIR
 10
1.0
 20
0.0
 30
0.0
  9
$UCSYDIR
 10
0.0
 20
1.0
 30
0.0
  9
$PUCSNAME
  2

  9
$PUCSORG
 10
0.0
 20
0.0
 30
0.0
  9
$PUCSXDIR
 10
1.0
 20
0.0
 30
0.0
  9
$PUCSYDIR
 10
0.0
 20
1.0
 30
0.0
  9
$USERI1
 70
     0
  9
$USERI2
 70
     0
  9
$USERI3
 70
     0
  9
$USERI4
 70
     0
  9
$USERI5
 70
     0
  9
$USERR1
 40
0.0
  9
$USERR2
 40
0.0
  9
$USERR3
 40
0.0
  9
$USERR4
 40
0.0
  9
$USERR5
 40
0.0
  9
$WORLDVIEW
 70
     1
  9
$SHADEDGE
 70
     3
  9
$SHADEDIF
 70
    70
  9
$TILEMODE
 70
     1
  9
$MAXACTVP
 70
    16
  9
$PINSBASE
 10
0.0
 20
0.0
 30
0.0
  9
$PLIMCHECK
 70
     0
  9
$PEXTMIN
 10
1.000000E+20
 20
1.000000E+20
 30
1.000000E+20
  9
$PEXTMAX
 10
-1.000000E+20
 20
-1.000000E+20
 30
-1.000000E+20
  9
$PLIMMIN
 10
0.0
 20
0.0
  9
$PLIMMAX
 10
12.0
 20
9.0
  9
$UNITMODE
 70
     0
  9
$VISRETAIN
 70
     0
  9
$PLINEGEN
 70
     0
  9
$PSLTSCALE
 70
     0
  9
$TREEDEPTH
 70
  3020
  9
$PICKSTYLE
 70
     1
  9
$CMLSTYLE
  2
STANDARD
  9
$CMLJUST
 70
     0
  9
$CMLSCALE
 40
1.0
  9
$PROXYGRAPHICS
 70
     0
  9
$MEASUREMENT
 70
     0
  0
ENDSEC
  0
SECTION
  2
CLASSES
  0
CLASS
  1
LWPOLYLINE
  2
AcDbPolyline
  3
"AutoCAD"
 90
        0
280
     0
281
     1
  0
CLASS
  1
IMAGE
  2
AcDbRasterImage
  3
ISM
 90
      127
280
     0
281
     1
  0
CLASS
  1
OLE2FRAME
  2
AcDbOle2Frame
  3
""
 90
        0
280
     0
281
     1
  0
CLASS
  1
HATCH
  2
AcDbHatch
  3
"ACAD_SEDONA"
 90
        0
280
     0
281
     1
  0
CLASS
  1
DICTIONARYVAR
  2
AcDbDictionaryVar
  3
"AutoCAD"
 90
        0
280
     0
281
     0
  0
CLASS
  1
RASTERVARIABLES
  2
AcDbRasterVariables
  3
ISM
 90
        0
280
     0
281
     0
  0
CLASS
  1
IMAGEDEF
  2
AcDbRasterImageDef
  3
ISM
 90
        0
280
     0
281
     0
  0
CLASS
  1
IMAGEDEF_REACTOR
  2
AcDbRasterImageDefReactor
  3
ISM
 90
        1
280
     0
281
     0
  0
CLASS
  1
IDBUFFER
  2
AcDbIdBuffer
  3
"Acad"
 90
        0
280
     0
281
     0
  0
CLASS
  1
SPATIAL_FILTER
  2
AcDbSpatialFilter
  3
"Acad"
 90
        0
280
     0
281
     0
  0
CLASS
  1
XRECORD
  2
AcDbXrecord
  3
"<Built In>"
 90
        0
280
     0
281
     0
  0
CLASS
  1
SORTENTSTABLE
  2
AcDbSortentsTable
  3
"AutoCAD"
 90
        0
280
     0
281
     0
  0
CLASS
  1
LAYER_INDEX
  2
AcDbLayerIndex
  3
"Acad"
 90
        0
280
     0
281
     0
  0
CLASS
  1
SPATIAL_INDEX
  2
AcDbSpatialIndex
  3
"Acad"
 90
        0
280
     0
281
     0
  0
CLASS
  1
OBJECT_PTR
  2
CAseDLPNTableRecord
  3
"ASE-LPNTableRecord"
 90
        1
280
     0
281
     0
  0
CLASS
  1
LAYOUT
  2
AcDbLayout
  3
"AutoCAD 2000"
 90
        1
280
     0
281
     0
  0
CLASS
  1
PLOTSETTINGS
  2
AcDbPlotSettings
  3
"AutoCAD 2000"
 90
        1
280
     0
281
     0
  0
CLASS
  1
ACDBDICTIONARYWDFLT
  2
AcDbDictionaryWithDefault
  3
"AutoCAD 2000"
 90
        1
280
     0
281
     0
  0
CLASS
  1
ACDBPLACEHOLDER
  2
AcDbPlaceHolder
  3
"AutoCAD 2000"
 90
        1
280
     0
281
     0
  0
CLASS
  1
VBA_PROJECT
  2
AcDbVbaProject
  3
"acadvba"
 90
        1
280
     0
281
     0
  0
CLASS
  1
WIPEOUT
  2
AcDbWipeout
  3
WipeOut|AutoCAD Express Tool|expresstools@autodesk.com
 90
      127
280
     0
281
     1
  0
CLASS
  1
WIPEOUTVARIABLES
  2
AcDbWipeoutVariables
  3
WipeOut|AutoCAD Express Tool|expresstools@autodesk.com
 90
        0
280
     0
281
     0
  0
CLASS
  1
RTEXT
  2
RText
  3
RText|AutoCAD Express Tool|expresstools@autodesk.com
 90
        0
280
     0
281
     1
  0
CLASS
  1
ARCALIGNEDTEXT
  2
AcDbArcAlignedText
  3
ATEXT|AutoCAD Express Tool|expresstools@autodesk.com
 90
        0
280
     0
281
     1
  0
ENDSEC
  0
SECTION
  2
TABLES
  0
TABLE
  2
VPORT
  5
7
100
AcDbSymbolTable
 70
     2
  0
VPORT
  5
15
100
AcDbSymbolTableRecord
100
AcDbViewportTableRecord
  2
*ACTIVE
 70
     0
 10
0.0
 20
0.0
 11
1.0
 21
1.0
 12
6.591288
 22
4.579184
 13
0.0
 23
0.0
 14
1.0
 24
1.0
 15
0.0
 25
0.0
 16
0.0
 26
0.0
 36
1.0
 17
0.0
 27
0.0
 37
0.0
 40
9.158369
 41
0.688564
 42
50.0
 43
0.0
 44
0.0
 50
0.0
 51
0.0
 71
     0
 72
   100
 73
     1
 74
     1
 75
     0
 76
     0
 77
     0
 78
     0
  0
VPORT
  5
2C
100
AcDbSymbolTableRecord
100
AcDbViewportTableRecord
  2
DCADVPORT
 70
     0
 10
1.997703
 20
0.867114
 11
2.997723
 21
1.067512
 12
6.21
 22
9.02
 13
0.0
 23
0.0
 14
1.0
 24
1.0
 15
0.0
 25
0.0
 16
0.0
 26
0.0
 36
1.0
 17
0.0
 27
0.0
 37
0.0
 40
18.04
 41
0.688564
 42
50.0
 43
1.0
 44
1.0
 50
0.0
 51
0.0
 71
     0
 72
   100
 73
     1
 74
     1
 75
     0
 76
     0
 77
     0
 78
     0
  0
ENDTAB
  0
TABLE
  2
LTYPE
  5
4
100
AcDbSymbolTable
 70
    15
  0
LTYPE
  5
11
100
AcDbSymbolTableRecord
100
AcDbLinetypeTableRecord
  2
BYBLOCK
 70
    64
  3

 72
    65
 73
     0
 40
0.0
  0
LTYPE
  5
12
100
AcDbSymbolTableRecord
100
AcDbLinetypeTableRecord
  2
BYLAYER
 70
    64
  3

 72
    65
 73
     0
 40
0.0
  0
LTYPE
  5
13
100
AcDbSymbolTableRecord
100
AcDbLinetypeTableRecord
  2
CONTINUOUS
 70
    64
  3
Solid line
 72
    65
 73
     0
 40
0.0
  0
LTYPE
  5
1E
100
AcDbSymbolTableRecord
100
AcDbLinetypeTableRecord
  2
CONTINUOUS
 70
     0
  3
Solid line
 72
    65
 73
     0
 40
0.0
  0
LTYPE
  5
1F
100
AcDbSymbolTableRecord
100
AcDbLinetypeTableRecord
  2
BORDER
 70
    64
  3
__ __ . __ __ . __ __ . __ __ . __ __ . __ __ .
 72
    65
 73
     6
 40
1.75
 49
0.5
 74
     0
 49
-0.25
 74
     0
 49
0.5
 74
     0
 49
-0.25
 74
     0
 49
0.0
 74
     0
 49
-0.25
 74
     0
  0
LTYPE
  5
20
100
AcDbSymbolTableRecord
100
AcDbLinetypeTableRecord
  2
BORDER2
 70
    64
  3
__.__.__.__.__.__.__.__.__.__.__.__.__.__.__.__
 72
    65
 73
     6
 40
0.875
 49
0.25
 74
     0
 49
-0.125
 74
     0
 49
0.25
 74
     0
 49
-0.125
 74
     0
 49
0.0
 74
     0
 49
-0.125
 74
     0
  0
LTYPE
  5
21
100
AcDbSymbolTableRecord
100
AcDbLinetypeTableRecord
  2
CENTER
 70
    64
  3
____ _ ____ _ ____ _ ____ _ ____ _ ____ _ ____ 
 72
    65
 73
     4
 40
2.0
 49
1.25
 74
     0
 49
-0.25
 74
     0
 49
0.25
 74
     0
 49
-0.25
 74
     0
  0
LTYPE
  5
22
100
AcDbSymbolTableRecord
100
AcDbLinetypeTableRecord
  2
DASHDOT
 70
    64
  3
__ . __ . __ . __ . __ . __ . __ . __ . __ . __
 72
    65
 73
     4
 40
1.0
 49
0.5
 74
     0
 49
-0.25
 74
     0
 49
0.0
 74
     0
 49
-0.25
 74
     0
  0
LTYPE
  5
23
100
AcDbSymbolTableRecord
100
AcDbLinetypeTableRecord
  2
DASHDOT2
 70
    64
  3
_._._._._._._._._._._._._._._._._._._._._._._._
 72
    65
 73
     4
 40
0.5
 49
0.25
 74
     0
 49
-0.125
 74
     0
 49
0.0
 74
     0
 49
-0.125
 74
     0
  0
LTYPE
  5
24
100
AcDbSymbolTableRecord
100
AcDbLinetypeTableRecord
  2
DASHED
 70
    64
  3
__ __ __ __ __ __ __ __ __ __ __ __ __ __ __ __
 72
    65
 73
     2
 40
0.75
 49
0.5
 74
     0
 49
-0.25
 74
     0
  0
LTYPE
  5
25
100
AcDbSymbolTableRecord
100
AcDbLinetypeTableRecord
  2
DIVIDE
 70
    64
  3
____ . . ____ . . ____ . . ____ . . ____ . . __
 72
    65
 73
     6
 40
1.25
 49
0.5
 74
     0
 49
-0.25
 74
     0
 49
0.0
 74
     0
 49
-0.25
 74
     0
 49
0.0
 74
     0
 49
-0.25
 74
     0
  0
LTYPE
  5
26
100
AcDbSymbolTableRecord
100
AcDbLinetypeTableRecord
  2
DIVIDE2
 70
    64
  3
__..__..__..__..__..__..__..__..__..__..__..__.
 72
    65
 73
     6
 40
0.625
 49
0.25
 74
     0
 49
-0.125
 74
     0
 49
0.0
 74
     0
 49
-0.125
 74
     0
 49
0.0
 74
     0
 49
-0.125
 74
     0
  0
LTYPE
  5
27
100
AcDbSymbolTableRecord
100
AcDbLinetypeTableRecord
  2
DOT
 70
    64
  3
. . . . . . . . . . . . . . . . . . . . . . . .
 72
    65
 73
     2
 40
0.25
 49
0.0
 74
     0
 49
-0.25
 74
     0
  0
LTYPE
  5
28
100
AcDbSymbolTableRecord
100
AcDbLinetypeTableRecord
  2
HIDDEN
 70
    64
  3
__ __ __ __ __ __ __ __ __ __ __ __ __ __ __ __
 72
    65
 73
     2
 40
0.375
 49
0.25
 74
     0
 49
-0.125
 74
     0
  0
LTYPE
  5
29
100
AcDbSymbolTableRecord
100
AcDbLinetypeTableRecord
  2
PHANTOM
 70
    64
  3
______  __  __  ______  __  __  ______  __  __ 
 72
    65
 73
     6
 40
2.5
 49
1.25
 74
     0
 49
-0.25
 74
     0
 49
0.25
 74
     0
 49
-0.25
 74
     0
 49
0.25
 74
     0
 49
-0.25
 74
     0
  0
ENDTAB
  0
TABLE
  2
LAYER
  5
2
100
AcDbSymbolTable
 70
     3
  0
LAYER
  5
14
100
AcDbSymbolTableRecord
100
AcDbLayerTableRecord
  2
0
 70
     0
 62
     7
  6
CONTINUOUS
  0
LAYER
  5
2A
100
AcDbSymbolTableRecord
100
AcDbLayerTableRecord
  2
0
 70
     0
 62
     7
  6
CONTINUOUS
  0
LAYER
  5
2B
100
AcDbSymbolTableRecord
100
AcDbLayerTableRecord
  2
1
 70
     0
 62
     7
  6
CONTINUOUS
  0
ENDTAB
  0
TABLE
  2
STYLE
  5
3
100
AcDbSymbolTable
 70
     2
  0
STYLE
  5
17
100
AcDbSymbolTableRecord
100
AcDbTextStyleTableRecord
  2
STANDARD
 70
     0
 40
0.0
 41
1.0
 50
0.0
 71
     0
 42
0.0
  3
txt
  4

  0
STYLE
  5
1D
100
AcDbSymbolTableRecord
100
AcDbTextStyleTableRecord
  2
BIGFONT
 70
    64
 40
3.0
 41
1.0
 50
0.0
 71
     0
 42
0.2
  3

  4
BIGFONT
  0
ENDTAB
  0
TABLE
  2
VIEW
  5
5
100
AcDbSymbolTable
 70
     0
  0
ENDTAB
  0
TABLE
  2
UCS
  5
6
100
AcDbSymbolTable
 70
     0
  0
ENDTAB
  0
TABLE
  2
APPID
  5
8
100
AcDbSymbolTable
 70
     1
  0
APPID
  5
16
100
AcDbSymbolTableRecord
100
AcDbRegAppTableRecord
  2
ACAD
 70
     0
  0
ENDTAB
  0
TABLE
  2
DIMSTYLE
  5
9
100
AcDbSymbolTable
 70
     1
  0
DIMSTYLE
105
18
100
AcDbSymbolTableRecord
100
AcDbDimStyleTableRecord
  2
STANDARD
 70
     0
  3

  4

  5

  6

  7

 40
1.0
 41
0.18
 42
0.0625
 43
0.38
 44
0.18
 45
0.0
 46
0.0
 47
0.0
 48
0.0
 71
     0
 72
     0
 73
     1
 74
     1
 75
     0
 76
     0
 77
     0
 78
     0
140
0.18
141
0.09
142
0.0
143
25.4
144
1.0
145
0.0
146
1.0
147
0.09
170
     0
171
     2
172
     0
173
     0
174
     0
175
     0
176
     0
177
     0
178
     0
270
     2
271
     4
272
     4
273
     2
274
     2
275
     0
280
     0
281
     0
282
     0
283
     1
284
     0
285
     0
286
     0
287
     0
288
     0
340
17
  0
ENDTAB
  0
TABLE
  2
BLOCK_RECORD
  5
1
100
AcDbSymbolTable
 70
     0
  0
BLOCK_RECORD
  5
A
100
AcDbSymbolTableRecord
100
AcDbBlockTableRecord
  2
*MODEL_SPACE
  0
BLOCK_RECORD
  5
B
100
AcDbSymbolTableRecord
100
AcDbBlockTableRecord
  2
*PAPER_SPACE
  0
ENDTAB
  0
ENDSEC
  0
SECTION
  2
BLOCKS
  0
BLOCK
  5
D
100
AcDbEntity
  8
0
100
AcDbBlockBegin
  2
*MODEL_SPACE
 70
     0
 10
0.0
 20
0.0
 30
0.0
  3
*MODEL_SPACE
  1

  0
ENDBLK
  5
E
100
AcDbEntity
  8
0
100
AcDbBlockEnd
  0
BLOCK
  5
F
100
AcDbEntity
 67
     1
  8
0
100
AcDbBlockBegin
  2
*PAPER_SPACE
 70
     0
 10
0.0
 20
0.0
 30
0.0
  3
*PAPER_SPACE
  1

  0
ENDBLK
  5
10
100
AcDbEntity
 67
     1
  8
0
100
AcDbBlockEnd
  0
ENDSEC
  0
SECTION
  2
ENTITIES
  0
POLYLINE
  5
2D
100
AcDbEntity
  8
1
  6
CONTINUOUS
 62
   212
 48
0.75
100
AcDb2dPolyline
 66
     1
 10
0.0
 20
0.0
 30
0.0
 70
   128
  0
VERTEX
  5
2E
100
AcDbEntity
  8
1
  6
CONTINUOUS
 62
   212
 48
0.75
100
AcDbVertex
100
AcDb2dVertex
 10
2.996103
 20
0.967294
 30
0.0
 40
0.0
 41
0.0
  0
VERTEX
  5
2F
100
AcDbEntity
  8
1
  6
CONTINUOUS
 62
   212
 48
0.75
100
AcDbVertex
100
AcDb2dVertex
 10
2.996103
 20
0.97665
 30
0.0
 40
0.0
 41
0.0
  0
SEQEND
  5
30
100
AcDbEntity
  8
0
  0
POLYLINE
  5
31
100
AcDbEntity
  8
1
  6
CONTINUOUS
 62
   212
 48
0.75
100
AcDb2dPolyline
 66
     1
 10
0.0
 20
0.0
 30
0.0
 70
   128
  0
VERTEX
  5
32
100
AcDbEntity
  8
1
  6
CONTINUOUS
 62
   212
 48
0.75
100
AcDbVertex
100
AcDb2dVertex
 10
2.994903
 20
0.967294
 30
0.0
 40
0.0
 41
0.0
  0
VERTEX
  5
33
100
AcDbEntity
  8
1
  6
CONTINUOUS
 62
   212
 48
0.75
100
AcDbVertex
100
AcDb2dVertex
 10
2.994903
 20
0.979564
 30
0.0
 40
0.0
 41
0.0
  0
SEQEND
  5
34
100
AcDbEntity
  8
0
  0
POLYLINE
  5
35
100
AcDbEntity
  8
1
  6
CONTINUOUS
 62
   212
 48
0.75
100
AcDb2dPolyline
 66
     1
 10
0.0
 20
0.0
 30
0.0
 70
   128
  0
VERTEX
  5
36
100
AcDbEntity
  8
1
  6
CONTINUOUS
 62
   212
 48
0.75
100
AcDbVertex
100
AcDb2dVertex
 10
2.993603
 20
0.967294
 30
0.0
 40
0.0
 41
0.0
  0
VERTEX
  5
37
100
AcDbEntity
  8
1
  6
CONTINUOUS
 62
   212
 48
0.75
100
AcDbVertex
100
AcDb2dVertex
 10
2.993603
 20
0.982171
 30
0.0
 40
0.0
 41
0.0
  0
SEQEND
  5
38
100
AcDbEntity
  8
0
  0
POLYLINE
  5
39
100
AcDbEntity
  8
1
  6
CONTINUOUS
 62
   212
 48
0.75
100
AcDb2dPolyline
 66
     1
 10
0.0
 20
0.0
 30
0.0
 70
   128
  0
VERTEX
  5
3A
100
AcDbEntity
  8
1
  6
CONTINUOUS
 62
   212
 48
0.75
100
AcDbVertex
100
AcDb2dVertex
 10
2.992103
 20
0.967294
 30
0.0
 40
0.0
 41
0.0
  0
VERTEX
  5
3B
100
AcDbEntity
  8
1
  6
CONTINUOUS
 62
   212
 48
0.75
100
AcDbVertex
100
AcDb2dVertex
 10
2.992103
 20
0.984318
 30
0.0
 40
0.0
 41
0.0
  0
SEQEND
  5
3C
100
AcDbEntity
  8
0
  0
POLYLINE
  5
3D
100
AcDbEntity
  8
1
  6
CONTINUOUS
 62
   212
 48
0.75
100
AcDb2dPolyline
 66
     1
 10
0.0
 20
0.0
 30
0.0
 70
   128
  0
VERTEX
  5
3E
100
AcDbEntity
  8
1
  6
CONTINUOUS
 62
   212
 48
0.75
100
AcDbVertex
100
AcDb2dVertex
 10
2.985803
 20
0.967294
 30
0.0
 40
0.0
 41
0.0
  0
VERTEX
  5
3F
100
AcDbEntity
  8
1
  6
CONTINUOUS
 62
   212
 48
0.75
100
AcDbVertex
100
AcDb2dVertex
 10
2.985803
 20
0.991374
 30
0.0
 40
0.0
 41
0.0
  0
SEQEND
  5
40
100
AcDbEntity
  8
0
  0
POLYLINE
  5
41
100
AcDbEntity
  8
1
  6
CONTINUOUS
 62
   212
 48
0.75
100
AcDb2dPolyline
 66
     1
 10
0.0
 20
0.0
 30
0.0
 70
   128
  0
VERTEX
  5
42
100
AcDbEntity
  8
1
  6
CONTINUOUS
 62
   212
 48
0.75
100
AcDbVertex
100
AcDb2dVertex
 10
2.977403
 20
0.967294
 30
0.0
 40
0.0
 41
0.0
  0
VERTEX
  5
43
100
AcDbEntity
  8
1
  6
CONTINUOUS
 62
   212
 48
0.75
100
AcDbVertex
100
AcDb2dVertex
 10
2.977403
 20
0.998582
 30
0.0
 40
0.0
 41
0.0
  0
SEQEND
  5
44
100
AcDbEntity
  8
0
  0
POLYLINE
  5
45
100
AcDbEntity
  8
1
  6
CONTINUOUS
 62
   212
 48
0.75
100
AcDb2dPolyline
 66
     1
 10
0.0
 20
0.0
 30
0.0
 70
   128
  0
VERTEX
  5
46
100
AcDbEntity
  8
1
  6
CONTINUOUS
 62
   212
 48
0.75
100
AcDbVertex
100
AcDb2dVertex
 10
2.973903
 20
0.967294
 30
0.0
 40
0.0
 41
0.0
  0
VERTEX
  5
47
100
AcDbEntity
  8
1
  6
CONTINUOUS
 62
   212
 48
0.75
100
AcDbVertex
100
AcDb2dVertex
 10
2.973903
 20
1.00119
 30
0.0
 40
0.0
 41
0.0
  0
SEQEND
  5
48
100
AcDbEntity
  8
0
  0
POLYLINE
  5
49
100
AcDbEntity
  8
1
  6
CONTINUOUS
 62
   212
 48
0.75
100
AcDb2dPolyline
 66
     1
 10
0.0
 20
0.0
 30
0.0
 70
   128
  0
VERTEX
  5
4A
100
AcDbEntity
  8
1
  6
CONTINUOUS
 62
   212
 48
0.75
100
AcDbVertex
100
AcDb2dVertex
 10
2.961303
 20
0.967294
 30
0.0
 40
0.0
 41
0.0
  0
VERTEX
  5
4B
100
AcDbEntity
  8
1
  6
CONTINUOUS
 62
   212
 48
0.75
100
AcDbVertex
100
AcDb2dVertex
 10
2.961303
 20
1.009165
 30
0.0
 40
0.0
 41
0.0
  0
SEQEND
  5
4C
100
AcDbEntity
  8
0
  0
POLYLINE
  5
4D
100
AcDbEntity
  8
1
  6
CONTINUOUS
 62
   212
 48
0.75
100
AcDb2dPolyline
 66
     1
 10
0.0
 20
0.0
 30
0.0
 70
   128
  0
VERTEX
  5
4E
100
AcDbEntity
  8
1
  6
CONTINUOUS
 62
   212
 48
0.75
100
AcDbVertex
100
AcDb2dVertex
 10
2.954403
 20
0.967294
 30
0.0
 40
0.0
 41
0.0
  0
VERTEX
  5
4F
100
AcDbEntity
  8
1
  6
CONTINUOUS
 62
   212
 48
0.75
100
AcDbVertex
100
AcDb2dVertex
 10
2.954403
 20
1.012999
 30
0.0
 40
0.0
 41
0.0
  0
SEQEND
  5
50
100
AcDbEntity
  8
0
  0
POLYLINE
  5
51
100
AcDbEntity
  8
1
  6
CONTINUOUS
 62
   212
 48
0.75
100
AcDb2dPolyline
 66
     1
 10
0.0
 20
0.0
 30
0.0
 70
   128
  0
VERTEX
  5
52
100
AcDbEntity
  8
1
  6
CONTINUOUS
 62
   212
 48
0.75
100
AcDbVertex
100
AcDb2dVertex
 10
2.946603
 20
0.967294
 30
0.0
 40
0.0
 41
0.0
  0
VERTEX
  5
53
100
AcDbEntity
  8
1
  6
CONTINUOUS
 62
   212
 48
0.75
100
AcDbVertex
100
AcDb2dVertex
 10
2.946603
 20
1.01668
 30
0.0
 40
0.0
 41
0.0
  0
SEQEND
  5
54
100
AcDbEntity
  8
0
  0
POLYLINE
  5
55
100
AcDbEntity
  8
1
  6
CONTINUOUS
 62
   212
 48
0.75
100
AcDb2dPolyline
 66
     1
 10
0.0
 20
0.0
 30
0.0
 70
   128
  0
VERTEX
  5
56
100
AcDbEntity
  8
1
  6
CONTINUOUS
 62
   212
 48
0.75
100
AcDbVertex
100
AcDb2dVertex
 10
2.937503
 20
0.967294
 30
0.0
 40
0.0
 41
0.0
  0
VERTEX
  5
57
100
AcDbEntity
  8
1
  6
CONTINUOUS
 62
   212
 48
0.75
100
AcDbVertex
100
AcDb2dVertex
 10
2.937503
 20
1.020821
 30
0.0
 40
0.0
 41
0.0
  0
SEQEND
  5
58
100
AcDbEntity
  8
0
  0
POLYLINE
  5
59
100
AcDbEntity
  8
1
  6
CONTINUOUS
 62
   212
 48
0.75
100
AcDb2dPolyline
 66
     1
 10
0.0
 20
0.0
 30
0.0
 70
   128
  0
VERTEX
  5
5A
100
AcDbEntity
  8
1
  6
CONTINUOUS
 62
   212
 48
0.75
100
AcDbVertex
100
AcDb2dVertex
 10
2.929803
 20
0.967294
 30
0.0
 40
0.0
 41
0.0
  0
VERTEX
  5
5B
100
AcDbEntity
  8
1
  6
CONTINUOUS
 62
   212
 48
0.75
100
AcDbVertex
100
AcDb2dVertex
 10
2.929803
 20
1.023889
 30
0.0
 40
0.0
 41
0.0
  0
SEQEND
  5
5C
100
AcDbEntity
  8
0
  0
POLYLINE
  5
5D
100
AcDbEntity
  8
1
  6
CONTINUOUS
 62
   212
 48
0.75
100
AcDb2dPolyline
 66
     1
 10
0.0
 20
0.0
 30
0.0
 70
   128
  0
VERTEX
  5
5E
100
AcDbEntity
  8
1
  6
CONTINUOUS
 62
   212
 48
0.75
100
AcDbVertex
100
AcDb2dVertex
 10
2.920703
 20
0.967294
 30
0.0
 40
0.0
 41
0.0
  0
VERTEX
  5
5F
100
AcDbEntity
  8
1
  6
CONTINUOUS
 62
   212
 48
0.75
100
AcDbVertex
100
AcDb2dVertex
 10
2.920703
 20
1.027263
 30
0.0
 40
0.0
 41
0.0
  0
SEQEND
  5
60
100
AcDbEntity
  8
0
  0
POLYLINE
  5
61
100
AcDbEntity
  8
1
  6
CONTINUOUS
 62
   212
 48
0.75
100
AcDb2dPolyline
 66
     1
 10
0.0
 20
0.0
 30
0.0
 70
   128
  0
VERTEX
  5
62
100
AcDbEntity
  8
1
  6
CONTINUOUS
 62
   212
 48
0.75
100
AcDbVertex
100
AcDb2dVertex
 10
2.910503
 20
0.967294
 30
0.0
 40
0.0
 41
0.0
  0
VERTEX
  5
63
100
AcDbEntity
  8
1
  6
CONTINUOUS
 62
   212
 48
0.75
100
AcDbVertex
100
AcDb2dVertex
 10
2.910503
 20
1.031098
 30
0.0
 40
0.0
 41
0.0
  0
SEQEND
  5
64
100
AcDbEntity
  8
0
  0
POLYLINE
  5
65
100
AcDbEntity
  8
1
  6
CONTINUOUS
 62
   212
 48
0.75
100
AcDb2dPolyline
 66
     1
 10
0.0
 20
0.0
 30
0.0
 70
   128
  0
VERTEX
  5
66
100
AcDbEntity
  8
1
  6
CONTINUOUS
 62
   212
 48
0.75
100
AcDbVertex
100
AcDb2dVertex
 10
2.899903
 20
0.967294
 30
0.0
 40
0.0
 41
0.0
  0
VERTEX
  5
67
100
AcDbEntity
  8
1
  6
CONTINUOUS
 62
   212
 48
0.75
100
AcDbVertex
100
AcDb2dVertex
 10
2.899903
 20
1.034779
 30
0.0
 40
0.0
 41
0.0
  0
SEQEND
  5
68
100
AcDbEntity
  8
0
  0
POLYLINE
  5
69
100
AcDbEntity
  8
1
  6
CONTINUOUS
 62
   212
 48
0.75
100
AcDb2dPolyline
 66
     1
 10
0.0
 20
0.0
 30
0.0
 70
   128
  0
VERTEX
  5
6A
100
AcDbEntity
  8
1
  6
CONTINUOUS
 62
   212
 48
0.75
100
AcDbVertex
100
AcDb2dVertex
 10
2.893003
 20
0.967294
 30
0.0
 40
0.0
 41
0.0
  0
VERTEX
  5
6B
100
AcDbEntity
  8
1
  6
CONTINUOUS
 62
   212
 48
0.75
100
AcDbVertex
100
AcDb2dVertex
 10
2.893003
 20
1.037079
 30
0.0
 40
0.0
 41
0.0
  0
SEQEND
  5
6C
100
AcDbEntity
  8
0
  0
POLYLINE
  5
6D
100
AcDbEntity
  8
1
  6
CONTINUOUS
 62
   212
 48
0.75
100
AcDb2dPolyline
 66
     1
 10
0.0
 20
0.0
 30
0.0
 70
   128
  0
VERTEX
  5
6E
100
AcDbEntity
  8
1
  6
CONTINUOUS
 62
   212
 48
0.75
100
AcDbVertex
100
AcDb2dVertex
 10
2.884203
 20
0.967294
 30
0.0
 40
0.0
 41
0.0
  0
VERTEX
  5
6F
100
AcDbEntity
  8
1
  6
CONTINUOUS
 62
   212
 48
0.75
100
AcDbVertex
100
AcDb2dVertex
 10
2.884203
 20
1.039687
 30
0.0
 40
0.0
 41
0.0
  0
SEQEND
  5
70
100
AcDbEntity
  8
0
  0
POLYLINE
  5
71
100
AcDbEntity
  8
1
  6
CONTINUOUS
 62
   212
 48
0.75
100
AcDb2dPolyline
 66
     1
 10
0.0
 20
0.0
 30
0.0
 70
   128
  0
VERTEX
  5
72
100
AcDbEntity
  8
1
  6
CONTINUOUS
 62
   212
 48
0.75
100
AcDbVertex
100
AcDb2dVertex
 10
2.875103
 20
0.967294
 30
0.0
 40
0.0
 41
0.0
  0
VERTEX
  5
73
100
AcDbEntity
  8
1
  6
CONTINUOUS
 62
   212
 48
0.75
100
AcDbVertex
100
AcDb2dVertex
 10
2.875103
 20
1.042294
 30
0.0
 40
0.0
 41
0.0
  0
SEQEND
  5
74
100
AcDbEntity
  8
0
  0
POLYLINE
  5
75
100
AcDbEntity
  8
1
  6
CONTINUOUS
 62
   212
 48
0.75
100
AcDb2dPolyline
 66
     1
 10
0.0
 20
0.0
 30
0.0
 70
   128
  0
VERTEX
  5
76
100
AcDbEntity
  8
1
  6
CONTINUOUS
 62
   212
 48
0.75
100
AcDbVertex
100
AcDb2dVertex
 10
2.869103
 20
0.967294
 30
0.0
 40
0.0
 41
0.0
  0
VERTEX
  5
77
100
AcDbEntity
  8
1
  6
CONTINUOUS
 62
   212
 48
0.75
100
AcDbVertex
100
AcDb2dVertex
 10
2.869103
 20
1.043828
 30
0.0
 40
0.0
 41
0.0
  0
SEQEND
  5
78
100
AcDbEntity
  8
0
  0
POLYLINE
  5
79
100
AcDbEntity
  8
1
  6
CONTINUOUS
 62
   212
 48
0.75
100
AcDb2dPolyline
 66
     1
 10
0.0
 20
0.0
 30
0.0
 70
   128
  0
VERTEX
  5
7A
100
AcDbEntity
  8
1
  6
CONTINUOUS
 62
   212
 48
0.75
100
AcDbVertex
100
AcDb2dVertex
 10
2.861203
 20
0.967294
 30
0.0
 40
0.0
 41
0.0
  0
VERTEX
  5
7B
100
AcDbEntity
  8
1
  6
CONTINUOUS
 62
   212
 48
0.75
100
AcDbVertex
100
AcDb2dVertex
 10
2.861203
 20
1.045821
 30
0.0
 40
0.0
 41
0.0
  0
SEQEND
  5
7C
100
AcDbEntity
  8
0
  0
POLYLINE
  5
7D
100
AcDbEntity
  8
1
  6
CONTINUOUS
 62
   212
 48
0.75
100
AcDb2dPolyline
 66
     1
 10
0.0
 20
0.0
 30
0.0
 70
   128
  0
VERTEX
  5
7E
100
AcDbEntity
  8
1
  6
CONTINUOUS
 62
   212
 48
0.75
100
AcDbVertex
100
AcDb2dVertex
 10
2.853103
 20
0.967294
 30
0.0
 40
0.0
 41
0.0
  0
VERTEX
  5
7F
100
AcDbEntity
  8
1
  6
CONTINUOUS
 62
   212
 48
0.75
100
AcDbVertex
100
AcDb2dVertex
 10
2.853103
 20
1.047662
 30
0.0
 40
0.0
 41
0.0
  0
SEQEND
  5
80
100
AcDbEntity
  8
0
  0
POLYLINE
  5
81
100
AcDbEntity
  8
1
  6
CONTINUOUS
 62
   212
 48
0.75
100
AcDb2dPolyline
 66
     1
 10
0.0
 20
0.0
 30
0.0
 70
   128
  0
VERTEX
  5
82
100
AcDbEntity
  8
1
  6
CONTINUOUS
 62
   212
 48
0.75
100
AcDbVertex
100
AcDb2dVertex
 10
2.845903
 20
0.967294
 30
0.0
 40
0.0
 41
0.0
  0
VERTEX
  5
83
100
AcDbEntity
  8
1
  6
CONTINUOUS
 62
   212
 48
0.75
100
AcDbVertex
100
AcDb2dVertex
 10
2.845903
 20
1.049196
 30
0.0
 40
0.0
 41
0.0
  0
SEQEND
  5
84
100
AcDbEntity
  8
0
  0
POLYLINE
  5
85
100
AcDbEntity
  8
1
  6
CONTINUOUS
 62
   212
 48
0.75
100
AcDb2dPolyline
 66
     1
 10
0.0
 20
0.0
 30
0.0
 70
   128
  0
VERTEX
  5
86
100
AcDbEntity
  8
1
  6
CONTINUOUS
 62
   212
 48
0.75
100
AcDbVertex
100
AcDb2dVertex
 10
2.835803
 20
0.967294
 30
0.0
 40
0.0
 41
0.0
  0
VERTEX
  5
87
100
AcDbEntity
  8
1
  6
CONTINUOUS
 62
   212
 48
0.75
100
AcDbVertex
100
AcDb2dVertex
 10
2.835803
 20
1.051343
 30
0.0
 40
0.0
 41
0.0
  0
SEQEND
  5
88
100
AcDbEntity
  8
0
  0
POLYLINE
  5
89
100
AcDbEntity
  8
1
  6
CONTINUOUS
 62
   212
 48
0.75
100
AcDb2dPolyline
 66
     1
 10
0.0
 20
0.0
 30
0.0
 70
   128
  0
VERTEX
  5
8A
100
AcDbEntity
  8
1
  6
CONTINUOUS
 62
   212
 48
0.75
100
AcDbVertex
100
AcDb2dVertex
 10
2.822103
 20
0.967294
 30
0.0
 40
0.0
 41
0.0
  0
VERTEX
  5
8B
100
AcDbEntity
  8
1
  6
CONTINUOUS
 62
   212
 48
0.75
100
AcDbVertex
100
AcDb2dVertex
 10
2.822103
 20
1.05395
 30
0.0
 40
0.0
 41
0.0
  0
SEQEND
  5
8C
100
AcDbEntity
  8
0
  0
POLYLINE
  5
8D
100
AcDbEntity
  8
1
  6
CONTINUOUS
 62
   212
 48
0.75
100
AcDb2dPolyline
 66
     1
 10
0.0
 20
0.0
 30
0.0
 70
   128
  0
VERTEX
  5
8E
100
AcDbEntity
  8
1
  6
CONTINUOUS
 62
   212
 48
0.75
100
AcDbVertex
100
AcDb2dVertex
 10
2.813503
 20
0.967294
 30
0.0
 40
0.0
 41
0.0
  0
VERTEX
  5
8F
100
AcDbEntity
  8
1
  6
CONTINUOUS
 62
   212
 48
0.75
100
AcDbVertex
100
AcDb2dVertex
 10
2.813503
 20
1.055331
 30
0.0
 40
0.0
 41
0.0
  0
SEQEND
  5
90
100
AcDbEntity
  8
0
  0
POLYLINE
  5
91
100
AcDbEntity
  8
1
  6
CONTINUOUS
 62
   212
 48
0.75
100
AcDb2dPolyline
 66
     1
 10
0.0
 20
0.0
 30
0.0
 70
   128
  0
VERTEX
  5
92
100
AcDbEntity
  8
1
  6
CONTINUOUS
 62
   212
 48
0.75
100
AcDbVertex
100
AcDb2dVertex
 10
2.806003
 20
0.967294
 30
0.0
 40
0.0
 41
0.0
  0
VERTEX
  5
93
100
AcDbEntity
  8
1
  6
CONTINUOUS
 62
   212
 48
0.75
100
AcDbVertex
100
AcDb2dVertex
 10
2.806003
 20
1.056558
 30
0.0
 40
0.0
 41
0.0
  0
SEQEND
  5
94
100
AcDbEntity
  8
0
  0
POLYLINE
  5
95
100
AcDbEntity
  8
1
  6
CONTINUOUS
 62
   212
 48
0.75
100
AcDb2dPolyline
 66
     1
 10
0.0
 20
0.0
 30
0.0
 70
   128
  0
VERTEX
  5
96
100
AcDbEntity
  8
1
  6
CONTINUOUS
 62
   212
 48
0.75
100
AcDbVertex
100
AcDb2dVertex
 10
2.799603
 20
0.967294
 30
0.0
 40
0.0
 41
0.0
  0
VERTEX
  5
97
100
AcDbEntity
  8
1
  6
CONTINUOUS
 62
   212
 48
0.75
100
AcDbVertex
100
AcDb2dVertex
 10
2.799603
 20
1.057631
 30
0.0
 40
0.0
 41
0.0
  0
SEQEND
  5
98
100
AcDbEntity
  8
0
  0
POLYLINE
  5
99
100
AcDbEntity
  8
1
  6
CONTINUOUS
 62
   212
 48
0.75
100
AcDb2dPolyline
 66
     1
 10
0.0
 20
0.0
 30
0.0
 70
   128
  0
VERTEX
  5
9A
100
AcDbEntity
  8
1
  6
CONTINUOUS
 62
   212
 48
0.75
100
AcDbVertex
100
AcDb2dVertex
 10
2.793503
 20
0.967294
 30
0.0
 40
0.0
 41
0.0
  0
VERTEX
  5
9B
100
AcDbEntity
  8
1
  6
CONTINUOUS
 62
   212
 48
0.75
100
AcDbVertex
100
AcDb2dVertex
 10
2.793503
 20
1.058552
 30
0.0
 40
0.0
 41
0.0
  0
SEQEND
  5
9C
100
AcDbEntity
  8
0
  0
POLYLINE
  5
9D
100
AcDbEntity
  8
1
  6
CONTINUOUS
 62
   212
 48
0.75
100
AcDb2dPolyline
 66
     1
 10
0.0
 20
0.0
 30
0.0
 70
   128
  0
VERTEX
  5
9E
100
AcDbEntity
  8
1
  6
CONTINUOUS
 62
   212
 48
0.75
100
AcDbVertex
100
AcDb2dVertex
 10
2.785103
 20
0.967294
 30
0.0
 40
0.0
 41
0.0
  0
VERTEX
  5
9F
100
AcDbEntity
  8
1
  6
CONTINUOUS
 62
   212
 48
0.75
100
AcDbVertex
100
AcDb2dVertex
 10
2.785103
 20
1.059625
 30
0.0
 40
0.0
 41
0.0
  0
SEQEND
  5
A0
100
AcDbEntity
  8
0
  0
POLYLINE
  5
A1
100
AcDbEntity
  8
1
  6
CONTINUOUS
 62
   212
 48
0.75
100
AcDb2dPolyline
 66
     1
 10
0.0
 20
0.0
 30
0.0
 70
   128
  0
VERTEX
  5
A2
100
AcDbEntity
  8
1
  6
CONTINUOUS
 62
   212
 48
0.75
100
AcDbVertex
100
AcDb2dVertex
 10
2.767203
 20
0.967294
 30
0.0
 40
0.0
 41
0.0
  0
VERTEX
  5
A3
100
AcDbEntity
  8
1
  6
CONTINUOUS
 62
   212
 48
0.75
100
AcDbVertex
100
AcDb2dVertex
 10
2.767203
 20
1.061772
 30
0.0
 40
0.0
 41
0.0
  0
SEQEND
  5
A4
100
AcDbEntity
  8
0
  0
POLYLINE
  5
A5
100
AcDbEntity
  8
1
  6
CONTINUOUS
 62
   212
 48
0.75
100
AcDb2dPolyline
 66
     1
 10
0.0
 20
0.0
 30
0.0
 70
   128
  0
VERTEX
  5
A6
100
AcDbEntity
  8
1
  6
CONTINUOUS
 62
   212
 48
0.75
100
AcDbVertex
100
AcDb2dVertex
 10
2.753503
 20
0.967294
 30
0.0
 40
0.0
 41
0.0
  0
VERTEX
  5
A7
100
AcDbEntity
  8
1
  6
CONTINUOUS
 62
   212
 48
0.75
100
AcDbVertex
100
AcDb2dVertex
 10
2.753503
 20
1.063306
 30
0.0
 40
0.0
 41
0.0
  0
SEQEND
  5
A8
100
AcDbEntity
  8
0
  0
POLYLINE
  5
A9
100
AcDbEntity
  8
1
  6
CONTINUOUS
 62
   212
 48
0.75
100
AcDb2dPolyline
 66
     1
 10
0.0
 20
0.0
 30
0.0
 70
   128
  0
VERTEX
  5
AA
100
AcDbEntity
  8
1
  6
CONTINUOUS
 62
   212
 48
0.75
100
AcDbVertex
100
AcDb2dVertex
 10
2.732903
 20
0.967294
 30
0.0
 40
0.0
 41
0.0
  0
VERTEX
  5
AB
100
AcDbEntity
  8
1
  6
CONTINUOUS
 62
   212
 48
0.75
100
AcDbVertex
100
AcDb2dVertex
 10
2.732903
 20
1.064993
 30
0.0
 40
0.0
 41
0.0
  0
SEQEND
  5
AC
100
AcDbEntity
  8
0
  0
POLYLINE
  5
AD
100
AcDbEntity
  8
1
  6
CONTINUOUS
 62
   212
 48
0.75
100
AcDb2dPolyline
 66
     1
 10
0.0
 20
0.0
 30
0.0
 70
   128
  0
VERTEX
  5
AE
100
AcDbEntity
  8
1
  6
CONTINUOUS
 62
   212
 48
0.75
100
AcDbVertex
100
AcDb2dVertex
 10
2.714303
 20
0.967294
 30
0.0
 40
0.0
 41
0.0
  0
VERTEX
  5
AF
100
AcDbEntity
  8
1
  6
CONTINUOUS
 62
   212
 48
0.75
100
AcDbVertex
100
AcDb2dVertex
 10
2.714303
 20
1.06622
 30
0.0
 40
0.0
 41
0.0
  0
SEQEND
  5
B0
100
AcDbEntity
  8
0
  0
POLYLINE
  5
B1
100
AcDbEntity
  8
1
  6
CONTINUOUS
 62
   212
 48
0.75
100
AcDb2dPolyline
 66
     1
 10
0.0
 20
0.0
 30
0.0
 70
   128
  0
VERTEX
  5
B2
100
AcDbEntity
  8
1
  6
CONTINUOUS
 62
   212
 48
0.75
100
AcDbVertex
100
AcDb2dVertex
 10
2.684603
 20
0.967294
 30
0.0
 40
0.0
 41
0.0
  0
VERTEX
  5
B3
100
AcDbEntity
  8
1
  6
CONTINUOUS
 62
   212
 48
0.75
100
AcDbVertex
100
AcDb2dVertex
 10
2.684603
 20
1.067294
 30
0.0
 40
0.0
 41
0.0
  0
SEQEND
  5
B4
100
AcDbEntity
  8
0
  0
POLYLINE
  5
B5
100
AcDbEntity
  8
1
  6
CONTINUOUS
 62
   212
 48
0.75
100
AcDb2dPolyline
 66
     1
 10
0.0
 20
0.0
 30
0.0
 70
   128
  0
VERTEX
  5
B6
100
AcDbEntity
  8
1
  6
CONTINUOUS
 62
   212
 48
0.75
100
AcDbVertex
100
AcDb2dVertex
 10
2.626203
 20
0.967294
 30
0.0
 40
0.0
 41
0.0
  0
VERTEX
  5
B7
100
AcDbEntity
  8
1
  6
CONTINUOUS
 62
   212
 48
0.75
100
AcDbVertex
100
AcDb2dVertex
 10
2.626203
 20
1.066987
 30
0.0
 40
0.0
 41
0.0
  0
SEQEND
  5
B8
100
AcDbEntity
  8
0
  0
POLYLINE
  5
B9
100
AcDbEntity
  8
1
  6
CONTINUOUS
 62
   212
 48
0.75
100
AcDb2dPolyline
 66
     1
 10
0.0
 20
0.0
 30
0.0
 70
   128
  0
VERTEX
  5
BA
100
AcDbEntity
  8
1
  6
CONTINUOUS
 62
   212
 48
0.75
100
AcDbVertex
100
AcDb2dVertex
 10
2.571803
 20
0.967294
 30
0.0
 40
0.0
 41
0.0
  0
VERTEX
  5
BB
100
AcDbEntity
  8
1
  6
CONTINUOUS
 62
   212
 48
0.75
100
AcDbVertex
100
AcDb2dVertex
 10
2.571803
 20
1.06438
 30
0.0
 40
0.0
 41
0.0
  0
SEQEND
  5
BC
100
AcDbEntity
  8
0
  0
POLYLINE
  5
BD
100
AcDbEntity
  8
1
  6
CONTINUOUS
 62
   212
 48
0.75
100
AcDb2dPolyline
 66
     1
 10
0.0
 20
0.0
 30
0.0
 70
   128
  0
VERTEX
  5
BE
100
AcDbEntity
  8
1
  6
CONTINUOUS
 62
   212
 48
0.75
100
AcDbVertex
100
AcDb2dVertex
 10
2.498703
 20
0.967294
 30
0.0
 40
0.0
 41
0.0
  0
VERTEX
  5
BF
100
AcDbEntity
  8
1
  6
CONTINUOUS
 62
   212
 48
0.75
100
AcDbVertex
100
AcDb2dVertex
 10
2.498703
 20
1.058552
 30
0.0
 40
0.0
 41
0.0
  0
SEQEND
  5
C0
100
AcDbEntity
  8
0
  0
POLYLINE
  5
C1
100
AcDbEntity
  8
1
  6
CONTINUOUS
 62
   212
 48
0.75
100
AcDb2dPolyline
 66
     1
 10
0.0
 20
0.0
 30
0.0
 70
   128
  0
VERTEX
  5
C2
100
AcDbEntity
  8
1
  6
CONTINUOUS
 62
   212
 48
0.75
100
AcDbVertex
100
AcDb2dVertex
 10
2.440003
 20
0.967294
 30
0.0
 40
0.0
 41
0.0
  0
VERTEX
  5
C3
100
AcDbEntity
  8
1
  6
CONTINUOUS
 62
   212
 48
0.75
100
AcDbVertex
100
AcDb2dVertex
 10
2.440003
 20
1.052263
 30
0.0
 40
0.0
 41
0.0
  0
SEQEND
  5
C4
100
AcDbEntity
  8
0
  0
POLYLINE
  5
C5
100
AcDbEntity
  8
1
  6
CONTINUOUS
 62
   212
 48
0.75
100
AcDb2dPolyline
 66
     1
 10
0.0
 20
0.0
 30
0.0
 70
   128
  0
VERTEX
  5
C6
100
AcDbEntity
  8
1
  6
CONTINUOUS
 62
   212
 48
0.75
100
AcDbVertex
100
AcDb2dVertex
 10
2.385303
 20
0.967294
 30
0.0
 40
0.0
 41
0.0
  0
VERTEX
  5
C7
100
AcDbEntity
  8
1
  6
CONTINUOUS
 62
   212
 48
0.75
100
AcDbVertex
100
AcDb2dVertex
 10
2.385303
 20
1.045515
 30
0.0
 40
0.0
 41
0.0
  0
SEQEND
  5
C8
100
AcDbEntity
  8
0
  0
POLYLINE
  5
C9
100
AcDbEntity
  8
1
  6
CONTINUOUS
 62
   212
 48
0.75
100
AcDb2dPolyline
 66
     1
 10
0.0
 20
0.0
 30
0.0
 70
   128
  0
VERTEX
  5
CA
100
AcDbEntity
  8
1
  6
CONTINUOUS
 62
   212
 48
0.75
100
AcDbVertex
100
AcDb2dVertex
 10
2.342003
 20
0.967294
 30
0.0
 40
0.0
 41
0.0
  0
VERTEX
  5
CB
100
AcDbEntity
  8
1
  6
CONTINUOUS
 62
   212
 48
0.75
100
AcDbVertex
100
AcDb2dVertex
 10
2.342003
 20
1.039533
 30
0.0
 40
0.0
 41
0.0
  0
SEQEND
  5
CC
100
AcDbEntity
  8
0
  0
POLYLINE
  5
CD
100
AcDbEntity
  8
1
  6
CONTINUOUS
 62
   212
 48
0.75
100
AcDb2dPolyline
 66
     1
 10
0.0
 20
0.0
 30
0.0
 70
   128
  0
VERTEX
  5
CE
100
AcDbEntity
  8
1
  6
CONTINUOUS
 62
   212
 48
0.75
100
AcDbVertex
100
AcDb2dVertex
 10
2.290003
 20
0.967294
 30
0.0
 40
0.0
 41
0.0
  0
VERTEX
  5
CF
100
AcDbEntity
  8
1
  6
CONTINUOUS
 62
   212
 48
0.75
100
AcDbVertex
100
AcDb2dVertex
 10
2.290003
 20
1.031711
 30
0.0
 40
0.0
 41
0.0
  0
SEQEND
  5
D0
100
AcDbEntity
  8
0
  0
POLYLINE
  5
D1
100
AcDbEntity
  8
1
  6
CONTINUOUS
 62
   212
 48
0.75
100
AcDb2dPolyline
 66
     1
 10
0.0
 20
0.0
 30
0.0
 70
   128
  0
VERTEX
  5
D2
100
AcDbEntity
  8
1
  6
CONTINUOUS
 62
   212
 48
0.75
100
AcDbVertex
100
AcDb2dVertex
 10
2.236303
 20
0.967294
 30
0.0
 40
0.0
 41
0.0
  0
VERTEX
  5
D3
100
AcDbEntity
  8
1
  6
CONTINUOUS
 62
   212
 48
0.75
100
AcDbVertex
100
AcDb2dVertex
 10
2.236303
 20
1.022969
 30
0.0
 40
0.0
 41
0.0
  0
SEQEND
  5
D4
100
AcDbEntity
  8
0
  0
POLYLINE
  5
D5
100
AcDbEntity
  8
1
  6
CONTINUOUS
 62
   212
 48
0.75
100
AcDb2dPolyline
 66
     1
 10
0.0
 20
0.0
 30
0.0
 70
   128
  0
VERTEX
  5
D6
100
AcDbEntity
  8
1
  6
CONTINUOUS
 62
   212
 48
0.75
100
AcDbVertex
100
AcDb2dVertex
 10
2.200803
 20
0.967294
 30
0.0
 40
0.0
 41
0.0
  0
VERTEX
  5
D7
100
AcDbEntity
  8
1
  6
CONTINUOUS
 62
   212
 48
0.75
100
AcDbVertex
100
AcDb2dVertex
 10
2.200803
 20
1.01668
 30
0.0
 40
0.0
 41
0.0
  0
SEQEND
  5
D8
100
AcDbEntity
  8
0
  0
POLYLINE
  5
D9
100
AcDbEntity
  8
1
  6
CONTINUOUS
 62
   212
 48
0.75
100
AcDb2dPolyline
 66
     1
 10
0.0
 20
0.0
 30
0.0
 70
   128
  0
VERTEX
  5
DA
100
AcDbEntity
  8
1
  6
CONTINUOUS
 62
   212
 48
0.75
100
AcDbVertex
100
AcDb2dVertex
 10
2.159703
 20
0.967294
 30
0.0
 40
0.0
 41
0.0
  0
VERTEX
  5
DB
100
AcDbEntity
  8
1
  6
CONTINUOUS
 62
   212
 48
0.75
100
AcDbVertex
100
AcDb2dVertex
 10
2.159703
 20
1.008705
 30
0.0
 40
0.0
 41
0.0
  0
SEQEND
  5
DC
100
AcDbEntity
  8
0
  0
POLYLINE
  5
DD
100
AcDbEntity
  8
1
  6
CONTINUOUS
 62
   212
 48
0.75
100
AcDb2dPolyline
 66
     1
 10
0.0
 20
0.0
 30
0.0
 70
   128
  0
VERTEX
  5
DE
100
AcDbEntity
  8
1
  6
CONTINUOUS
 62
   212
 48
0.75
100
AcDbVertex
100
AcDb2dVertex
 10
2.111703
 20
0.967294
 30
0.0
 40
0.0
 41
0.0
  0
VERTEX
  5
DF
100
AcDbEntity
  8
1
  6
CONTINUOUS
 62
   212
 48
0.75
100
AcDbVertex
100
AcDb2dVertex
 10
2.111703
 20
0.999042
 30
0.0
 40
0.0
 41
0.0
  0
SEQEND
  5
E0
100
AcDbEntity
  8
0
  0
POLYLINE
  5
E1
100
AcDbEntity
  8
1
  6
CONTINUOUS
 62
   212
 48
0.75
100
AcDb2dPolyline
 66
     1
 10
0.0
 20
0.0
 30
0.0
 70
   128
  0
VERTEX
  5
E2
100
AcDbEntity
  8
1
  6
CONTINUOUS
 62
   212
 48
0.75
100
AcDbVertex
100
AcDb2dVertex
 10
2.080903
 20
0.967294
 30
0.0
 40
0.0
 41
0.0
  0
VERTEX
  5
E3
100
AcDbEntity
  8
1
  6
CONTINUOUS
 62
   212
 48
0.75
100
AcDbVertex
100
AcDb2dVertex
 10
2.080903
 20
0.992754
 30
0.0
 40
0.0
 41
0.0
  0
SEQEND
  5
E4
100
AcDbEntity
  8
0
  0
POLYLINE
  5
E5
100
AcDbEntity
  8
1
  6
CONTINUOUS
 62
   212
 48
0.75
100
AcDb2dPolyline
 66
     1
 10
0.0
 20
0.0
 30
0.0
 70
   128
  0
VERTEX
  5
E6
100
AcDbEntity
  8
1
  6
CONTINUOUS
 62
   212
 48
0.75
100
AcDbVertex
100
AcDb2dVertex
 10
2.060403
 20
0.967294
 30
0.0
 40
0.0
 41
0.0
  0
VERTEX
  5
E7
100
AcDbEntity
  8
1
  6
CONTINUOUS
 62
   212
 48
0.75
100
AcDbVertex
100
AcDb2dVertex
 10
2.060403
 20
0.98846
 30
0.0
 40
0.0
 41
0.0
  0
SEQEND
  5
E8
100
AcDbEntity
  8
0
  0
POLYLINE
  5
E9
100
AcDbEntity
  8
1
  6
CONTINUOUS
 62
   212
 48
0.75
100
AcDb2dPolyline
 66
     1
 10
0.0
 20
0.0
 30
0.0
 70
   128
  0
VERTEX
  5
EA
100
AcDbEntity
  8
1
  6
CONTINUOUS
 62
   212
 48
0.75
100
AcDbVertex
100
AcDb2dVertex
 10
2.045003
 20
0.967294
 30
0.0
 40
0.0
 41
0.0
  0
VERTEX
  5
EB
100
AcDbEntity
  8
1
  6
CONTINUOUS
 62
   212
 48
0.75
100
AcDbVertex
100
AcDb2dVertex
 10
2.045003
 20
0.985239
 30
0.0
 40
0.0
 41
0.0
  0
SEQEND
  5
EC
100
AcDbEntity
  8
0
  0
POLYLINE
  5
ED
100
AcDbEntity
  8
1
  6
CONTINUOUS
 62
   212
 48
0.75
100
AcDb2dPolyline
 66
     1
 10
0.0
 20
0.0
 30
0.0
 70
   128
  0
VERTEX
  5
EE
100
AcDbEntity
  8
1
  6
CONTINUOUS
 62
   212
 48
0.75
100
AcDbVertex
100
AcDb2dVertex
 10
2.026203
 20
0.967294
 30
0.0
 40
0.0
 41
0.0
  0
VERTEX
  5
EF
100
AcDbEntity
  8
1
  6
CONTINUOUS
 62
   212
 48
0.75
100
AcDbVertex
100
AcDb2dVertex
 10
2.026203
 20
0.980791
 30
0.0
 40
0.0
 41
0.0
  0
SEQEND
  5
F0
100
AcDbEntity
  8
0
  0
POLYLINE
  5
F1
100
AcDbEntity
  8
1
  6
CONTINUOUS
 62
   212
 48
0.75
100
AcDb2dPolyline
 66
     1
 10
0.0
 20
0.0
 30
0.0
 70
   128
  0
VERTEX
  5
F2
100
AcDbEntity
  8
1
  6
CONTINUOUS
 62
   212
 48
0.75
100
AcDbVertex
100
AcDb2dVertex
 10
2.010403
 20
0.967294
 30
0.0
 40
0.0
 41
0.0
  0
VERTEX
  5
F3
100
AcDbEntity
  8
1
  6
CONTINUOUS
 62
   212
 48
0.75
100
AcDbVertex
100
AcDb2dVertex
 10
2.010403
 20
0.97711
 30
0.0
 40
0.0
 41
0.0
  0
SEQEND
  5
F4
100
AcDbEntity
  8
0
  0
POLYLINE
  5
F5
100
AcDbEntity
  8
1
  6
CONTINUOUS
 62
   212
 48
0.75
100
AcDb2dPolyline
 66
     1
 10
0.0
 20
0.0
 30
0.0
 70
   128
  0
VERTEX
  5
F6
100
AcDbEntity
  8
1
  6
CONTINUOUS
 62
   212
 48
0.75
100
AcDbVertex
100
AcDb2dVertex
 10
2.006203
 20
0.967294
 30
0.0
 40
0.0
 41
0.0
  0
VERTEX
  5
F7
100
AcDbEntity
  8
1
  6
CONTINUOUS
 62
   212
 48
0.75
100
AcDbVertex
100
AcDb2dVertex
 10
2.006203
 20
0.976036
 30
0.0
 40
0.0
 41
0.0
  0
SEQEND
  5
F8
100
AcDbEntity
  8
0
  0
POLYLINE
  5
F9
100
AcDbEntity
  8
1
  6
CONTINUOUS
 62
   212
 48
0.75
100
AcDb2dPolyline
 66
     1
 10
0.0
 20
0.0
 30
0.0
 70
   128
  0
VERTEX
  5
FA
100
AcDbEntity
  8
1
  6
CONTINUOUS
 62
   212
 48
0.75
100
AcDbVertex
100
AcDb2dVertex
 10
2.000103
 20
0.967294
 30
0.0
 40
0.0
 41
0.0
  0
VERTEX
  5
FB
100
AcDbEntity
  8
1
  6
CONTINUOUS
 62
   212
 48
0.75
100
AcDbVertex
100
AcDb2dVertex
 10
2.000103
 20
0.974656
 30
0.0
 40
0.0
 41
0.0
  0
SEQEND
  5
FC
100
AcDbEntity
  8
0
  0
SPLINE
  5
FD
100
AcDbEntity
  8
1
  6
CONTINUOUS
 62
   212
 48
0.75
100
AcDbSpline
210
0.0
220
0.0
230
1.0
 70
     0
 71
     3
 72
     0
 73
     0
 74
    57
 44
0.0
 11
2.9977032296915476
 21
0.9672938903260419
 31
0.0
 11
2.9975014502017943
 21
0.9704964385087392
 31
0.0
 11
2.9970690732166712
 21
0.9732227417904417
 31
0.0
 11
2.9961032296915477
 21
0.9766497183560418
 31
0.0
 11
2.9949032296915474
 21
0.9795638287260419
 31
0.0
 11
2.9936032296915474
 21
0.9821711906360419
 31
0.0
 11
2.9921032296915477
 21
0.984318429856042
 31
0.0
 11
2.9876099951492803
 21
0.9896218176214039
 31
0.0
 11
2.9858032296915478
 21
0.991373644436042
 31
0.0
 11
2.9774032296915474
 21
0.9985822332460418
 31
0.0
 11
2.9739032296915475
 21
1.0011895951560419
 31
0.0
 11
2.9613032296915476
 21
1.0091650551160418
 31
0.0
 11
2.9544032296915477
 21
1.0129994108660418
 31
0.0
 11
2.9466032296915476
 21
1.0166803923860419
 31
0.0
 11
2.9375032296915475
 21
1.0208214965960418
 31
0.0
 11
2.9298032296915477
 21
1.0238889811960417
 31
0.0
 11
2.9207032296915476
 21
1.0272632142560418
 31
0.0
 11
2.9105032296915474
 21
1.0310975700060419
 31
0.0
 11
2.8999032296915477
 21
1.0347785515260419
 31
0.0
 11
2.8930032296915478
 21
1.037079164976042
 31
0.0
 11
2.8842032296915474
 21
1.0396865268860416
 31
0.0
 11
2.8751032296915477
 21
1.0422938887960416
 31
0.0
 11
2.8691032296915475
 21
1.0438276310960419
 31
0.0
 11
2.8612032296915477
 21
1.0458214960860417
 31
0.0
 11
2.8531032296915475
 21
1.0476619868460419
 31
0.0
 11
2.8459032296915474
 21
1.0491957291460419
 31
0.0
 11
2.8358032296915474
 21
1.0513429683660416
 31
0.0
 11
2.8221032296915474
 21
1.053950330276042
 31
0.0
 11
2.8135032296915474
 21
1.0553306983460415
 31
0.0
 11
2.8060032296915476
 21
1.056557692186042
 31
0.0
 11
2.7996032296915474
 21
1.0576313117960416
 31
0.0
 11
2.7935032296915474
 21
1.0585515571760422
 31
0.0
 11
2.7851032296915474
 21
1.0596251767860418
 31
0.0
 11
2.7672032296915474
 21
1.061772416006042
 31
0.0
 11
2.7535032296915474
 21
1.0633061583060419
 31
0.0
 11
2.7329032296915474
 21
1.0649932748360418
 31
0.0
 11
2.7143032296915477
 21
1.0662202686760418
 31
0.0
 11
2.6846032296915476
 21
1.0672938882860419
 31
0.0
 11
2.6262032296915474
 21
1.066987139826042
 31
0.0
 11
2.5718032296915476
 21
1.0643797779160415
 31
0.0
 11
2.4987032296915475
 21
1.0585515571760422
 31
0.0
 11
2.4400032296915475
 21
1.0522632137460417
 31
0.0
 11
2.3853032296915475
 21
1.0455147476260418
 31
0.0
 11
2.3420032296915476
 21
1.0395331526560416
 31
0.0
 11
2.2900032296915476
 21
1.0317110669260421
 31
0.0
 11
2.2363032296915475
 21
1.022968735816042
 31
0.0
 11
2.2008032296915476
 21
1.0166803923860419
 31
0.0
 11
2.1597032296915475
 21
1.0087049324260415
 31
0.0
 11
2.1117032296915474
 21
0.9990423559360419
 31
0.0
 11
2.0809032296915477
 21
0.9927540125060418
 31
0.0
 11
2.0604032296915475
 21
0.9884595340660419
 31
0.0
 11
2.0450032296915475
 21
0.9852386752360419
 31
0.0
 11
2.0262032296915478
 21
0.9807908225660417
 31
0.0
 11
2.0104032296915477
 21
0.9771098410460418
 31
0.0
 11
2.0062032296915477
 21
0.976036221436042
 31
0.0
 11
2.0001032296915477
 21
0.9746558533660418
 31
0.0
 11
1.9977032296915476
 21
0.9672938903260419
 31
0.0
  0
POLYLINE
  5
FE
100
AcDbEntity
  8
1
  6
CONTINUOUS
 62
   212
 48
0.75
100
AcDb2dPolyline
 66
     1
 10
0.0
 20
0.0
 30
0.0
 70
   128
  0
VERTEX
  5
FF
100
AcDbEntity
  8
1
  6
CONTINUOUS
 62
   212
 48
0.75
100
AcDbVertex
100
AcDb2dVertex
 10
2.996123
 20
0.967332
 30
0.0
 40
0.0
 41
0.0
  0
VERTEX
  5
100
100
AcDbEntity
  8
1
  6
CONTINUOUS
 62
   212
 48
0.75
100
AcDbVertex
100
AcDb2dVertex
 10
2.996123
 20
0.957977
 30
0.0
 40
0.0
 41
0.0
  0
SEQEND
  5
101
100
AcDbEntity
  8
0
  0
POLYLINE
  5
102
100
AcDbEntity
  8
1
  6
CONTINUOUS
 62
   212
 48
0.75
100
AcDb2dPolyline
 66
     1
 10
0.0
 20
0.0
 30
0.0
 70
   128
  0
VERTEX
  5
103
100
AcDbEntity
  8
1
  6
CONTINUOUS
 62
   212
 48
0.75
100
AcDbVertex
100
AcDb2dVertex
 10
2.994923
 20
0.967332
 30
0.0
 40
0.0
 41
0.0
  0
VERTEX
  5
104
100
AcDbEntity
  8
1
  6
CONTINUOUS
 62
   212
 48
0.75
100
AcDbVertex
100
AcDb2dVertex
 10
2.994923
 20
0.955062
 30
0.0
 40
0.0
 41
0.0
  0
SEQEND
  5
105
100
AcDbEntity
  8
0
  0
POLYLINE
  5
106
100
AcDbEntity
  8
1
  6
CONTINUOUS
 62
   212
 48
0.75
100
AcDb2dPolyline
 66
     1
 10
0.0
 20
0.0
 30
0.0
 70
   128
  0
VERTEX
  5
107
100
AcDbEntity
  8
1
  6
CONTINUOUS
 62
   212
 48
0.75
100
AcDbVertex
100
AcDb2dVertex
 10
2.993623
 20
0.967332
 30
0.0
 40
0.0
 41
0.0
  0
VERTEX
  5
108
100
AcDbEntity
  8
1
  6
CONTINUOUS
 62
   212
 48
0.75
100
AcDbVertex
100
AcDb2dVertex
 10
2.993623
 20
0.952455
 30
0.0
 40
0.0
 41
0.0
  0
SEQEND
  5
109
100
AcDbEntity
  8
0
  0
POLYLINE
  5
10A
100
AcDbEntity
  8
1
  6
CONTINUOUS
 62
   212
 48
0.75
100
AcDb2dPolyline
 66
     1
 10
0.0
 20
0.0
 30
0.0
 70
   128
  0
VERTEX
  5
10B
100
AcDbEntity
  8
1
  6
CONTINUOUS
 62
   212
 48
0.75
100
AcDbVertex
100
AcDb2dVertex
 10
2.992123
 20
0.967332
 30
0.0
 40
0.0
 41
0.0
  0
VERTEX
  5
10C
100
AcDbEntity
  8
1
  6
CONTINUOUS
 62
   212
 48
0.75
100
AcDbVertex
100
AcDb2dVertex
 10
2.992123
 20
0.950308
 30
0.0
 40
0.0
 41
0.0
  0
SEQEND
  5
10D
100
AcDbEntity
  8
0
  0
POLYLINE
  5
10E
100
AcDbEntity
  8
1
  6
CONTINUOUS
 62
   212
 48
0.75
100
AcDb2dPolyline
 66
     1
 10
0.0
 20
0.0
 30
0.0
 70
   128
  0
VERTEX
  5
10F
100
AcDbEntity
  8
1
  6
CONTINUOUS
 62
   212
 48
0.75
100
AcDbVertex
100
AcDb2dVertex
 10
2.985823
 20
0.967332
 30
0.0
 40
0.0
 41
0.0
  0
VERTEX
  5
110
100
AcDbEntity
  8
1
  6
CONTINUOUS
 62
   212
 48
0.75
100
AcDbVertex
100
AcDb2dVertex
 10
2.985823
 20
0.943253
 30
0.0
 40
0.0
 41
0.0
  0
SEQEND
  5
111
100
AcDbEntity
  8
0
  0
POLYLINE
  5
112
100
AcDbEntity
  8
1
  6
CONTINUOUS
 62
   212
 48
0.75
100
AcDb2dPolyline
 66
     1
 10
0.0
 20
0.0
 30
0.0
 70
   128
  0
VERTEX
  5
113
100
AcDbEntity
  8
1
  6
CONTINUOUS
 62
   212
 48
0.75
100
AcDbVertex
100
AcDb2dVertex
 10
2.977423
 20
0.967332
 30
0.0
 40
0.0
 41
0.0
  0
VERTEX
  5
114
100
AcDbEntity
  8
1
  6
CONTINUOUS
 62
   212
 48
0.75
100
AcDbVertex
100
AcDb2dVertex
 10
2.977423
 20
0.936044
 30
0.0
 40
0.0
 41
0.0
  0
SEQEND
  5
115
100
AcDbEntity
  8
0
  0
POLYLINE
  5
116
100
AcDbEntity
  8
1
  6
CONTINUOUS
 62
   212
 48
0.75
100
AcDb2dPolyline
 66
     1
 10
0.0
 20
0.0
 30
0.0
 70
   128
  0
VERTEX
  5
117
100
AcDbEntity
  8
1
  6
CONTINUOUS
 62
   212
 48
0.75
100
AcDbVertex
100
AcDb2dVertex
 10
2.973923
 20
0.967332
 30
0.0
 40
0.0
 41
0.0
  0
VERTEX
  5
118
100
AcDbEntity
  8
1
  6
CONTINUOUS
 62
   212
 48
0.75
100
AcDbVertex
100
AcDb2dVertex
 10
2.973923
 20
0.933437
 30
0.0
 40
0.0
 41
0.0
  0
SEQEND
  5
119
100
AcDbEntity
  8
0
  0
POLYLINE
  5
11A
100
AcDbEntity
  8
1
  6
CONTINUOUS
 62
   212
 48
0.75
100
AcDb2dPolyline
 66
     1
 10
0.0
 20
0.0
 30
0.0
 70
   128
  0
VERTEX
  5
11B
100
AcDbEntity
  8
1
  6
CONTINUOUS
 62
   212
 48
0.75
100
AcDbVertex
100
AcDb2dVertex
 10
2.961323
 20
0.967332
 30
0.0
 40
0.0
 41
0.0
  0
VERTEX
  5
11C
100
AcDbEntity
  8
1
  6
CONTINUOUS
 62
   212
 48
0.75
100
AcDbVertex
100
AcDb2dVertex
 10
2.961323
 20
0.925461
 30
0.0
 40
0.0
 41
0.0
  0
SEQEND
  5
11D
100
AcDbEntity
  8
0
  0
POLYLINE
  5
11E
100
AcDbEntity
  8
1
  6
CONTINUOUS
 62
   212
 48
0.75
100
AcDb2dPolyline
 66
     1
 10
0.0
 20
0.0
 30
0.0
 70
   128
  0
VERTEX
  5
11F
100
AcDbEntity
  8
1
  6
CONTINUOUS
 62
   212
 48
0.75
100
AcDbVertex
100
AcDb2dVertex
 10
2.954423
 20
0.967332
 30
0.0
 40
0.0
 41
0.0
  0
VERTEX
  5
120
100
AcDbEntity
  8
1
  6
CONTINUOUS
 62
   212
 48
0.75
100
AcDbVertex
100
AcDb2dVertex
 10
2.954423
 20
0.921627
 30
0.0
 40
0.0
 41
0.0
  0
SEQEND
  5
121
100
AcDbEntity
  8
0
  0
POLYLINE
  5
122
100
AcDbEntity
  8
1
  6
CONTINUOUS
 62
   212
 48
0.75
100
AcDb2dPolyline
 66
     1
 10
0.0
 20
0.0
 30
0.0
 70
   128
  0
VERTEX
  5
123
100
AcDbEntity
  8
1
  6
CONTINUOUS
 62
   212
 48
0.75
100
AcDbVertex
100
AcDb2dVertex
 10
2.946623
 20
0.967332
 30
0.0
 40
0.0
 41
0.0
  0
VERTEX
  5
124
100
AcDbEntity
  8
1
  6
CONTINUOUS
 62
   212
 48
0.75
100
AcDbVertex
100
AcDb2dVertex
 10
2.946623
 20
0.917946
 30
0.0
 40
0.0
 41
0.0
  0
SEQEND
  5
125
100
AcDbEntity
  8
0
  0
POLYLINE
  5
126
100
AcDbEntity
  8
1
  6
CONTINUOUS
 62
   212
 48
0.75
100
AcDb2dPolyline
 66
     1
 10
0.0
 20
0.0
 30
0.0
 70
   128
  0
VERTEX
  5
127
100
AcDbEntity
  8
1
  6
CONTINUOUS
 62
   212
 48
0.75
100
AcDbVertex
100
AcDb2dVertex
 10
2.937523
 20
0.967332
 30
0.0
 40
0.0
 41
0.0
  0
VERTEX
  5
128
100
AcDbEntity
  8
1
  6
CONTINUOUS
 62
   212
 48
0.75
100
AcDbVertex
100
AcDb2dVertex
 10
2.937523
 20
0.913805
 30
0.0
 40
0.0
 41
0.0
  0
SEQEND
  5
129
100
AcDbEntity
  8
0
  0
POLYLINE
  5
12A
100
AcDbEntity
  8
1
  6
CONTINUOUS
 62
   212
 48
0.75
100
AcDb2dPolyline
 66
     1
 10
0.0
 20
0.0
 30
0.0
 70
   128
  0
VERTEX
  5
12B
100
AcDbEntity
  8
1
  6
CONTINUOUS
 62
   212
 48
0.75
100
AcDbVertex
100
AcDb2dVertex
 10
2.929823
 20
0.967332
 30
0.0
 40
0.0
 41
0.0
  0
VERTEX
  5
12C
100
AcDbEntity
  8
1
  6
CONTINUOUS
 62
   212
 48
0.75
100
AcDbVertex
100
AcDb2dVertex
 10
2.929823
 20
0.910737
 30
0.0
 40
0.0
 41
0.0
  0
SEQEND
  5
12D
100
AcDbEntity
  8
0
  0
POLYLINE
  5
12E
100
AcDbEntity
  8
1
  6
CONTINUOUS
 62
   212
 48
0.75
100
AcDb2dPolyline
 66
     1
 10
0.0
 20
0.0
 30
0.0
 70
   128
  0
VERTEX
  5
12F
100
AcDbEntity
  8
1
  6
CONTINUOUS
 62
   212
 48
0.75
100
AcDbVertex
100
AcDb2dVertex
 10
2.920723
 20
0.967332
 30
0.0
 40
0.0
 41
0.0
  0
VERTEX
  5
130
100
AcDbEntity
  8
1
  6
CONTINUOUS
 62
   212
 48
0.75
100
AcDbVertex
100
AcDb2dVertex
 10
2.920723
 20
0.907363
 30
0.0
 40
0.0
 41
0.0
  0
SEQEND
  5
131
100
AcDbEntity
  8
0
  0
POLYLINE
  5
132
100
AcDbEntity
  8
1
  6
CONTINUOUS
 62
   212
 48
0.75
100
AcDb2dPolyline
 66
     1
 10
0.0
 20
0.0
 30
0.0
 70
   128
  0
VERTEX
  5
133
100
AcDbEntity
  8
1
  6
CONTINUOUS
 62
   212
 48
0.75
100
AcDbVertex
100
AcDb2dVertex
 10
2.910523
 20
0.967332
 30
0.0
 40
0.0
 41
0.0
  0
VERTEX
  5
134
100
AcDbEntity
  8
1
  6
CONTINUOUS
 62
   212
 48
0.75
100
AcDbVertex
100
AcDb2dVertex
 10
2.910523
 20
0.903529
 30
0.0
 40
0.0
 41
0.0
  0
SEQEND
  5
135
100
AcDbEntity
  8
0
  0
POLYLINE
  5
136
100
AcDbEntity
  8
1
  6
CONTINUOUS
 62
   212
 48
0.75
100
AcDb2dPolyline
 66
     1
 10
0.0
 20
0.0
 30
0.0
 70
   128
  0
VERTEX
  5
137
100
AcDbEntity
  8
1
  6
CONTINUOUS
 62
   212
 48
0.75
100
AcDbVertex
100
AcDb2dVertex
 10
2.899923
 20
0.967332
 30
0.0
 40
0.0
 41
0.0
  0
VERTEX
  5
138
100
AcDbEntity
  8
1
  6
CONTINUOUS
 62
   212
 48
0.75
100
AcDbVertex
100
AcDb2dVertex
 10
2.899923
 20
0.899848
 30
0.0
 40
0.0
 41
0.0
  0
SEQEND
  5
139
100
AcDbEntity
  8
0
  0
POLYLINE
  5
13A
100
AcDbEntity
  8
1
  6
CONTINUOUS
 62
   212
 48
0.75
100
AcDb2dPolyline
 66
     1
 10
0.0
 20
0.0
 30
0.0
 70
   128
  0
VERTEX
  5
13B
100
AcDbEntity
  8
1
  6
CONTINUOUS
 62
   212
 48
0.75
100
AcDbVertex
100
AcDb2dVertex
 10
2.893023
 20
0.967332
 30
0.0
 40
0.0
 41
0.0
  0
VERTEX
  5
13C
100
AcDbEntity
  8
1
  6
CONTINUOUS
 62
   212
 48
0.75
100
AcDbVertex
100
AcDb2dVertex
 10
2.893023
 20
0.897547
 30
0.0
 40
0.0
 41
0.0
  0
SEQEND
  5
13D
100
AcDbEntity
  8
0
  0
POLYLINE
  5
13E
100
AcDbEntity
  8
1
  6
CONTINUOUS
 62
   212
 48
0.75
100
AcDb2dPolyline
 66
     1
 10
0.0
 20
0.0
 30
0.0
 70
   128
  0
VERTEX
  5
13F
100
AcDbEntity
  8
1
  6
CONTINUOUS
 62
   212
 48
0.75
100
AcDbVertex
100
AcDb2dVertex
 10
2.884223
 20
0.967332
 30
0.0
 40
0.0
 41
0.0
  0
VERTEX
  5
140
100
AcDbEntity
  8
1
  6
CONTINUOUS
 62
   212
 48
0.75
100
AcDbVertex
100
AcDb2dVertex
 10
2.884223
 20
0.89494
 30
0.0
 40
0.0
 41
0.0
  0
SEQEND
  5
141
100
AcDbEntity
  8
0
  0
POLYLINE
  5
142
100
AcDbEntity
  8
1
  6
CONTINUOUS
 62
   212
 48
0.75
100
AcDb2dPolyline
 66
     1
 10
0.0
 20
0.0
 30
0.0
 70
   128
  0
VERTEX
  5
143
100
AcDbEntity
  8
1
  6
CONTINUOUS
 62
   212
 48
0.75
100
AcDbVertex
100
AcDb2dVertex
 10
2.875123
 20
0.967332
 30
0.0
 40
0.0
 41
0.0
  0
VERTEX
  5
144
100
AcDbEntity
  8
1
  6
CONTINUOUS
 62
   212
 48
0.75
100
AcDbVertex
100
AcDb2dVertex
 10
2.875123
 20
0.892332
 30
0.0
 40
0.0
 41
0.0
  0
SEQEND
  5
145
100
AcDbEntity
  8
0
  0
POLYLINE
  5
146
100
AcDbEntity
  8
1
  6
CONTINUOUS
 62
   212
 48
0.75
100
AcDb2dPolyline
 66
     1
 10
0.0
 20
0.0
 30
0.0
 70
   128
  0
VERTEX
  5
147
100
AcDbEntity
  8
1
  6
CONTINUOUS
 62
   212
 48
0.75
100
AcDbVertex
100
AcDb2dVertex
 10
2.869123
 20
0.967332
 30
0.0
 40
0.0
 41
0.0
  0
VERTEX
  5
148
100
AcDbEntity
  8
1
  6
CONTINUOUS
 62
   212
 48
0.75
100
AcDbVertex
100
AcDb2dVertex
 10
2.869123
 20
0.890799
 30
0.0
 40
0.0
 41
0.0
  0
SEQEND
  5
149
100
AcDbEntity
  8
0
  0
POLYLINE
  5
14A
100
AcDbEntity
  8
1
  6
CONTINUOUS
 62
   212
 48
0.75
100
AcDb2dPolyline
 66
     1
 10
0.0
 20
0.0
 30
0.0
 70
   128
  0
VERTEX
  5
14B
100
AcDbEntity
  8
1
  6
CONTINUOUS
 62
   212
 48
0.75
100
AcDbVertex
100
AcDb2dVertex
 10
2.861223
 20
0.967332
 30
0.0
 40
0.0
 41
0.0
  0
VERTEX
  5
14C
100
AcDbEntity
  8
1
  6
CONTINUOUS
 62
   212
 48
0.75
100
AcDbVertex
100
AcDb2dVertex
 10
2.861223
 20
0.888805
 30
0.0
 40
0.0
 41
0.0
  0
SEQEND
  5
14D
100
AcDbEntity
  8
0
  0
POLYLINE
  5
14E
100
AcDbEntity
  8
1
  6
CONTINUOUS
 62
   212
 48
0.75
100
AcDb2dPolyline
 66
     1
 10
0.0
 20
0.0
 30
0.0
 70
   128
  0
VERTEX
  5
14F
100
AcDbEntity
  8
1
  6
CONTINUOUS
 62
   212
 48
0.75
100
AcDbVertex
100
AcDb2dVertex
 10
2.853123
 20
0.967332
 30
0.0
 40
0.0
 41
0.0
  0
VERTEX
  5
150
100
AcDbEntity
  8
1
  6
CONTINUOUS
 62
   212
 48
0.75
100
AcDbVertex
100
AcDb2dVertex
 10
2.853123
 20
0.886964
 30
0.0
 40
0.0
 41
0.0
  0
SEQEND
  5
151
100
AcDbEntity
  8
0
  0
POLYLINE
  5
152
100
AcDbEntity
  8
1
  6
CONTINUOUS
 62
   212
 48
0.75
100
AcDb2dPolyline
 66
     1
 10
0.0
 20
0.0
 30
0.0
 70
   128
  0
VERTEX
  5
153
100
AcDbEntity
  8
1
  6
CONTINUOUS
 62
   212
 48
0.75
100
AcDbVertex
100
AcDb2dVertex
 10
2.845923
 20
0.967332
 30
0.0
 40
0.0
 41
0.0
  0
VERTEX
  5
154
100
AcDbEntity
  8
1
  6
CONTINUOUS
 62
   212
 48
0.75
100
AcDbVertex
100
AcDb2dVertex
 10
2.845923
 20
0.885431
 30
0.0
 40
0.0
 41
0.0
  0
SEQEND
  5
155
100
AcDbEntity
  8
0
  0
POLYLINE
  5
156
100
AcDbEntity
  8
1
  6
CONTINUOUS
 62
   212
 48
0.75
100
AcDb2dPolyline
 66
     1
 10
0.0
 20
0.0
 30
0.0
 70
   128
  0
VERTEX
  5
157
100
AcDbEntity
  8
1
  6
CONTINUOUS
 62
   212
 48
0.75
100
AcDbVertex
100
AcDb2dVertex
 10
2.835823
 20
0.967332
 30
0.0
 40
0.0
 41
0.0
  0
VERTEX
  5
158
100
AcDbEntity
  8
1
  6
CONTINUOUS
 62
   212
 48
0.75
100
AcDbVertex
100
AcDb2dVertex
 10
2.835823
 20
0.883283
 30
0.0
 40
0.0
 41
0.0
  0
SEQEND
  5
159
100
AcDbEntity
  8
0
  0
POLYLINE
  5
15A
100
AcDbEntity
  8
1
  6
CONTINUOUS
 62
   212
 48
0.75
100
AcDb2dPolyline
 66
     1
 10
0.0
 20
0.0
 30
0.0
 70
   128
  0
VERTEX
  5
15B
100
AcDbEntity
  8
1
  6
CONTINUOUS
 62
   212
 48
0.75
100
AcDbVertex
100
AcDb2dVertex
 10
2.822123
 20
0.967332
 30
0.0
 40
0.0
 41
0.0
  0
VERTEX
  5
15C
100
AcDbEntity
  8
1
  6
CONTINUOUS
 62
   212
 48
0.75
100
AcDbVertex
100
AcDb2dVertex
 10
2.822123
 20
0.880676
 30
0.0
 40
0.0
 41
0.0
  0
SEQEND
  5
15D
100
AcDbEntity
  8
0
  0
POLYLINE
  5
15E
100
AcDbEntity
  8
1
  6
CONTINUOUS
 62
   212
 48
0.75
100
AcDb2dPolyline
 66
     1
 10
0.0
 20
0.0
 30
0.0
 70
   128
  0
VERTEX
  5
15F
100
AcDbEntity
  8
1
  6
CONTINUOUS
 62
   212
 48
0.75
100
AcDbVertex
100
AcDb2dVertex
 10
2.813523
 20
0.967332
 30
0.0
 40
0.0
 41
0.0
  0
VERTEX
  5
160
100
AcDbEntity
  8
1
  6
CONTINUOUS
 62
   212
 48
0.75
100
AcDbVertex
100
AcDb2dVertex
 10
2.813523
 20
0.879296
 30
0.0
 40
0.0
 41
0.0
  0
SEQEND
  5
161
100
AcDbEntity
  8
0
  0
POLYLINE
  5
162
100
AcDbEntity
  8
1
  6
CONTINUOUS
 62
   212
 48
0.75
100
AcDb2dPolyline
 66
     1
 10
0.0
 20
0.0
 30
0.0
 70
   128
  0
VERTEX
  5
163
100
AcDbEntity
  8
1
  6
CONTINUOUS
 62
   212
 48
0.75
100
AcDbVertex
100
AcDb2dVertex
 10
2.806023
 20
0.967332
 30
0.0
 40
0.0
 41
0.0
  0
VERTEX
  5
164
100
AcDbEntity
  8
1
  6
CONTINUOUS
 62
   212
 48
0.75
100
AcDbVertex
100
AcDb2dVertex
 10
2.806023
 20
0.878069
 30
0.0
 40
0.0
 41
0.0
  0
SEQEND
  5
165
100
AcDbEntity
  8
0
  0
POLYLINE
  5
166
100
AcDbEntity
  8
1
  6
CONTINUOUS
 62
   212
 48
0.75
100
AcDb2dPolyline
 66
     1
 10
0.0
 20
0.0
 30
0.0
 70
   128
  0
VERTEX
  5
167
100
AcDbEntity
  8
1
  6
CONTINUOUS
 62
   212
 48
0.75
100
AcDbVertex
100
AcDb2dVertex
 10
2.799623
 20
0.967332
 30
0.0
 40
0.0
 41
0.0
  0
VERTEX
  5
168
100
AcDbEntity
  8
1
  6
CONTINUOUS
 62
   212
 48
0.75
100
AcDbVertex
100
AcDb2dVertex
 10
2.799623
 20
0.876995
 30
0.0
 40
0.0
 41
0.0
  0
SEQEND
  5
169
100
AcDbEntity
  8
0
  0
POLYLINE
  5
16A
100
AcDbEntity
  8
1
  6
CONTINUOUS
 62
   212
 48
0.75
100
AcDb2dPolyline
 66
     1
 10
0.0
 20
0.0
 30
0.0
 70
   128
  0
VERTEX
  5
16B
100
AcDbEntity
  8
1
  6
CONTINUOUS
 62
   212
 48
0.75
100
AcDbVertex
100
AcDb2dVertex
 10
2.793523
 20
0.967332
 30
0.0
 40
0.0
 41
0.0
  0
VERTEX
  5
16C
100
AcDbEntity
  8
1
  6
CONTINUOUS
 62
   212
 48
0.75
100
AcDbVertex
100
AcDb2dVertex
 10
2.793523
 20
0.876075
 30
0.0
 40
0.0
 41
0.0
  0
SEQEND
  5
16D
100
AcDbEntity
  8
0
  0
POLYLINE
  5
16E
100
AcDbEntity
  8
1
  6
CONTINUOUS
 62
   212
 48
0.75
100
AcDb2dPolyline
 66
     1
 10
0.0
 20
0.0
 30
0.0
 70
   128
  0
VERTEX
  5
16F
100
AcDbEntity
  8
1
  6
CONTINUOUS
 62
   212
 48
0.75
100
AcDbVertex
100
AcDb2dVertex
 10
2.785123
 20
0.967332
 30
0.0
 40
0.0
 41
0.0
  0
VERTEX
  5
170
100
AcDbEntity
  8
1
  6
CONTINUOUS
 62
   212
 48
0.75
100
AcDbVertex
100
AcDb2dVertex
 10
2.785123
 20
0.875001
 30
0.0
 40
0.0
 41
0.0
  0
SEQEND
  5
171
100
AcDbEntity
  8
0
  0
POLYLINE
  5
172
100
AcDbEntity
  8
1
  6
CONTINUOUS
 62
   212
 48
0.75
100
AcDb2dPolyline
 66
     1
 10
0.0
 20
0.0
 30
0.0
 70
   128
  0
VERTEX
  5
173
100
AcDbEntity
  8
1
  6
CONTINUOUS
 62
   212
 48
0.75
100
AcDbVertex
100
AcDb2dVertex
 10
2.767223
 20
0.967332
 30
0.0
 40
0.0
 41
0.0
  0
VERTEX
  5
174
100
AcDbEntity
  8
1
  6
CONTINUOUS
 62
   212
 48
0.75
100
AcDbVertex
100
AcDb2dVertex
 10
2.767223
 20
0.872854
 30
0.0
 40
0.0
 41
0.0
  0
SEQEND
  5
175
100
AcDbEntity
  8
0
  0
POLYLINE
  5
176
100
AcDbEntity
  8
1
  6
CONTINUOUS
 62
   212
 48
0.75
100
AcDb2dPolyline
 66
     1
 10
0.0
 20
0.0
 30
0.0
 70
   128
  0
VERTEX
  5
177
100
AcDbEntity
  8
1
  6
CONTINUOUS
 62
   212
 48
0.75
100
AcDbVertex
100
AcDb2dVertex
 10
2.753523
 20
0.967332
 30
0.0
 40
0.0
 41
0.0
  0
VERTEX
  5
178
100
AcDbEntity
  8
1
  6
CONTINUOUS
 62
   212
 48
0.75
100
AcDbVertex
100
AcDb2dVertex
 10
2.753523
 20
0.87132
 30
0.0
 40
0.0
 41
0.0
  0
SEQEND
  5
179
100
AcDbEntity
  8
0
  0
POLYLINE
  5
17A
100
AcDbEntity
  8
1
  6
CONTINUOUS
 62
   212
 48
0.75
100
AcDb2dPolyline
 66
     1
 10
0.0
 20
0.0
 30
0.0
 70
   128
  0
VERTEX
  5
17B
100
AcDbEntity
  8
1
  6
CONTINUOUS
 62
   212
 48
0.75
100
AcDbVertex
100
AcDb2dVertex
 10
2.732923
 20
0.967332
 30
0.0
 40
0.0
 41
0.0
  0
VERTEX
  5
17C
100
AcDbEntity
  8
1
  6
CONTINUOUS
 62
   212
 48
0.75
100
AcDbVertex
100
AcDb2dVertex
 10
2.732923
 20
0.869633
 30
0.0
 40
0.0
 41
0.0
  0
SEQEND
  5
17D
100
AcDbEntity
  8
0
  0
POLYLINE
  5
17E
100
AcDbEntity
  8
1
  6
CONTINUOUS
 62
   212
 48
0.75
100
AcDb2dPolyline
 66
     1
 10
0.0
 20
0.0
 30
0.0
 70
   128
  0
VERTEX
  5
17F
100
AcDbEntity
  8
1
  6
CONTINUOUS
 62
   212
 48
0.75
100
AcDbVertex
100
AcDb2dVertex
 10
2.714323
 20
0.967332
 30
0.0
 40
0.0
 41
0.0
  0
VERTEX
  5
180
100
AcDbEntity
  8
1
  6
CONTINUOUS
 62
   212
 48
0.75
100
AcDbVertex
100
AcDb2dVertex
 10
2.714323
 20
0.868406
 30
0.0
 40
0.0
 41
0.0
  0
SEQEND
  5
181
100
AcDbEntity
  8
0
  0
POLYLINE
  5
182
100
AcDbEntity
  8
1
  6
CONTINUOUS
 62
   212
 48
0.75
100
AcDb2dPolyline
 66
     1
 10
0.0
 20
0.0
 30
0.0
 70
   128
  0
VERTEX
  5
183
100
AcDbEntity
  8
1
  6
CONTINUOUS
 62
   212
 48
0.75
100
AcDbVertex
100
AcDb2dVertex
 10
2.684623
 20
0.967332
 30
0.0
 40
0.0
 41
0.0
  0
VERTEX
  5
184
100
AcDbEntity
  8
1
  6
CONTINUOUS
 62
   212
 48
0.75
100
AcDbVertex
100
AcDb2dVertex
 10
2.684623
 20
0.867332
 30
0.0
 40
0.0
 41
0.0
  0
SEQEND
  5
185
100
AcDbEntity
  8
0
  0
POLYLINE
  5
186
100
AcDbEntity
  8
1
  6
CONTINUOUS
 62
   212
 48
0.75
100
AcDb2dPolyline
 66
     1
 10
0.0
 20
0.0
 30
0.0
 70
   128
  0
VERTEX
  5
187
100
AcDbEntity
  8
1
  6
CONTINUOUS
 62
   212
 48
0.75
100
AcDbVertex
100
AcDb2dVertex
 10
2.626223
 20
0.967332
 30
0.0
 40
0.0
 41
0.0
  0
VERTEX
  5
188
100
AcDbEntity
  8
1
  6
CONTINUOUS
 62
   212
 48
0.75
100
AcDbVertex
100
AcDb2dVertex
 10
2.626223
 20
0.867639
 30
0.0
 40
0.0
 41
0.0
  0
SEQEND
  5
189
100
AcDbEntity
  8
0
  0
POLYLINE
  5
18A
100
AcDbEntity
  8
1
  6
CONTINUOUS
 62
   212
 48
0.75
100
AcDb2dPolyline
 66
     1
 10
0.0
 20
0.0
 30
0.0
 70
   128
  0
VERTEX
  5
18B
100
AcDbEntity
  8
1
  6
CONTINUOUS
 62
   212
 48
0.75
100
AcDbVertex
100
AcDb2dVertex
 10
2.571823
 20
0.967332
 30
0.0
 40
0.0
 41
0.0
  0
VERTEX
  5
18C
100
AcDbEntity
  8
1
  6
CONTINUOUS
 62
   212
 48
0.75
100
AcDbVertex
100
AcDb2dVertex
 10
2.571823
 20
0.870246
 30
0.0
 40
0.0
 41
0.0
  0
SEQEND
  5
18D
100
AcDbEntity
  8
0
  0
POLYLINE
  5
18E
100
AcDbEntity
  8
1
  6
CONTINUOUS
 62
   212
 48
0.75
100
AcDb2dPolyline
 66
     1
 10
0.0
 20
0.0
 30
0.0
 70
   128
  0
VERTEX
  5
18F
100
AcDbEntity
  8
1
  6
CONTINUOUS
 62
   212
 48
0.75
100
AcDbVertex
100
AcDb2dVertex
 10
2.498723
 20
0.967332
 30
0.0
 40
0.0
 41
0.0
  0
VERTEX
  5
190
100
AcDbEntity
  8
1
  6
CONTINUOUS
 62
   212
 48
0.75
100
AcDbVertex
100
AcDb2dVertex
 10
2.498723
 20
0.876075
 30
0.0
 40
0.0
 41
0.0
  0
SEQEND
  5
191
100
AcDbEntity
  8
0
  0
POLYLINE
  5
192
100
AcDbEntity
  8
1
  6
CONTINUOUS
 62
   212
 48
0.75
100
AcDb2dPolyline
 66
     1
 10
0.0
 20
0.0
 30
0.0
 70
   128
  0
VERTEX
  5
193
100
AcDbEntity
  8
1
  6
CONTINUOUS
 62
   212
 48
0.75
100
AcDbVertex
100
AcDb2dVertex
 10
2.440023
 20
0.967332
 30
0.0
 40
0.0
 41
0.0
  0
VERTEX
  5
194
100
AcDbEntity
  8
1
  6
CONTINUOUS
 62
   212
 48
0.75
100
AcDbVertex
100
AcDb2dVertex
 10
2.440023
 20
0.882363
 30
0.0
 40
0.0
 41
0.0
  0
SEQEND
  5
195
100
AcDbEntity
  8
0
  0
POLYLINE
  5
196
100
AcDbEntity
  8
1
  6
CONTINUOUS
 62
   212
 48
0.75
100
AcDb2dPolyline
 66
     1
 10
0.0
 20
0.0
 30
0.0
 70
   128
  0
VERTEX
  5
197
100
AcDbEntity
  8
1
  6
CONTINUOUS
 62
   212
 48
0.75
100
AcDbVertex
100
AcDb2dVertex
 10
2.385323
 20
0.967332
 30
0.0
 40
0.0
 41
0.0
  0
VERTEX
  5
198
100
AcDbEntity
  8
1
  6
CONTINUOUS
 62
   212
 48
0.75
100
AcDbVertex
100
AcDb2dVertex
 10
2.385323
 20
0.889111
 30
0.0
 40
0.0
 41
0.0
  0
SEQEND
  5
199
100
AcDbEntity
  8
0
  0
POLYLINE
  5
19A
100
AcDbEntity
  8
1
  6
CONTINUOUS
 62
   212
 48
0.75
100
AcDb2dPolyline
 66
     1
 10
0.0
 20
0.0
 30
0.0
 70
   128
  0
VERTEX
  5
19B
100
AcDbEntity
  8
1
  6
CONTINUOUS
 62
   212
 48
0.75
100
AcDbVertex
100
AcDb2dVertex
 10
2.342023
 20
0.967332
 30
0.0
 40
0.0
 41
0.0
  0
VERTEX
  5
19C
100
AcDbEntity
  8
1
  6
CONTINUOUS
 62
   212
 48
0.75
100
AcDbVertex
100
AcDb2dVertex
 10
2.342023
 20
0.895093
 30
0.0
 40
0.0
 41
0.0
  0
SEQEND
  5
19D
100
AcDbEntity
  8
0
  0
POLYLINE
  5
19E
100
AcDbEntity
  8
1
  6
CONTINUOUS
 62
   212
 48
0.75
100
AcDb2dPolyline
 66
     1
 10
0.0
 20
0.0
 30
0.0
 70
   128
  0
VERTEX
  5
19F
100
AcDbEntity
  8
1
  6
CONTINUOUS
 62
   212
 48
0.75
100
AcDbVertex
100
AcDb2dVertex
 10
2.290023
 20
0.967332
 30
0.0
 40
0.0
 41
0.0
  0
VERTEX
  5
1A0
100
AcDbEntity
  8
1
  6
CONTINUOUS
 62
   212
 48
0.75
100
AcDbVertex
100
AcDb2dVertex
 10
2.290023
 20
0.902915
 30
0.0
 40
0.0
 41
0.0
  0
SEQEND
  5
1A1
100
AcDbEntity
  8
0
  0
POLYLINE
  5
1A2
100
AcDbEntity
  8
1
  6
CONTINUOUS
 62
   212
 48
0.75
100
AcDb2dPolyline
 66
     1
 10
0.0
 20
0.0
 30
0.0
 70
   128
  0
VERTEX
  5
1A3
100
AcDbEntity
  8
1
  6
CONTINUOUS
 62
   212
 48
0.75
100
AcDbVertex
100
AcDb2dVertex
 10
2.236323
 20
0.967332
 30
0.0
 40
0.0
 41
0.0
  0
VERTEX
  5
1A4
100
AcDbEntity
  8
1
  6
CONTINUOUS
 62
   212
 48
0.75
100
AcDbVertex
100
AcDb2dVertex
 10
2.236323
 20
0.911658
 30
0.0
 40
0.0
 41
0.0
  0
SEQEND
  5
1A5
100
AcDbEntity
  8
0
  0
POLYLINE
  5
1A6
100
AcDbEntity
  8
1
  6
CONTINUOUS
 62
   212
 48
0.75
100
AcDb2dPolyline
 66
     1
 10
0.0
 20
0.0
 30
0.0
 70
   128
  0
VERTEX
  5
1A7
100
AcDbEntity
  8
1
  6
CONTINUOUS
 62
   212
 48
0.75
100
AcDbVertex
100
AcDb2dVertex
 10
2.200823
 20
0.967332
 30
0.0
 40
0.0
 41
0.0
  0
VERTEX
  5
1A8
100
AcDbEntity
  8
1
  6
CONTINUOUS
 62
   212
 48
0.75
100
AcDbVertex
100
AcDb2dVertex
 10
2.200823
 20
0.917946
 30
0.0
 40
0.0
 41
0.0
  0
SEQEND
  5
1A9
100
AcDbEntity
  8
0
  0
POLYLINE
  5
1AA
100
AcDbEntity
  8
1
  6
CONTINUOUS
 62
   212
 48
0.75
100
AcDb2dPolyline
 66
     1
 10
0.0
 20
0.0
 30
0.0
 70
   128
  0
VERTEX
  5
1AB
100
AcDbEntity
  8
1
  6
CONTINUOUS
 62
   212
 48
0.75
100
AcDbVertex
100
AcDb2dVertex
 10
2.159723
 20
0.967332
 30
0.0
 40
0.0
 41
0.0
  0
VERTEX
  5
1AC
100
AcDbEntity
  8
1
  6
CONTINUOUS
 62
   212
 48
0.75
100
AcDbVertex
100
AcDb2dVertex
 10
2.159723
 20
0.925921
 30
0.0
 40
0.0
 41
0.0
  0
SEQEND
  5
1AD
100
AcDbEntity
  8
0
  0
POLYLINE
  5
1AE
100
AcDbEntity
  8
1
  6
CONTINUOUS
 62
   212
 48
0.75
100
AcDb2dPolyline
 66
     1
 10
0.0
 20
0.0
 30
0.0
 70
   128
  0
VERTEX
  5
1AF
100
AcDbEntity
  8
1
  6
CONTINUOUS
 62
   212
 48
0.75
100
AcDbVertex
100
AcDb2dVertex
 10
2.111723
 20
0.967332
 30
0.0
 40
0.0
 41
0.0
  0
VERTEX
  5
1B0
100
AcDbEntity
  8
1
  6
CONTINUOUS
 62
   212
 48
0.75
100
AcDbVertex
100
AcDb2dVertex
 10
2.111723
 20
0.935584
 30
0.0
 40
0.0
 41
0.0
  0
SEQEND
  5
1B1
100
AcDbEntity
  8
0
  0
POLYLINE
  5
1B2
100
AcDbEntity
  8
1
  6
CONTINUOUS
 62
   212
 48
0.75
100
AcDb2dPolyline
 66
     1
 10
0.0
 20
0.0
 30
0.0
 70
   128
  0
VERTEX
  5
1B3
100
AcDbEntity
  8
1
  6
CONTINUOUS
 62
   212
 48
0.75
100
AcDbVertex
100
AcDb2dVertex
 10
2.080923
 20
0.967332
 30
0.0
 40
0.0
 41
0.0
  0
VERTEX
  5
1B4
100
AcDbEntity
  8
1
  6
CONTINUOUS
 62
   212
 48
0.75
100
AcDbVertex
100
AcDb2dVertex
 10
2.080923
 20
0.941872
 30
0.0
 40
0.0
 41
0.0
  0
SEQEND
  5
1B5
100
AcDbEntity
  8
0
  0
POLYLINE
  5
1B6
100
AcDbEntity
  8
1
  6
CONTINUOUS
 62
   212
 48
0.75
100
AcDb2dPolyline
 66
     1
 10
0.0
 20
0.0
 30
0.0
 70
   128
  0
VERTEX
  5
1B7
100
AcDbEntity
  8
1
  6
CONTINUOUS
 62
   212
 48
0.75
100
AcDbVertex
100
AcDb2dVertex
 10
2.060423
 20
0.967332
 30
0.0
 40
0.0
 41
0.0
  0
VERTEX
  5
1B8
100
AcDbEntity
  8
1
  6
CONTINUOUS
 62
   212
 48
0.75
100
AcDbVertex
100
AcDb2dVertex
 10
2.060423
 20
0.946167
 30
0.0
 40
0.0
 41
0.0
  0
SEQEND
  5
1B9
100
AcDbEntity
  8
0
  0
POLYLINE
  5
1BA
100
AcDbEntity
  8
1
  6
CONTINUOUS
 62
   212
 48
0.75
100
AcDb2dPolyline
 66
     1
 10
0.0
 20
0.0
 30
0.0
 70
   128
  0
VERTEX
  5
1BB
100
AcDbEntity
  8
1
  6
CONTINUOUS
 62
   212
 48
0.75
100
AcDbVertex
100
AcDb2dVertex
 10
2.045023
 20
0.967332
 30
0.0
 40
0.0
 41
0.0
  0
VERTEX
  5
1BC
100
AcDbEntity
  8
1
  6
CONTINUOUS
 62
   212
 48
0.75
100
AcDbVertex
100
AcDb2dVertex
 10
2.045023
 20
0.949388
 30
0.0
 40
0.0
 41
0.0
  0
SEQEND
  5
1BD
100
AcDbEntity
  8
0
  0
POLYLINE
  5
1BE
100
AcDbEntity
  8
1
  6
CONTINUOUS
 62
   212
 48
0.75
100
AcDb2dPolyline
 66
     1
 10
0.0
 20
0.0
 30
0.0
 70
   128
  0
VERTEX
  5
1BF
100
AcDbEntity
  8
1
  6
CONTINUOUS
 62
   212
 48
0.75
100
AcDbVertex
100
AcDb2dVertex
 10
2.026223
 20
0.967332
 30
0.0
 40
0.0
 41
0.0
  0
VERTEX
  5
1C0
100
AcDbEntity
  8
1
  6
CONTINUOUS
 62
   212
 48
0.75
100
AcDbVertex
100
AcDb2dVertex
 10
2.026223
 20
0.953835
 30
0.0
 40
0.0
 41
0.0
  0
SEQEND
  5
1C1
100
AcDbEntity
  8
0
  0
POLYLINE
  5
1C2
100
AcDbEntity
  8
1
  6
CONTINUOUS
 62
   212
 48
0.75
100
AcDb2dPolyline
 66
     1
 10
0.0
 20
0.0
 30
0.0
 70
   128
  0
VERTEX
  5
1C3
100
AcDbEntity
  8
1
  6
CONTINUOUS
 62
   212
 48
0.75
100
AcDbVertex
100
AcDb2dVertex
 10
2.010423
 20
0.967332
 30
0.0
 40
0.0
 41
0.0
  0
VERTEX
  5
1C4
100
AcDbEntity
  8
1
  6
CONTINUOUS
 62
   212
 48
0.75
100
AcDbVertex
100
AcDb2dVertex
 10
2.010423
 20
0.957516
 30
0.0
 40
0.0
 41
0.0
  0
SEQEND
  5
1C5
100
AcDbEntity
  8
0
  0
POLYLINE
  5
1C6
100
AcDbEntity
  8
1
  6
CONTINUOUS
 62
   212
 48
0.75
100
AcDb2dPolyline
 66
     1
 10
0.0
 20
0.0
 30
0.0
 70
   128
  0
VERTEX
  5
1C7
100
AcDbEntity
  8
1
  6
CONTINUOUS
 62
   212
 48
0.75
100
AcDbVertex
100
AcDb2dVertex
 10
2.006223
 20
0.967332
 30
0.0
 40
0.0
 41
0.0
  0
VERTEX
  5
1C8
100
AcDbEntity
  8
1
  6
CONTINUOUS
 62
   212
 48
0.75
100
AcDbVertex
100
AcDb2dVertex
 10
2.006223
 20
0.95859
 30
0.0
 40
0.0
 41
0.0
  0
SEQEND
  5
1C9
100
AcDbEntity
  8
0
  0
POLYLINE
  5
1CA
100
AcDbEntity
  8
1
  6
CONTINUOUS
 62
   212
 48
0.75
100
AcDb2dPolyline
 66
     1
 10
0.0
 20
0.0
 30
0.0
 70
   128
  0
VERTEX
  5
1CB
100
AcDbEntity
  8
1
  6
CONTINUOUS
 62
   212
 48
0.75
100
AcDbVertex
100
AcDb2dVertex
 10
2.000123
 20
0.967332
 30
0.0
 40
0.0
 41
0.0
  0
VERTEX
  5
1CC
100
AcDbEntity
  8
1
  6
CONTINUOUS
 62
   212
 48
0.75
100
AcDbVertex
100
AcDb2dVertex
 10
2.000123
 20
0.95997
 30
0.0
 40
0.0
 41
0.0
  0
SEQEND
  5
1CD
100
AcDbEntity
  8
0
  0
SPLINE
  5
1CE
100
AcDbEntity
  8
1
  6
CONTINUOUS
 62
   212
 48
0.75
100
AcDbSpline
210
0.0
220
0.0
230
1.0
 70
     0
 71
     3
 72
     0
 73
     0
 74
    57
 44
0.0
 11
2.997722534326237
 21
0.9673323547593379
 31
0.0
 11
2.9976455758635021
 21
0.9654122513077265
 31
0.0
 11
2.9971407508750243
 21
0.9617227412304376
 31
0.0
 11
2.9961225343262372
 21
0.9579765267293378
 31
0.0
 11
2.9949225343262369
 21
0.9550624163593379
 31
0.0
 11
2.9936225343262368
 21
0.9524550544493377
 31
0.0
 11
2.9921225343262372
 21
0.9503078152293375
 31
0.0
 11
2.9878296586558055
 21
0.9452863243917306
 31
0.0
 11
2.9858225343262372
 21
0.9432526006493377
 31
0.0
 11
2.9774225343262368
 21
0.9360440118393377
 31
0.0
 11
2.973922534326237
 21
0.9334366499293377
 31
0.0
 11
2.961322534326237
 21
0.9254611899693376
 31
0.0
 11
2.9544225343262371
 21
0.9216268342193378
 31
0.0
 11
2.9466225343262371
 21
0.9179458526993377
 31
0.0
 11
2.937522534326237
 21
0.9138047484893378
 31
0.0
 11
2.9298225343262372
 21
0.910737263889338
 31
0.0
 11
2.9207225343262371
 21
0.907363030829338
 31
0.0
 11
2.9105225343262369
 21
0.9035286750793375
 31
0.0
 11
2.8999225343262371
 21
0.8998476935593377
 31
0.0
 11
2.8930225343262372
 21
0.8975470801093376
 31
0.0
 11
2.8842225343262369
 21
0.8949397181993378
 31
0.0
 11
2.8751225343262372
 21
0.8923323562893378
 31
0.0
 11
2.869122534326237
 21
0.8907986139893377
 31
0.0
 11
2.8612225343262372
 21
0.8888047489993379
 31
0.0
 11
2.853122534326237
 21
0.8869642582393377
 31
0.0
 11
2.8459225343262369
 21
0.885430515939338
 31
0.0
 11
2.8358225343262369
 21
0.8832832767193378
 31
0.0
 11
2.8221225343262368
 21
0.8806759148093378
 31
0.0
 11
2.8135225343262369
 21
0.8792955467393379
 31
0.0
 11
2.8060225343262371
 21
0.8780685528993378
 31
0.0
 11
2.7996225343262369
 21
0.8769949332893378
 31
0.0
 11
2.7935225343262369
 21
0.8760746879093376
 31
0.0
 11
2.7851225343262369
 21
0.8750010682993378
 31
0.0
 11
2.7672225343262369
 21
0.8728538290793376
 31
0.0
 11
2.7535225343262368
 21
0.8713200867793377
 31
0.0
 11
2.7329225343262369
 21
0.8696329702493376
 31
0.0
 11
2.7143225343262372
 21
0.8684059764093378
 31
0.0
 11
2.6846225343262371
 21
0.867332356799338
 31
0.0
 11
2.6262225343262369
 21
0.8676391052593379
 31
0.0
 11
2.5718225343262371
 21
0.8702464671693379
 31
0.0
 11
2.4987225343262369
 21
0.8760746879093376
 31
0.0
 11
2.4400225343262369
 21
0.8823630313393379
 31
0.0
 11
2.385322534326237
 21
0.8891114974593378
 31
0.0
 11
2.3420225343262371
 21
0.895093092429338
 31
0.0
 11
2.290022534326237
 21
0.9029151781593378
 31
0.0
 11
2.236322534326237
 21
0.9116575092693379
 31
0.0
 11
2.2008225343262371
 21
0.9179458526993377
 31
0.0
 11
2.159722534326237
 21
0.9259213126593379
 31
0.0
 11
2.1117225343262369
 21
0.9355838891493379
 31
0.0
 11
2.0809225343262372
 21
0.9418722325793379
 31
0.0
 11
2.060422534326237
 21
0.9461667110193378
 31
0.0
 11
2.0450225343262369
 21
0.9493875698493378
 31
0.0
 11
2.0262225343262372
 21
0.9538354225193378
 31
0.0
 11
2.0104225343262372
 21
0.9575164040393379
 31
0.0
 11
2.0062225343262372
 21
0.9585900236493378
 31
0.0
 11
2.0001225343262372
 21
0.959970391719338
 31
0.0
 11
1.997722534326237
 21
0.9673323547593379
 31
0.0
  0
POLYLINE
  5
1CF
100
AcDbEntity
  8
1
  6
CONTINUOUS
 62
   212
 48
0.75
100
AcDb2dPolyline
 66
     1
 10
0.0
 20
0.0
 30
0.0
 70
   128
  0
VERTEX
  5
1D0
100
AcDbEntity
  8
1
  6
CONTINUOUS
 62
   212
 48
0.75
100
AcDbVertex
100
AcDb2dVertex
 10
2.997723
 20
0.967332
 30
0.0
 40
0.0
 41
0.0
  0
VERTEX
  5
1D1
100
AcDbEntity
  8
1
  6
CONTINUOUS
 62
   212
 48
0.75
100
AcDbVertex
100
AcDb2dVertex
 10
1.997723
 20
0.967332
 30
0.0
 40
0.0
 41
0.0
  0
SEQEND
  5
1D2
100
AcDbEntity
  8
0
  0
TEXT
  5
1D3
100
AcDbEntity
  8
0
 62
   212
 48
0.0
100
AcDbText
 10
2.278468
 20
0.948973
 30
0.0
 40
0.01
  1
Boyu = 1 
 72
     5
 11
2.334983
 21
0.948973
 31
0.0
210
0.0
220
0.0
230
1.0
100
AcDbText
  0
TEXT
  5
1D4
100
AcDbEntity
  8
0
 62
   212
 48
0.0
100
AcDbText
 10
2.278468
 20
0.928973
 30
0.0
 40
0.01
  1
Kalinlik = .2
 72
     5
 11
2.349396
 21
0.928973
 31
0.0
210
0.0
220
0.0
230
1.0
100
AcDbText
  0
TEXT
  5
1D5
100
AcDbEntity
  8
0
 62
   212
 48
0.0
100
AcDbText
 10
2.446908
 20
0.99691
 30
0.0
 40
0.03
  1
Çemberci Denizcilik
 72
     5
 11
2.744123
 21
0.99691
 31
0.0
210
0.0
220
0.0
230
1.0
100
AcDbText
  0
TEXT
  5
1D6
100
AcDbEntity
  8
0
 62
   212
 48
0.0
100
AcDbText
 10
2.448426
 20
0.916483
 30
0.0
 40
0.025
  1
CG Ultimate Profili
 72
     5
 11
2.70722
 21
0.916483
 31
0.0
210
0.0
220
0.0
230
1.0
100
AcDbText
  0
ENDSEC
  0
SECTION
  2
OBJECTS
  0
DICTIONARY
  5
19
100
AcDbDictionary
  3
ACAD_GROUP
350
1A
  3
ACAD_MLINESTYLE
350
1B
  0
DICTIONARY
  5
1A
102
{ACAD_REACTORS
330
19
102
}
100
AcDbDictionary
  0
DICTIONARY
  5
1B
102
{ACAD_REACTORS
330
19
102
}
100
AcDbDictionary
  3
STANDARD
350
1C
  0
MLINESTYLE
  5
1C
102
{ACAD_REACTORS
330
1B
102
}
100
AcDbMlineStyle
  2
STANDARD
 70
     0
  3

 62
     0
 51
90.0
 52
90.0
 71
     2
 49
0.5
 62
   256
  6
BYLAYER
 49
-0.5
 62
   256
  6
BYLAYER
  0
ENDSEC
  0
EOF
