  0
SECTION
  2
HEADER
  9
$ACADVER
  1
AC1014
  9
$ACADMAINTVER
 70
     0
  9
$DWGCODEPAGE
  3
ANSI_1252
  9
$INSBASE
 10
0.0
 20
0.0
 30
0.0
  9
$EXTMIN
 10
21.996718
 20
-2.199938
 30
0.0
  9
$EXTMAX
 10
121.996879
 20
17.802192
 30
0.0
  9
$LIMMIN
 10
0.0
 20
0.0
  9
$LIMMAX
 10
0.0
 20
0.0
  9
$ORTHOMODE
 70
     0
  9
$REGENMODE
 70
     1
  9
$FILLMODE
 70
     1
  9
$QTEXTMODE
 70
     0
  9
$MIRRTEXT
 70
     1
  9
$DRAGMODE
 70
     2
  9
$LTSCALE
 40
1.0
  9
$OSMODE
 70
     0
  9
$ATTMODE
 70
     1
  9
$TEXTSIZE
 40
0.2
  9
$TRACEWID
 40
0.05
  9
$TEXTSTYLE
  7
STANDARD
  9
$CLAYER
  8
0
  9
$CELTYPE
  6
CONTINUOUS
  9
$CECOLOR
 62
   256
  9
$CELTSCALE
 40
1.0
  9
$DELOBJ
 70
     1
  9
$DISPSILH
 70
     0
  9
$DIMSCALE
 40
1.0
  9
$DIMASZ
 40
0.18
  9
$DIMEXO
 40
0.0625
  9
$DIMDLI
 40
0.38
  9
$DIMRND
 40
0.0
  9
$DIMDLE
 40
0.0
  9
$DIMEXE
 40
0.18
  9
$DIMTP
 40
0.0
  9
$DIMTM
 40
0.0
  9
$DIMTXT
 40
0.18
  9
$DIMCEN
 40
0.09
  9
$DIMTSZ
 40
0.0
  9
$DIMTOL
 70
     0
  9
$DIMLIM
 70
     0
  9
$DIMTIH
 70
     1
  9
$DIMTOH
 70
     1
  9
$DIMSE1
 70
     0
  9
$DIMSE2
 70
     0
  9
$DIMTAD
 70
     0
  9
$DIMZIN
 70
     0
  9
$DIMBLK
  1

  9
$DIMASO
 70
     1
  9
$DIMSHO
 70
     1
  9
$DIMPOST
  1

  9
$DIMAPOST
  1

  9
$DIMALT
 70
     0
  9
$DIMALTD
 70
     2
  9
$DIMALTF
 40
25.4
  9
$DIMLFAC
 40
1.0
  9
$DIMTOFL
 70
     0
  9
$DIMTVP
 40
0.0
  9
$DIMTIX
 70
     0
  9
$DIMSOXD
 70
     0
  9
$DIMSAH
 70
     0
  9
$DIMBLK1
  1

  9
$DIMBLK2
  1

  9
$DIMSTYLE
  2
STANDARD
  9
$DIMCLRD
 70
     0
  9
$DIMCLRE
 70
     0
  9
$DIMCLRT
 70
     0
  9
$DIMTFAC
 40
1.0
  9
$DIMGAP
 40
0.09
  9
$DIMJUST
 70
     0
  9
$DIMSD1
 70
     0
  9
$DIMSD2
 70
     0
  9
$DIMTOLJ
 70
     1
  9
$DIMTZIN
 70
     0
  9
$DIMALTZ
 70
     0
  9
$DIMALTTZ
 70
     0
  9
$DIMFIT
 70
     3
  9
$DIMUPT
 70
     0
  9
$DIMUNIT
 70
     2
  9
$DIMDEC
 70
     4
  9
$DIMTDEC
 70
     4
  9
$DIMALTU
 70
     2
  9
$DIMALTTD
 70
     2
  9
$DIMTXSTY
  7
STANDARD
  9
$DIMAUNIT
 70
     0
  9
$LUNITS
 70
     2
  9
$LUPREC
 70
     4
  9
$SKETCHINC
 40
0.1
  9
$FILLETRAD
 40
0.0
  9
$AUNITS
 70
     0
  9
$AUPREC
 70
     0
  9
$MENU
  1
acad
  9
$ELEVATION
 40
0.0
  9
$PELEVATION
 40
0.0
  9
$THICKNESS
 40
0.0
  9
$LIMCHECK
 70
     0
  9
$BLIPMODE
 70
     1
  9
$CHAMFERA
 40
0.0
  9
$CHAMFERB
 40
0.0
  9
$CHAMFERC
 40
0.0
  9
$CHAMFERD
 40
0.0
  9
$SKPOLY
 70
     0
  9
$TDCREATE
 40
0.000000000
  9
$TDUPDATE
 40
0.000000000
  9
$TDINDWG
 40
0.0000000000
  9
$TDUSRTIMER
 40
0.0000000000
  9
$USRTIMER
 70
     1
  9
$ANGBASE
 50
0.0
  9
$ANGDIR
 70
     0
  9
$PDMODE
 70
     0
  9
$PDSIZE
 40
0.0
  9
$PLINEWID
 40
0.0
  9
$COORDS
 70
     0
  9
$SPLFRAME
 70
     0
  9
$SPLINETYPE
 70
     6
  9
$SPLINESEGS
 70
     8
  9
$ATTDIA
 70
     0
  9
$ATTREQ
 70
     1
  9
$HANDLING
 70
     1
  9
$HANDSEED
  5
231
  9
$SURFTAB1
 70
     6
  9
$SURFTAB2
 70
     6
  9
$SURFTYPE
 70
     6
  9
$SURFU
 70
     6
  9
$SURFV
 70
     6
  9
$UCSNAME
  2

  9
$UCSORG
 10
0.0
 20
0.0
 30
0.0
  9
$UCSXDIR
 10
1.0
 20
0.0
 30
0.0
  9
$UCSYDIR
 10
0.0
 20
1.0
 30
0.0
  9
$PUCSNAME
  2

  9
$PUCSORG
 10
0.0
 20
0.0
 30
0.0
  9
$PUCSXDIR
 10
1.0
 20
0.0
 30
0.0
  9
$PUCSYDIR
 10
0.0
 20
1.0
 30
0.0
  9
$USERI1
 70
     0
  9
$USERI2
 70
     0
  9
$USERI3
 70
     0
  9
$USERI4
 70
     0
  9
$USERI5
 70
     0
  9
$USERR1
 40
0.0
  9
$USERR2
 40
0.0
  9
$USERR3
 40
0.0
  9
$USERR4
 40
0.0
  9
$USERR5
 40
0.0
  9
$WORLDVIEW
 70
     1
  9
$SHADEDGE
 70
     3
  9
$SHADEDIF
 70
    70
  9
$TILEMODE
 70
     1
  9
$MAXACTVP
 70
    16
  9
$PINSBASE
 10
0.0
 20
0.0
 30
0.0
  9
$PLIMCHECK
 70
     0
  9
$PEXTMIN
 10
1.000000E+20
 20
1.000000E+20
 30
1.000000E+20
  9
$PEXTMAX
 10
-1.000000E+20
 20
-1.000000E+20
 30
-1.000000E+20
  9
$PLIMMIN
 10
0.0
 20
0.0
  9
$PLIMMAX
 10
12.0
 20
9.0
  9
$UNITMODE
 70
     0
  9
$VISRETAIN
 70
     0
  9
$PLINEGEN
 70
     0
  9
$PSLTSCALE
 70
     0
  9
$TREEDEPTH
 70
  3020
  9
$PICKSTYLE
 70
     1
  9
$CMLSTYLE
  2
STANDARD
  9
$CMLJUST
 70
     0
  9
$CMLSCALE
 40
1.0
  9
$PROXYGRAPHICS
 70
     0
  9
$MEASUREMENT
 70
     0
  0
ENDSEC
  0
SECTION
  2
CLASSES
  0
CLASS
  1
LWPOLYLINE
  2
AcDbPolyline
  3
"AutoCAD"
 90
        0
280
     0
281
     1
  0
CLASS
  1
IMAGE
  2
AcDbRasterImage
  3
ISM
 90
      127
280
     0
281
     1
  0
CLASS
  1
OLE2FRAME
  2
AcDbOle2Frame
  3
""
 90
        0
280
     0
281
     1
  0
CLASS
  1
HATCH
  2
AcDbHatch
  3
"ACAD_SEDONA"
 90
        0
280
     0
281
     1
  0
CLASS
  1
DICTIONARYVAR
  2
AcDbDictionaryVar
  3
"AutoCAD"
 90
        0
280
     0
281
     0
  0
CLASS
  1
RASTERVARIABLES
  2
AcDbRasterVariables
  3
ISM
 90
        0
280
     0
281
     0
  0
CLASS
  1
IMAGEDEF
  2
AcDbRasterImageDef
  3
ISM
 90
        0
280
     0
281
     0
  0
CLASS
  1
IMAGEDEF_REACTOR
  2
AcDbRasterImageDefReactor
  3
ISM
 90
        1
280
     0
281
     0
  0
CLASS
  1
IDBUFFER
  2
AcDbIdBuffer
  3
"Acad"
 90
        0
280
     0
281
     0
  0
CLASS
  1
SPATIAL_FILTER
  2
AcDbSpatialFilter
  3
"Acad"
 90
        0
280
     0
281
     0
  0
CLASS
  1
XRECORD
  2
AcDbXrecord
  3
"<Built In>"
 90
        0
280
     0
281
     0
  0
CLASS
  1
SORTENTSTABLE
  2
AcDbSortentsTable
  3
"AutoCAD"
 90
        0
280
     0
281
     0
  0
CLASS
  1
LAYER_INDEX
  2
AcDbLayerIndex
  3
"Acad"
 90
        0
280
     0
281
     0
  0
CLASS
  1
SPATIAL_INDEX
  2
AcDbSpatialIndex
  3
"Acad"
 90
        0
280
     0
281
     0
  0
CLASS
  1
OBJECT_PTR
  2
CAseDLPNTableRecord
  3
"ASE-LPNTableRecord"
 90
        1
280
     0
281
     0
  0
CLASS
  1
LAYOUT
  2
AcDbLayout
  3
"AutoCAD 2000"
 90
        1
280
     0
281
     0
  0
CLASS
  1
PLOTSETTINGS
  2
AcDbPlotSettings
  3
"AutoCAD 2000"
 90
        1
280
     0
281
     0
  0
CLASS
  1
ACDBDICTIONARYWDFLT
  2
AcDbDictionaryWithDefault
  3
"AutoCAD 2000"
 90
        1
280
     0
281
     0
  0
CLASS
  1
ACDBPLACEHOLDER
  2
AcDbPlaceHolder
  3
"AutoCAD 2000"
 90
        1
280
     0
281
     0
  0
CLASS
  1
VBA_PROJECT
  2
AcDbVbaProject
  3
"acadvba"
 90
        1
280
     0
281
     0
  0
CLASS
  1
WIPEOUT
  2
AcDbWipeout
  3
WipeOut|AutoCAD Express Tool|expresstools@autodesk.com
 90
      127
280
     0
281
     1
  0
CLASS
  1
WIPEOUTVARIABLES
  2
AcDbWipeoutVariables
  3
WipeOut|AutoCAD Express Tool|expresstools@autodesk.com
 90
        0
280
     0
281
     0
  0
CLASS
  1
RTEXT
  2
RText
  3
RText|AutoCAD Express Tool|expresstools@autodesk.com
 90
        0
280
     0
281
     1
  0
CLASS
  1
ARCALIGNEDTEXT
  2
AcDbArcAlignedText
  3
ATEXT|AutoCAD Express Tool|expresstools@autodesk.com
 90
        0
280
     0
281
     1
  0
ENDSEC
  0
SECTION
  2
TABLES
  0
TABLE
  2
VPORT
  5
7
100
AcDbSymbolTable
 70
     2
  0
VPORT
  5
15
100
AcDbSymbolTableRecord
100
AcDbViewportTableRecord
  2
*ACTIVE
 70
     0
 10
0.0
 20
0.0
 11
1.0
 21
1.0
 12
6.591288
 22
4.579184
 13
0.0
 23
0.0
 14
1.0
 24
1.0
 15
0.0
 25
0.0
 16
0.0
 26
0.0
 36
1.0
 17
0.0
 27
0.0
 37
0.0
 40
9.158369
 41
0.688564
 42
50.0
 43
0.0
 44
0.0
 50
0.0
 51
0.0
 71
     0
 72
   100
 73
     1
 74
     1
 75
     0
 76
     0
 77
     0
 78
     0
  0
VPORT
  5
2C
100
AcDbSymbolTableRecord
100
AcDbViewportTableRecord
  2
DCADVPORT
 70
     0
 10
21.996718
 20
-2.199938
 11
121.996879
 21
17.802192
 12
6.21
 22
9.02
 13
0.0
 23
0.0
 14
1.0
 24
1.0
 15
0.0
 25
0.0
 16
0.0
 26
0.0
 36
1.0
 17
0.0
 27
0.0
 37
0.0
 40
18.04
 41
0.688564
 42
50.0
 43
1.0
 44
1.0
 50
0.0
 51
0.0
 71
     0
 72
   100
 73
     1
 74
     1
 75
     0
 76
     0
 77
     0
 78
     0
  0
ENDTAB
  0
TABLE
  2
LTYPE
  5
4
100
AcDbSymbolTable
 70
    15
  0
LTYPE
  5
11
100
AcDbSymbolTableRecord
100
AcDbLinetypeTableRecord
  2
BYBLOCK
 70
    64
  3

 72
    65
 73
     0
 40
0.0
  0
LTYPE
  5
12
100
AcDbSymbolTableRecord
100
AcDbLinetypeTableRecord
  2
BYLAYER
 70
    64
  3

 72
    65
 73
     0
 40
0.0
  0
LTYPE
  5
13
100
AcDbSymbolTableRecord
100
AcDbLinetypeTableRecord
  2
CONTINUOUS
 70
    64
  3
Solid line
 72
    65
 73
     0
 40
0.0
  0
LTYPE
  5
1E
100
AcDbSymbolTableRecord
100
AcDbLinetypeTableRecord
  2
CONTINUOUS
 70
     0
  3
Solid line
 72
    65
 73
     0
 40
0.0
  0
LTYPE
  5
1F
100
AcDbSymbolTableRecord
100
AcDbLinetypeTableRecord
  2
BORDER
 70
    64
  3
__ __ . __ __ . __ __ . __ __ . __ __ . __ __ .
 72
    65
 73
     6
 40
1.75
 49
0.5
 74
     0
 49
-0.25
 74
     0
 49
0.5
 74
     0
 49
-0.25
 74
     0
 49
0.0
 74
     0
 49
-0.25
 74
     0
  0
LTYPE
  5
20
100
AcDbSymbolTableRecord
100
AcDbLinetypeTableRecord
  2
BORDER2
 70
    64
  3
__.__.__.__.__.__.__.__.__.__.__.__.__.__.__.__
 72
    65
 73
     6
 40
0.875
 49
0.25
 74
     0
 49
-0.125
 74
     0
 49
0.25
 74
     0
 49
-0.125
 74
     0
 49
0.0
 74
     0
 49
-0.125
 74
     0
  0
LTYPE
  5
21
100
AcDbSymbolTableRecord
100
AcDbLinetypeTableRecord
  2
CENTER
 70
    64
  3
____ _ ____ _ ____ _ ____ _ ____ _ ____ _ ____ 
 72
    65
 73
     4
 40
2.0
 49
1.25
 74
     0
 49
-0.25
 74
     0
 49
0.25
 74
     0
 49
-0.25
 74
     0
  0
LTYPE
  5
22
100
AcDbSymbolTableRecord
100
AcDbLinetypeTableRecord
  2
DASHDOT
 70
    64
  3
__ . __ . __ . __ . __ . __ . __ . __ . __ . __
 72
    65
 73
     4
 40
1.0
 49
0.5
 74
     0
 49
-0.25
 74
     0
 49
0.0
 74
     0
 49
-0.25
 74
     0
  0
LTYPE
  5
23
100
AcDbSymbolTableRecord
100
AcDbLinetypeTableRecord
  2
DASHDOT2
 70
    64
  3
_._._._._._._._._._._._._._._._._._._._._._._._
 72
    65
 73
     4
 40
0.5
 49
0.25
 74
     0
 49
-0.125
 74
     0
 49
0.0
 74
     0
 49
-0.125
 74
     0
  0
LTYPE
  5
24
100
AcDbSymbolTableRecord
100
AcDbLinetypeTableRecord
  2
DASHED
 70
    64
  3
__ __ __ __ __ __ __ __ __ __ __ __ __ __ __ __
 72
    65
 73
     2
 40
0.75
 49
0.5
 74
     0
 49
-0.25
 74
     0
  0
LTYPE
  5
25
100
AcDbSymbolTableRecord
100
AcDbLinetypeTableRecord
  2
DIVIDE
 70
    64
  3
____ . . ____ . . ____ . . ____ . . ____ . . __
 72
    65
 73
     6
 40
1.25
 49
0.5
 74
     0
 49
-0.25
 74
     0
 49
0.0
 74
     0
 49
-0.25
 74
     0
 49
0.0
 74
     0
 49
-0.25
 74
     0
  0
LTYPE
  5
26
100
AcDbSymbolTableRecord
100
AcDbLinetypeTableRecord
  2
DIVIDE2
 70
    64
  3
__..__..__..__..__..__..__..__..__..__..__..__.
 72
    65
 73
     6
 40
0.625
 49
0.25
 74
     0
 49
-0.125
 74
     0
 49
0.0
 74
     0
 49
-0.125
 74
     0
 49
0.0
 74
     0
 49
-0.125
 74
     0
  0
LTYPE
  5
27
100
AcDbSymbolTableRecord
100
AcDbLinetypeTableRecord
  2
DOT
 70
    64
  3
. . . . . . . . . . . . . . . . . . . . . . . .
 72
    65
 73
     2
 40
0.25
 49
0.0
 74
     0
 49
-0.25
 74
     0
  0
LTYPE
  5
28
100
AcDbSymbolTableRecord
100
AcDbLinetypeTableRecord
  2
HIDDEN
 70
    64
  3
__ __ __ __ __ __ __ __ __ __ __ __ __ __ __ __
 72
    65
 73
     2
 40
0.375
 49
0.25
 74
     0
 49
-0.125
 74
     0
  0
LTYPE
  5
29
100
AcDbSymbolTableRecord
100
AcDbLinetypeTableRecord
  2
PHANTOM
 70
    64
  3
______  __  __  ______  __  __  ______  __  __ 
 72
    65
 73
     6
 40
2.5
 49
1.25
 74
     0
 49
-0.25
 74
     0
 49
0.25
 74
     0
 49
-0.25
 74
     0
 49
0.25
 74
     0
 49
-0.25
 74
     0
  0
ENDTAB
  0
TABLE
  2
LAYER
  5
2
100
AcDbSymbolTable
 70
     3
  0
LAYER
  5
14
100
AcDbSymbolTableRecord
100
AcDbLayerTableRecord
  2
0
 70
     0
 62
     7
  6
CONTINUOUS
  0
LAYER
  5
2A
100
AcDbSymbolTableRecord
100
AcDbLayerTableRecord
  2
0
 70
     0
 62
     7
  6
CONTINUOUS
  0
LAYER
  5
2B
100
AcDbSymbolTableRecord
100
AcDbLayerTableRecord
  2
1
 70
     0
 62
     7
  6
CONTINUOUS
  0
ENDTAB
  0
TABLE
  2
STYLE
  5
3
100
AcDbSymbolTable
 70
     2
  0
STYLE
  5
17
100
AcDbSymbolTableRecord
100
AcDbTextStyleTableRecord
  2
STANDARD
 70
     0
 40
0.0
 41
1.0
 50
0.0
 71
     0
 42
0.0
  3
txt
  4

  0
STYLE
  5
1D
100
AcDbSymbolTableRecord
100
AcDbTextStyleTableRecord
  2
BIGFONT
 70
    64
 40
3.0
 41
1.0
 50
0.0
 71
     0
 42
0.2
  3

  4
BIGFONT
  0
ENDTAB
  0
TABLE
  2
VIEW
  5
5
100
AcDbSymbolTable
 70
     0
  0
ENDTAB
  0
TABLE
  2
UCS
  5
6
100
AcDbSymbolTable
 70
     0
  0
ENDTAB
  0
TABLE
  2
APPID
  5
8
100
AcDbSymbolTable
 70
     1
  0
APPID
  5
16
100
AcDbSymbolTableRecord
100
AcDbRegAppTableRecord
  2
ACAD
 70
     0
  0
ENDTAB
  0
TABLE
  2
DIMSTYLE
  5
9
100
AcDbSymbolTable
 70
     1
  0
DIMSTYLE
105
18
100
AcDbSymbolTableRecord
100
AcDbDimStyleTableRecord
  2
STANDARD
 70
     0
  3

  4

  5

  6

  7

 40
1.0
 41
0.18
 42
0.0625
 43
0.38
 44
0.18
 45
0.0
 46
0.0
 47
0.0
 48
0.0
 71
     0
 72
     0
 73
     1
 74
     1
 75
     0
 76
     0
 77
     0
 78
     0
140
0.18
141
0.09
142
0.0
143
25.4
144
1.0
145
0.0
146
1.0
147
0.09
170
     0
171
     2
172
     0
173
     0
174
     0
175
     0
176
     0
177
     0
178
     0
270
     2
271
     4
272
     4
273
     2
274
     2
275
     0
280
     0
281
     0
282
     0
283
     1
284
     0
285
     0
286
     0
287
     0
288
     0
340
17
  0
ENDTAB
  0
TABLE
  2
BLOCK_RECORD
  5
1
100
AcDbSymbolTable
 70
     0
  0
BLOCK_RECORD
  5
A
100
AcDbSymbolTableRecord
100
AcDbBlockTableRecord
  2
*MODEL_SPACE
  0
BLOCK_RECORD
  5
B
100
AcDbSymbolTableRecord
100
AcDbBlockTableRecord
  2
*PAPER_SPACE
  0
ENDTAB
  0
ENDSEC
  0
SECTION
  2
BLOCKS
  0
BLOCK
  5
D
100
AcDbEntity
  8
0
100
AcDbBlockBegin
  2
*MODEL_SPACE
 70
     0
 10
0.0
 20
0.0
 30
0.0
  3
*MODEL_SPACE
  1

  0
ENDBLK
  5
E
100
AcDbEntity
  8
0
100
AcDbBlockEnd
  0
BLOCK
  5
F
100
AcDbEntity
 67
     1
  8
0
100
AcDbBlockBegin
  2
*PAPER_SPACE
 70
     0
 10
0.0
 20
0.0
 30
0.0
  3
*PAPER_SPACE
  1

  0
ENDBLK
  5
10
100
AcDbEntity
 67
     1
  8
0
100
AcDbBlockEnd
  0
ENDSEC
  0
SECTION
  2
ENTITIES
  0
POLYLINE
  5
2D
100
AcDbEntity
  8
1
  6
CONTINUOUS
 62
   212
100
AcDb2dPolyline
 66
     1
 10
0.0
 20
0.0
 30
0.0
 70
   128
  0
VERTEX
  5
2E
100
AcDbEntity
  8
1
  6
CONTINUOUS
 62
   212
100
AcDbVertex
100
AcDb2dVertex
 10
120.747023
 20
7.797767
 30
0.0
 40
0.0
 41
0.0
  0
VERTEX
  5
2F
100
AcDbEntity
  8
1
  6
CONTINUOUS
 62
   212
100
AcDbVertex
100
AcDb2dVertex
 10
120.747023
 20
10.117771
 30
0.0
 40
0.0
 41
0.0
  0
SEQEND
  5
30
100
AcDbEntity
  8
0
  0
POLYLINE
  5
31
100
AcDbEntity
  8
1
  6
CONTINUOUS
 62
   212
100
AcDb2dPolyline
 66
     1
 10
0.0
 20
0.0
 30
0.0
 70
   128
  0
VERTEX
  5
32
100
AcDbEntity
  8
1
  6
CONTINUOUS
 62
   212
100
AcDbVertex
100
AcDb2dVertex
 10
119.496565
 20
7.797767
 30
0.0
 40
0.0
 41
0.0
  0
VERTEX
  5
33
100
AcDbEntity
  8
1
  6
CONTINUOUS
 62
   212
100
AcDbVertex
100
AcDb2dVertex
 10
119.496565
 20
11.197807
 30
0.0
 40
0.0
 41
0.0
  0
SEQEND
  5
34
100
AcDbEntity
  8
0
  0
POLYLINE
  5
35
100
AcDbEntity
  8
1
  6
CONTINUOUS
 62
   212
100
AcDb2dPolyline
 66
     1
 10
0.0
 20
0.0
 30
0.0
 70
   128
  0
VERTEX
  5
36
100
AcDbEntity
  8
1
  6
CONTINUOUS
 62
   212
100
AcDbVertex
100
AcDb2dVertex
 10
116.997175
 20
7.797767
 30
0.0
 40
0.0
 41
0.0
  0
VERTEX
  5
37
100
AcDbEntity
  8
1
  6
CONTINUOUS
 62
   212
100
AcDbVertex
100
AcDb2dVertex
 10
116.997175
 20
12.657787
 30
0.0
 40
0.0
 41
0.0
  0
SEQEND
  5
38
100
AcDbEntity
  8
0
  0
POLYLINE
  5
39
100
AcDbEntity
  8
1
  6
CONTINUOUS
 62
   212
100
AcDb2dPolyline
 66
     1
 10
0.0
 20
0.0
 30
0.0
 70
   128
  0
VERTEX
  5
3A
100
AcDbEntity
  8
1
  6
CONTINUOUS
 62
   212
100
AcDbVertex
100
AcDb2dVertex
 10
114.497023
 20
7.797767
 30
0.0
 40
0.0
 41
0.0
  0
VERTEX
  5
3B
100
AcDbEntity
  8
1
  6
CONTINUOUS
 62
   212
100
AcDbVertex
100
AcDb2dVertex
 10
114.497023
 20
13.817836
 30
0.0
 40
0.0
 41
0.0
  0
SEQEND
  5
3C
100
AcDbEntity
  8
0
  0
POLYLINE
  5
3D
100
AcDbEntity
  8
1
  6
CONTINUOUS
 62
   212
100
AcDb2dPolyline
 66
     1
 10
0.0
 20
0.0
 30
0.0
 70
   128
  0
VERTEX
  5
3E
100
AcDbEntity
  8
1
  6
CONTINUOUS
 62
   212
100
AcDbVertex
100
AcDb2dVertex
 10
111.99687
 20
7.797767
 30
0.0
 40
0.0
 41
0.0
  0
VERTEX
  5
3F
100
AcDbEntity
  8
1
  6
CONTINUOUS
 62
   212
100
AcDbVertex
100
AcDb2dVertex
 10
111.99687
 20
14.757778
 30
0.0
 40
0.0
 41
0.0
  0
SEQEND
  5
40
100
AcDbEntity
  8
0
  0
POLYLINE
  5
41
100
AcDbEntity
  8
1
  6
CONTINUOUS
 62
   212
100
AcDb2dPolyline
 66
     1
 10
0.0
 20
0.0
 30
0.0
 70
   128
  0
VERTEX
  5
42
100
AcDbEntity
  8
1
  6
CONTINUOUS
 62
   212
100
AcDbVertex
100
AcDb2dVertex
 10
106.996565
 20
7.797767
 30
0.0
 40
0.0
 41
0.0
  0
VERTEX
  5
43
100
AcDbEntity
  8
1
  6
CONTINUOUS
 62
   212
100
AcDbVertex
100
AcDb2dVertex
 10
106.996565
 20
16.157772
 30
0.0
 40
0.0
 41
0.0
  0
SEQEND
  5
44
100
AcDbEntity
  8
0
  0
POLYLINE
  5
45
100
AcDbEntity
  8
1
  6
CONTINUOUS
 62
   212
100
AcDb2dPolyline
 66
     1
 10
0.0
 20
0.0
 30
0.0
 70
   128
  0
VERTEX
  5
46
100
AcDbEntity
  8
1
  6
CONTINUOUS
 62
   212
100
AcDbVertex
100
AcDb2dVertex
 10
101.997023
 20
7.797767
 30
0.0
 40
0.0
 41
0.0
  0
VERTEX
  5
47
100
AcDbEntity
  8
1
  6
CONTINUOUS
 62
   212
100
AcDbVertex
100
AcDb2dVertex
 10
101.997023
 20
17.097808
 30
0.0
 40
0.0
 41
0.0
  0
SEQEND
  5
48
100
AcDbEntity
  8
0
  0
POLYLINE
  5
49
100
AcDbEntity
  8
1
  6
CONTINUOUS
 62
   212
100
AcDb2dPolyline
 66
     1
 10
0.0
 20
0.0
 30
0.0
 70
   128
  0
VERTEX
  5
4A
100
AcDbEntity
  8
1
  6
CONTINUOUS
 62
   212
100
AcDbVertex
100
AcDb2dVertex
 10
96.996718
 20
7.797767
 30
0.0
 40
0.0
 41
0.0
  0
VERTEX
  5
4B
100
AcDbEntity
  8
1
  6
CONTINUOUS
 62
   212
100
AcDbVertex
100
AcDb2dVertex
 10
96.996718
 20
17.617752
 30
0.0
 40
0.0
 41
0.0
  0
SEQEND
  5
4C
100
AcDbEntity
  8
0
  0
POLYLINE
  5
4D
100
AcDbEntity
  8
1
  6
CONTINUOUS
 62
   212
100
AcDb2dPolyline
 66
     1
 10
0.0
 20
0.0
 30
0.0
 70
   128
  0
VERTEX
  5
4E
100
AcDbEntity
  8
1
  6
CONTINUOUS
 62
   212
100
AcDbVertex
100
AcDb2dVertex
 10
91.997175
 20
7.797767
 30
0.0
 40
0.0
 41
0.0
  0
VERTEX
  5
4F
100
AcDbEntity
  8
1
  6
CONTINUOUS
 62
   212
100
AcDbVertex
100
AcDb2dVertex
 10
91.997175
 20
17.797805
 30
0.0
 40
0.0
 41
0.0
  0
SEQEND
  5
50
100
AcDbEntity
  8
0
  0
POLYLINE
  5
51
100
AcDbEntity
  8
1
  6
CONTINUOUS
 62
   212
100
AcDb2dPolyline
 66
     1
 10
0.0
 20
0.0
 30
0.0
 70
   128
  0
VERTEX
  5
52
100
AcDbEntity
  8
1
  6
CONTINUOUS
 62
   212
100
AcDbVertex
100
AcDb2dVertex
 10
81.996565
 20
7.797767
 30
0.0
 40
0.0
 41
0.0
  0
VERTEX
  5
53
100
AcDbEntity
  8
1
  6
CONTINUOUS
 62
   212
100
AcDbVertex
100
AcDb2dVertex
 10
81.996565
 20
17.517807
 30
0.0
 40
0.0
 41
0.0
  0
SEQEND
  5
54
100
AcDbEntity
  8
0
  0
POLYLINE
  5
55
100
AcDbEntity
  8
1
  6
CONTINUOUS
 62
   212
100
AcDb2dPolyline
 66
     1
 10
0.0
 20
0.0
 30
0.0
 70
   128
  0
VERTEX
  5
56
100
AcDbEntity
  8
1
  6
CONTINUOUS
 62
   212
100
AcDbVertex
100
AcDb2dVertex
 10
71.996718
 20
7.797767
 30
0.0
 40
0.0
 41
0.0
  0
VERTEX
  5
57
100
AcDbEntity
  8
1
  6
CONTINUOUS
 62
   212
100
AcDbVertex
100
AcDb2dVertex
 10
71.996718
 20
16.777755
 30
0.0
 40
0.0
 41
0.0
  0
SEQEND
  5
58
100
AcDbEntity
  8
0
  0
POLYLINE
  5
59
100
AcDbEntity
  8
1
  6
CONTINUOUS
 62
   212
100
AcDb2dPolyline
 66
     1
 10
0.0
 20
0.0
 30
0.0
 70
   128
  0
VERTEX
  5
5A
100
AcDbEntity
  8
1
  6
CONTINUOUS
 62
   212
100
AcDbVertex
100
AcDb2dVertex
 10
61.99687
 20
7.797767
 30
0.0
 40
0.0
 41
0.0
  0
VERTEX
  5
5B
100
AcDbEntity
  8
1
  6
CONTINUOUS
 62
   212
100
AcDbVertex
100
AcDb2dVertex
 10
61.99687
 20
15.637828
 30
0.0
 40
0.0
 41
0.0
  0
SEQEND
  5
5C
100
AcDbEntity
  8
0
  0
POLYLINE
  5
5D
100
AcDbEntity
  8
1
  6
CONTINUOUS
 62
   212
100
AcDb2dPolyline
 66
     1
 10
0.0
 20
0.0
 30
0.0
 70
   128
  0
VERTEX
  5
5E
100
AcDbEntity
  8
1
  6
CONTINUOUS
 62
   212
100
AcDbVertex
100
AcDb2dVertex
 10
51.997023
 20
7.797767
 30
0.0
 40
0.0
 41
0.0
  0
VERTEX
  5
5F
100
AcDbEntity
  8
1
  6
CONTINUOUS
 62
   212
100
AcDbVertex
100
AcDb2dVertex
 10
51.997023
 20
14.177753
 30
0.0
 40
0.0
 41
0.0
  0
SEQEND
  5
60
100
AcDbEntity
  8
0
  0
POLYLINE
  5
61
100
AcDbEntity
  8
1
  6
CONTINUOUS
 62
   212
100
AcDb2dPolyline
 66
     1
 10
0.0
 20
0.0
 30
0.0
 70
   128
  0
VERTEX
  5
62
100
AcDbEntity
  8
1
  6
CONTINUOUS
 62
   212
100
AcDbVertex
100
AcDb2dVertex
 10
41.997175
 20
7.797767
 30
0.0
 40
0.0
 41
0.0
  0
VERTEX
  5
63
100
AcDbEntity
  8
1
  6
CONTINUOUS
 62
   212
100
AcDbVertex
100
AcDb2dVertex
 10
41.997175
 20
12.397815
 30
0.0
 40
0.0
 41
0.0
  0
SEQEND
  5
64
100
AcDbEntity
  8
0
  0
POLYLINE
  5
65
100
AcDbEntity
  8
1
  6
CONTINUOUS
 62
   212
100
AcDb2dPolyline
 66
     1
 10
0.0
 20
0.0
 30
0.0
 70
   128
  0
VERTEX
  5
66
100
AcDbEntity
  8
1
  6
CONTINUOUS
 62
   212
100
AcDbVertex
100
AcDb2dVertex
 10
31.996565
 20
7.797767
 30
0.0
 40
0.0
 41
0.0
  0
VERTEX
  5
67
100
AcDbEntity
  8
1
  6
CONTINUOUS
 62
   212
100
AcDbVertex
100
AcDb2dVertex
 10
31.996565
 20
10.317756
 30
0.0
 40
0.0
 41
0.0
  0
SEQEND
  5
68
100
AcDbEntity
  8
0
  0
POLYLINE
  5
69
100
AcDbEntity
  8
1
  6
CONTINUOUS
 62
   212
100
AcDb2dPolyline
 66
     1
 10
0.0
 20
0.0
 30
0.0
 70
   128
  0
VERTEX
  5
6A
100
AcDbEntity
  8
1
  6
CONTINUOUS
 62
   212
100
AcDbVertex
100
AcDb2dVertex
 10
26.997023
 20
7.797767
 30
0.0
 40
0.0
 41
0.0
  0
VERTEX
  5
6B
100
AcDbEntity
  8
1
  6
CONTINUOUS
 62
   212
100
AcDbVertex
100
AcDb2dVertex
 10
26.997023
 20
9.157802
 30
0.0
 40
0.0
 41
0.0
  0
SEQEND
  5
6C
100
AcDbEntity
  8
0
  0
POLYLINE
  5
6D
100
AcDbEntity
  8
1
  6
CONTINUOUS
 62
   212
100
AcDb2dPolyline
 66
     1
 10
0.0
 20
0.0
 30
0.0
 70
   128
  0
VERTEX
  5
6E
100
AcDbEntity
  8
1
  6
CONTINUOUS
 62
   212
100
AcDbVertex
100
AcDb2dVertex
 10
121.996718
 20
7.797767
 30
0.0
 40
0.0
 41
0.0
  0
VERTEX
  5
6F
100
AcDbEntity
  8
1
  6
CONTINUOUS
 62
   212
100
AcDbVertex
100
AcDb2dVertex
 10
121.891432
 20
8.032276
 30
0.0
 40
0.0
 41
0.0
  0
VERTEX
  5
70
100
AcDbEntity
  8
1
  6
CONTINUOUS
 62
   212
100
AcDbVertex
100
AcDb2dVertex
 10
121.785383
 20
8.265544
 30
0.0
 40
0.0
 41
0.0
  0
VERTEX
  5
71
100
AcDbEntity
  8
1
  6
CONTINUOUS
 62
   212
100
AcDbVertex
100
AcDb2dVertex
 10
121.677809
 20
8.496524
 30
0.0
 40
0.0
 41
0.0
  0
VERTEX
  5
72
100
AcDbEntity
  8
1
  6
CONTINUOUS
 62
   212
100
AcDbVertex
100
AcDb2dVertex
 10
121.570234
 20
8.72388
 30
0.0
 40
0.0
 41
0.0
  0
VERTEX
  5
73
100
AcDbEntity
  8
1
  6
CONTINUOUS
 62
   212
100
AcDbVertex
100
AcDb2dVertex
 10
121.460371
 20
8.946563
 30
0.0
 40
0.0
 41
0.0
  0
VERTEX
  5
74
100
AcDbEntity
  8
1
  6
CONTINUOUS
 62
   212
100
AcDbVertex
100
AcDb2dVertex
 10
121.348982
 20
9.163333
 30
0.0
 40
0.0
 41
0.0
  0
VERTEX
  5
75
100
AcDbEntity
  8
1
  6
CONTINUOUS
 62
   212
100
AcDbVertex
100
AcDb2dVertex
 10
121.234541
 20
9.373142
 30
0.0
 40
0.0
 41
0.0
  0
VERTEX
  5
76
100
AcDbEntity
  8
1
  6
CONTINUOUS
 62
   212
100
AcDbVertex
100
AcDb2dVertex
 10
121.117811
 20
9.574558
 30
0.0
 40
0.0
 41
0.0
  0
VERTEX
  5
77
100
AcDbEntity
  8
1
  6
CONTINUOUS
 62
   212
100
AcDbVertex
100
AcDb2dVertex
 10
120.99803
 20
9.766628
 30
0.0
 40
0.0
 41
0.0
  0
VERTEX
  5
78
100
AcDbEntity
  8
1
  6
CONTINUOUS
 62
   212
100
AcDbVertex
100
AcDb2dVertex
 10
120.874434
 20
9.948112
 30
0.0
 40
0.0
 41
0.0
  0
VERTEX
  5
79
100
AcDbEntity
  8
1
  6
CONTINUOUS
 62
   212
100
AcDbVertex
100
AcDb2dVertex
 10
120.747023
 20
10.117771
 30
0.0
 40
0.0
 41
0.0
  0
VERTEX
  5
7A
100
AcDbEntity
  8
1
  6
CONTINUOUS
 62
   212
100
AcDbVertex
100
AcDb2dVertex
 10
120.641737
 20
10.244228
 30
0.0
 40
0.0
 41
0.0
  0
VERTEX
  5
7B
100
AcDbEntity
  8
1
  6
CONTINUOUS
 62
   212
100
AcDbVertex
100
AcDb2dVertex
 10
120.534926
 20
10.363056
 30
0.0
 40
0.0
 41
0.0
  0
VERTEX
  5
7C
100
AcDbEntity
  8
1
  6
CONTINUOUS
 62
   212
100
AcDbVertex
100
AcDb2dVertex
 10
120.425062
 20
10.475017
 30
0.0
 40
0.0
 41
0.0
  0
VERTEX
  5
7D
100
AcDbEntity
  8
1
  6
CONTINUOUS
 62
   212
100
AcDbVertex
100
AcDb2dVertex
 10
120.313673
 20
10.580589
 30
0.0
 40
0.0
 41
0.0
  0
VERTEX
  5
7E
100
AcDbEntity
  8
1
  6
CONTINUOUS
 62
   212
100
AcDbVertex
100
AcDb2dVertex
 10
120.199995
 20
10.680439
 30
0.0
 40
0.0
 41
0.0
  0
VERTEX
  5
7F
100
AcDbEntity
  8
1
  6
CONTINUOUS
 62
   212
100
AcDbVertex
100
AcDb2dVertex
 10
120.084791
 20
10.775424
 30
0.0
 40
0.0
 41
0.0
  0
VERTEX
  5
80
100
AcDbEntity
  8
1
  6
CONTINUOUS
 62
   212
100
AcDbVertex
100
AcDb2dVertex
 10
119.968825
 20
10.866024
 30
0.0
 40
0.0
 41
0.0
  0
VERTEX
  5
81
100
AcDbEntity
  8
1
  6
CONTINUOUS
 62
   212
100
AcDbVertex
100
AcDb2dVertex
 10
119.851332
 20
10.952808
 30
0.0
 40
0.0
 41
0.0
  0
VERTEX
  5
82
100
AcDbEntity
  8
1
  6
CONTINUOUS
 62
   212
100
AcDbVertex
100
AcDb2dVertex
 10
119.733839
 20
11.036636
 30
0.0
 40
0.0
 41
0.0
  0
VERTEX
  5
83
100
AcDbEntity
  8
1
  6
CONTINUOUS
 62
   212
100
AcDbVertex
100
AcDb2dVertex
 10
119.615584
 20
11.11808
 30
0.0
 40
0.0
 41
0.0
  0
VERTEX
  5
84
100
AcDbEntity
  8
1
  6
CONTINUOUS
 62
   212
100
AcDbVertex
100
AcDb2dVertex
 10
119.496565
 20
11.197807
 30
0.0
 40
0.0
 41
0.0
  0
VERTEX
  5
85
100
AcDbEntity
  8
1
  6
CONTINUOUS
 62
   212
100
AcDbVertex
100
AcDb2dVertex
 10
119.269972
 20
11.346962
 30
0.0
 40
0.0
 41
0.0
  0
VERTEX
  5
86
100
AcDbEntity
  8
1
  6
CONTINUOUS
 62
   212
100
AcDbVertex
100
AcDb2dVertex
 10
119.043379
 20
11.492397
 30
0.0
 40
0.0
 41
0.0
  0
VERTEX
  5
87
100
AcDbEntity
  8
1
  6
CONTINUOUS
 62
   212
100
AcDbVertex
100
AcDb2dVertex
 10
118.816786
 20
11.634113
 30
0.0
 40
0.0
 41
0.0
  0
VERTEX
  5
88
100
AcDbEntity
  8
1
  6
CONTINUOUS
 62
   212
100
AcDbVertex
100
AcDb2dVertex
 10
118.58943
 20
11.772396
 30
0.0
 40
0.0
 41
0.0
  0
VERTEX
  5
89
100
AcDbEntity
  8
1
  6
CONTINUOUS
 62
   212
100
AcDbVertex
100
AcDb2dVertex
 10
118.362837
 20
11.907341
 30
0.0
 40
0.0
 41
0.0
  0
VERTEX
  5
8A
100
AcDbEntity
  8
1
  6
CONTINUOUS
 62
   212
100
AcDbVertex
100
AcDb2dVertex
 10
118.136244
 20
12.039234
 30
0.0
 40
0.0
 41
0.0
  0
VERTEX
  5
8B
100
AcDbEntity
  8
1
  6
CONTINUOUS
 62
   212
100
AcDbVertex
100
AcDb2dVertex
 10
117.908888
 20
12.168075
 30
0.0
 40
0.0
 41
0.0
  0
VERTEX
  5
8C
100
AcDbEntity
  8
1
  6
CONTINUOUS
 62
   212
100
AcDbVertex
100
AcDb2dVertex
 10
117.681532
 20
12.294246
 30
0.0
 40
0.0
 41
0.0
  0
VERTEX
  5
8D
100
AcDbEntity
  8
1
  6
CONTINUOUS
 62
   212
100
AcDbVertex
100
AcDb2dVertex
 10
117.453413
 20
12.417842
 30
0.0
 40
0.0
 41
0.0
  0
VERTEX
  5
8E
100
AcDbEntity
  8
1
  6
CONTINUOUS
 62
   212
100
AcDbVertex
100
AcDb2dVertex
 10
117.225294
 20
12.538959
 30
0.0
 40
0.0
 41
0.0
  0
VERTEX
  5
8F
100
AcDbEntity
  8
1
  6
CONTINUOUS
 62
   212
100
AcDbVertex
100
AcDb2dVertex
 10
116.997175
 20
12.657787
 30
0.0
 40
0.0
 41
0.0
  0
VERTEX
  5
90
100
AcDbEntity
  8
1
  6
CONTINUOUS
 62
   212
100
AcDbVertex
100
AcDb2dVertex
 10
116.771345
 20
12.772895
 30
0.0
 40
0.0
 41
0.0
  0
VERTEX
  5
91
100
AcDbEntity
  8
1
  6
CONTINUOUS
 62
   212
100
AcDbVertex
100
AcDb2dVertex
 10
116.545515
 20
12.886001
 30
0.0
 40
0.0
 41
0.0
  0
VERTEX
  5
92
100
AcDbEntity
  8
1
  6
CONTINUOUS
 62
   212
100
AcDbVertex
100
AcDb2dVertex
 10
116.318922
 20
12.997104
 30
0.0
 40
0.0
 41
0.0
  0
VERTEX
  5
93
100
AcDbEntity
  8
1
  6
CONTINUOUS
 62
   212
100
AcDbVertex
100
AcDb2dVertex
 10
116.092329
 20
13.1063
 30
0.0
 40
0.0
 41
0.0
  0
VERTEX
  5
94
100
AcDbEntity
  8
1
  6
CONTINUOUS
 62
   212
100
AcDbVertex
100
AcDb2dVertex
 10
115.864973
 20
13.213588
 30
0.0
 40
0.0
 41
0.0
  0
VERTEX
  5
95
100
AcDbEntity
  8
1
  6
CONTINUOUS
 62
   212
100
AcDbVertex
100
AcDb2dVertex
 10
115.637617
 20
13.318969
 30
0.0
 40
0.0
 41
0.0
  0
VERTEX
  5
96
100
AcDbEntity
  8
1
  6
CONTINUOUS
 62
   212
100
AcDbVertex
100
AcDb2dVertex
 10
115.409498
 20
13.422348
 30
0.0
 40
0.0
 41
0.0
  0
VERTEX
  5
97
100
AcDbEntity
  8
1
  6
CONTINUOUS
 62
   212
100
AcDbVertex
100
AcDb2dVertex
 10
115.182142
 20
13.524009
 30
0.0
 40
0.0
 41
0.0
  0
VERTEX
  5
98
100
AcDbEntity
  8
1
  6
CONTINUOUS
 62
   212
100
AcDbVertex
100
AcDb2dVertex
 10
114.954024
 20
13.623764
 30
0.0
 40
0.0
 41
0.0
  0
VERTEX
  5
99
100
AcDbEntity
  8
1
  6
CONTINUOUS
 62
   212
100
AcDbVertex
100
AcDb2dVertex
 10
114.725142
 20
13.721706
 30
0.0
 40
0.0
 41
0.0
  0
VERTEX
  5
9A
100
AcDbEntity
  8
1
  6
CONTINUOUS
 62
   212
100
AcDbVertex
100
AcDb2dVertex
 10
114.497023
 20
13.817836
 30
0.0
 40
0.0
 41
0.0
  0
VERTEX
  5
9B
100
AcDbEntity
  8
1
  6
CONTINUOUS
 62
   212
100
AcDbVertex
100
AcDb2dVertex
 10
114.27043
 20
13.911296
 30
0.0
 40
0.0
 41
0.0
  0
VERTEX
  5
9C
100
AcDbEntity
  8
1
  6
CONTINUOUS
 62
   212
100
AcDbVertex
100
AcDb2dVertex
 10
114.043837
 20
14.003135
 30
0.0
 40
0.0
 41
0.0
  0
VERTEX
  5
9D
100
AcDbEntity
  8
1
  6
CONTINUOUS
 62
   212
100
AcDbVertex
100
AcDb2dVertex
 10
113.816481
 20
14.093257
 30
0.0
 40
0.0
 41
0.0
  0
VERTEX
  5
9E
100
AcDbEntity
  8
1
  6
CONTINUOUS
 62
   212
100
AcDbVertex
100
AcDb2dVertex
 10
113.589888
 20
14.181758
 30
0.0
 40
0.0
 41
0.0
  0
VERTEX
  5
9F
100
AcDbEntity
  8
1
  6
CONTINUOUS
 62
   212
100
AcDbVertex
100
AcDb2dVertex
 10
113.362532
 20
14.268543
 30
0.0
 40
0.0
 41
0.0
  0
VERTEX
  5
A0
100
AcDbEntity
  8
1
  6
CONTINUOUS
 62
   212
100
AcDbVertex
100
AcDb2dVertex
 10
113.135176
 20
14.353897
 30
0.0
 40
0.0
 41
0.0
  0
VERTEX
  5
A1
100
AcDbEntity
  8
1
  6
CONTINUOUS
 62
   212
100
AcDbVertex
100
AcDb2dVertex
 10
112.90782
 20
14.437629
 30
0.0
 40
0.0
 41
0.0
  0
VERTEX
  5
A2
100
AcDbEntity
  8
1
  6
CONTINUOUS
 62
   212
100
AcDbVertex
100
AcDb2dVertex
 10
112.680464
 20
14.519836
 30
0.0
 40
0.0
 41
0.0
  0
VERTEX
  5
A3
100
AcDbEntity
  8
1
  6
CONTINUOUS
 62
   212
100
AcDbVertex
100
AcDb2dVertex
 10
112.452345
 20
14.600612
 30
0.0
 40
0.0
 41
0.0
  0
VERTEX
  5
A4
100
AcDbEntity
  8
1
  6
CONTINUOUS
 62
   212
100
AcDbVertex
100
AcDb2dVertex
 10
112.224989
 20
14.679863
 30
0.0
 40
0.0
 41
0.0
  0
VERTEX
  5
A5
100
AcDbEntity
  8
1
  6
CONTINUOUS
 62
   212
100
AcDbVertex
100
AcDb2dVertex
 10
111.99687
 20
14.757778
 30
0.0
 40
0.0
 41
0.0
  0
VERTEX
  5
A6
100
AcDbEntity
  8
1
  6
CONTINUOUS
 62
   212
100
AcDbVertex
100
AcDb2dVertex
 10
111.544447
 20
14.908363
 30
0.0
 40
0.0
 41
0.0
  0
VERTEX
  5
A7
100
AcDbEntity
  8
1
  6
CONTINUOUS
 62
   212
100
AcDbVertex
100
AcDb2dVertex
 10
111.091261
 20
15.053798
 30
0.0
 40
0.0
 41
0.0
  0
VERTEX
  5
A8
100
AcDbEntity
  8
1
  6
CONTINUOUS
 62
   212
100
AcDbVertex
100
AcDb2dVertex
 10
110.637312
 20
15.194084
 30
0.0
 40
0.0
 41
0.0
  0
VERTEX
  5
A9
100
AcDbEntity
  8
1
  6
CONTINUOUS
 62
   212
100
AcDbVertex
100
AcDb2dVertex
 10
110.183363
 20
15.329601
 30
0.0
 40
0.0
 41
0.0
  0
VERTEX
  5
AA
100
AcDbEntity
  8
1
  6
CONTINUOUS
 62
   212
100
AcDbVertex
100
AcDb2dVertex
 10
109.729414
 20
15.460445
 30
0.0
 40
0.0
 41
0.0
  0
VERTEX
  5
AB
100
AcDbEntity
  8
1
  6
CONTINUOUS
 62
   212
100
AcDbVertex
100
AcDb2dVertex
 10
109.274702
 20
15.586807
 30
0.0
 40
0.0
 41
0.0
  0
VERTEX
  5
AC
100
AcDbEntity
  8
1
  6
CONTINUOUS
 62
   212
100
AcDbVertex
100
AcDb2dVertex
 10
108.819227
 20
15.708877
 30
0.0
 40
0.0
 41
0.0
  0
VERTEX
  5
AD
100
AcDbEntity
  8
1
  6
CONTINUOUS
 62
   212
100
AcDbVertex
100
AcDb2dVertex
 10
108.364515
 20
15.826847
 30
0.0
 40
0.0
 41
0.0
  0
VERTEX
  5
AE
100
AcDbEntity
  8
1
  6
CONTINUOUS
 62
   212
100
AcDbVertex
100
AcDb2dVertex
 10
107.908278
 20
15.940811
 30
0.0
 40
0.0
 41
0.0
  0
VERTEX
  5
AF
100
AcDbEntity
  8
1
  6
CONTINUOUS
 62
   212
100
AcDbVertex
100
AcDb2dVertex
 10
107.452803
 20
16.051055
 30
0.0
 40
0.0
 41
0.0
  0
VERTEX
  5
B0
100
AcDbEntity
  8
1
  6
CONTINUOUS
 62
   212
100
AcDbVertex
100
AcDb2dVertex
 10
106.996565
 20
16.157772
 30
0.0
 40
0.0
 41
0.0
  0
VERTEX
  5
B1
100
AcDbEntity
  8
1
  6
CONTINUOUS
 62
   212
100
AcDbVertex
100
AcDb2dVertex
 10
106.543379
 20
16.260578
 30
0.0
 40
0.0
 41
0.0
  0
VERTEX
  5
B2
100
AcDbEntity
  8
1
  6
CONTINUOUS
 62
   212
100
AcDbVertex
100
AcDb2dVertex
 10
106.08943
 20
16.359855
 30
0.0
 40
0.0
 41
0.0
  0
VERTEX
  5
B3
100
AcDbEntity
  8
1
  6
CONTINUOUS
 62
   212
100
AcDbVertex
100
AcDb2dVertex
 10
105.635481
 20
16.45589
 30
0.0
 40
0.0
 41
0.0
  0
VERTEX
  5
B4
100
AcDbEntity
  8
1
  6
CONTINUOUS
 62
   212
100
AcDbVertex
100
AcDb2dVertex
 10
105.180769
 20
16.548397
 30
0.0
 40
0.0
 41
0.0
  0
VERTEX
  5
B5
100
AcDbEntity
  8
1
  6
CONTINUOUS
 62
   212
100
AcDbVertex
100
AcDb2dVertex
 10
104.72682
 20
16.63747
 30
0.0
 40
0.0
 41
0.0
  0
VERTEX
  5
B6
100
AcDbEntity
  8
1
  6
CONTINUOUS
 62
   212
100
AcDbVertex
100
AcDb2dVertex
 10
104.272108
 20
16.72311
 30
0.0
 40
0.0
 41
0.0
  0
VERTEX
  5
B7
100
AcDbEntity
  8
1
  6
CONTINUOUS
 62
   212
100
AcDbVertex
100
AcDb2dVertex
 10
103.817396
 20
16.805126
 30
0.0
 40
0.0
 41
0.0
  0
VERTEX
  5
B8
100
AcDbEntity
  8
1
  6
CONTINUOUS
 62
   212
100
AcDbVertex
100
AcDb2dVertex
 10
103.362684
 20
16.883708
 30
0.0
 40
0.0
 41
0.0
  0
VERTEX
  5
B9
100
AcDbEntity
  8
1
  6
CONTINUOUS
 62
   212
100
AcDbVertex
100
AcDb2dVertex
 10
102.90721
 20
16.958667
 30
0.0
 40
0.0
 41
0.0
  0
VERTEX
  5
BA
100
AcDbEntity
  8
1
  6
CONTINUOUS
 62
   212
100
AcDbVertex
100
AcDb2dVertex
 10
102.452498
 20
17.030002
 30
0.0
 40
0.0
 41
0.0
  0
VERTEX
  5
BB
100
AcDbEntity
  8
1
  6
CONTINUOUS
 62
   212
100
AcDbVertex
100
AcDb2dVertex
 10
101.997023
 20
17.097808
 30
0.0
 40
0.0
 41
0.0
  0
VERTEX
  5
BC
100
AcDbEntity
  8
1
  6
CONTINUOUS
 62
   212
100
AcDbVertex
100
AcDb2dVertex
 10
101.543074
 20
17.161705
 30
0.0
 40
0.0
 41
0.0
  0
VERTEX
  5
BD
100
AcDbEntity
  8
1
  6
CONTINUOUS
 62
   212
100
AcDbVertex
100
AcDb2dVertex
 10
101.088362
 20
17.222167
 30
0.0
 40
0.0
 41
0.0
  0
VERTEX
  5
BE
100
AcDbEntity
  8
1
  6
CONTINUOUS
 62
   212
100
AcDbVertex
100
AcDb2dVertex
 10
100.634413
 20
17.279006
 30
0.0
 40
0.0
 41
0.0
  0
VERTEX
  5
BF
100
AcDbEntity
  8
1
  6
CONTINUOUS
 62
   212
100
AcDbVertex
100
AcDb2dVertex
 10
100.179701
 20
17.332508
 30
0.0
 40
0.0
 41
0.0
  0
VERTEX
  5
C0
100
AcDbEntity
  8
1
  6
CONTINUOUS
 62
   212
100
AcDbVertex
100
AcDb2dVertex
 10
99.725752
 20
17.382671
 30
0.0
 40
0.0
 41
0.0
  0
VERTEX
  5
C1
100
AcDbEntity
  8
1
  6
CONTINUOUS
 62
   212
100
AcDbVertex
100
AcDb2dVertex
 10
99.27104
 20
17.429592
 30
0.0
 40
0.0
 41
0.0
  0
VERTEX
  5
C2
100
AcDbEntity
  8
1
  6
CONTINUOUS
 62
   212
100
AcDbVertex
100
AcDb2dVertex
 10
98.816328
 20
17.473365
 30
0.0
 40
0.0
 41
0.0
  0
VERTEX
  5
C3
100
AcDbEntity
  8
1
  6
CONTINUOUS
 62
   212
100
AcDbVertex
100
AcDb2dVertex
 10
98.361616
 20
17.513896
 30
0.0
 40
0.0
 41
0.0
  0
VERTEX
  5
C4
100
AcDbEntity
  8
1
  6
CONTINUOUS
 62
   212
100
AcDbVertex
100
AcDb2dVertex
 10
97.906904
 20
17.551471
 30
0.0
 40
0.0
 41
0.0
  0
VERTEX
  5
C5
100
AcDbEntity
  8
1
  6
CONTINUOUS
 62
   212
100
AcDbVertex
100
AcDb2dVertex
 10
97.45143
 20
17.58609
 30
0.0
 40
0.0
 41
0.0
  0
VERTEX
  5
C6
100
AcDbEntity
  8
1
  6
CONTINUOUS
 62
   212
100
AcDbVertex
100
AcDb2dVertex
 10
96.996718
 20
17.617752
 30
0.0
 40
0.0
 41
0.0
  0
VERTEX
  5
C7
100
AcDbEntity
  8
1
  6
CONTINUOUS
 62
   212
100
AcDbVertex
100
AcDb2dVertex
 10
96.542769
 20
17.646648
 30
0.0
 40
0.0
 41
0.0
  0
VERTEX
  5
C8
100
AcDbEntity
  8
1
  6
CONTINUOUS
 62
   212
100
AcDbVertex
100
AcDb2dVertex
 10
96.088057
 20
17.672779
 30
0.0
 40
0.0
 41
0.0
  0
VERTEX
  5
C9
100
AcDbEntity
  8
1
  6
CONTINUOUS
 62
   212
100
AcDbVertex
100
AcDb2dVertex
 10
95.633345
 20
17.696239
 30
0.0
 40
0.0
 41
0.0
  0
VERTEX
  5
CA
100
AcDbEntity
  8
1
  6
CONTINUOUS
 62
   212
100
AcDbVertex
100
AcDb2dVertex
 10
95.178633
 20
17.717124
 30
0.0
 40
0.0
 41
0.0
  0
VERTEX
  5
CB
100
AcDbEntity
  8
1
  6
CONTINUOUS
 62
   212
100
AcDbVertex
100
AcDb2dVertex
 10
94.724684
 20
17.735435
 30
0.0
 40
0.0
 41
0.0
  0
VERTEX
  5
CC
100
AcDbEntity
  8
1
  6
CONTINUOUS
 62
   212
100
AcDbVertex
100
AcDb2dVertex
 10
94.269972
 20
17.751457
 30
0.0
 40
0.0
 41
0.0
  0
VERTEX
  5
CD
100
AcDbEntity
  8
1
  6
CONTINUOUS
 62
   212
100
AcDbVertex
100
AcDb2dVertex
 10
93.81526
 20
17.765094
 30
0.0
 40
0.0
 41
0.0
  0
VERTEX
  5
CE
100
AcDbEntity
  8
1
  6
CONTINUOUS
 62
   212
100
AcDbVertex
100
AcDb2dVertex
 10
93.360548
 20
17.776443
 30
0.0
 40
0.0
 41
0.0
  0
VERTEX
  5
CF
100
AcDbEntity
  8
1
  6
CONTINUOUS
 62
   212
100
AcDbVertex
100
AcDb2dVertex
 10
92.905836
 20
17.785598
 30
0.0
 40
0.0
 41
0.0
  0
VERTEX
  5
D0
100
AcDbEntity
  8
1
  6
CONTINUOUS
 62
   212
100
AcDbVertex
100
AcDb2dVertex
 10
92.451124
 20
17.792751
 30
0.0
 40
0.0
 41
0.0
  0
VERTEX
  5
D1
100
AcDbEntity
  8
1
  6
CONTINUOUS
 62
   212
100
AcDbVertex
100
AcDb2dVertex
 10
91.997175
 20
17.797805
 30
0.0
 40
0.0
 41
0.0
  0
VERTEX
  5
D2
100
AcDbEntity
  8
1
  6
CONTINUOUS
 62
   212
100
AcDbVertex
100
AcDb2dVertex
 10
91.087752
 20
17.802192
 30
0.0
 40
0.0
 41
0.0
  0
VERTEX
  5
D3
100
AcDbEntity
  8
1
  6
CONTINUOUS
 62
   212
100
AcDbVertex
100
AcDb2dVertex
 10
90.178328
 20
17.799236
 30
0.0
 40
0.0
 41
0.0
  0
VERTEX
  5
D4
100
AcDbEntity
  8
1
  6
CONTINUOUS
 62
   212
100
AcDbVertex
100
AcDb2dVertex
 10
89.269667
 20
17.789508
 30
0.0
 40
0.0
 41
0.0
  0
VERTEX
  5
D5
100
AcDbEntity
  8
1
  6
CONTINUOUS
 62
   212
100
AcDbVertex
100
AcDb2dVertex
 10
88.360243
 20
17.773296
 30
0.0
 40
0.0
 41
0.0
  0
VERTEX
  5
D6
100
AcDbEntity
  8
1
  6
CONTINUOUS
 62
   212
100
AcDbVertex
100
AcDb2dVertex
 10
87.450819
 20
17.751171
 30
0.0
 40
0.0
 41
0.0
  0
VERTEX
  5
D7
100
AcDbEntity
  8
1
  6
CONTINUOUS
 62
   212
100
AcDbVertex
100
AcDb2dVertex
 10
86.542158
 20
17.723419
 30
0.0
 40
0.0
 41
0.0
  0
VERTEX
  5
D8
100
AcDbEntity
  8
1
  6
CONTINUOUS
 62
   212
100
AcDbVertex
100
AcDb2dVertex
 10
85.632734
 20
17.690708
 30
0.0
 40
0.0
 41
0.0
  0
VERTEX
  5
D9
100
AcDbEntity
  8
1
  6
CONTINUOUS
 62
   212
100
AcDbVertex
100
AcDb2dVertex
 10
84.724074
 20
17.653324
 30
0.0
 40
0.0
 41
0.0
  0
VERTEX
  5
DA
100
AcDbEntity
  8
1
  6
CONTINUOUS
 62
   212
100
AcDbVertex
100
AcDb2dVertex
 10
83.81465
 20
17.611743
 30
0.0
 40
0.0
 41
0.0
  0
VERTEX
  5
DB
100
AcDbEntity
  8
1
  6
CONTINUOUS
 62
   212
100
AcDbVertex
100
AcDb2dVertex
 10
82.905989
 20
17.566444
 30
0.0
 40
0.0
 41
0.0
  0
VERTEX
  5
DC
100
AcDbEntity
  8
1
  6
CONTINUOUS
 62
   212
100
AcDbVertex
100
AcDb2dVertex
 10
81.996565
 20
17.517807
 30
0.0
 40
0.0
 41
0.0
  0
VERTEX
  5
DD
100
AcDbEntity
  8
1
  6
CONTINUOUS
 62
   212
100
AcDbVertex
100
AcDb2dVertex
 10
81.087141
 20
17.466213
 30
0.0
 40
0.0
 41
0.0
  0
VERTEX
  5
DE
100
AcDbEntity
  8
1
  6
CONTINUOUS
 62
   212
100
AcDbVertex
100
AcDb2dVertex
 10
80.17848
 20
17.411758
 30
0.0
 40
0.0
 41
0.0
  0
VERTEX
  5
DF
100
AcDbEntity
  8
1
  6
CONTINUOUS
 62
   212
100
AcDbVertex
100
AcDb2dVertex
 10
79.269056
 20
17.354251
 30
0.0
 40
0.0
 41
0.0
  0
VERTEX
  5
E0
100
AcDbEntity
  8
1
  6
CONTINUOUS
 62
   212
100
AcDbVertex
100
AcDb2dVertex
 10
78.359633
 20
17.293693
 30
0.0
 40
0.0
 41
0.0
  0
VERTEX
  5
E1
100
AcDbEntity
  8
1
  6
CONTINUOUS
 62
   212
100
AcDbVertex
100
AcDb2dVertex
 10
77.450209
 20
17.229988
 30
0.0
 40
0.0
 41
0.0
  0
VERTEX
  5
E2
100
AcDbEntity
  8
1
  6
CONTINUOUS
 62
   212
100
AcDbVertex
100
AcDb2dVertex
 10
76.541548
 20
17.16304
 30
0.0
 40
0.0
 41
0.0
  0
VERTEX
  5
E3
100
AcDbEntity
  8
1
  6
CONTINUOUS
 62
   212
100
AcDbVertex
100
AcDb2dVertex
 10
75.632124
 20
17.092849
 30
0.0
 40
0.0
 41
0.0
  0
VERTEX
  5
E4
100
AcDbEntity
  8
1
  6
CONTINUOUS
 62
   212
100
AcDbVertex
100
AcDb2dVertex
 10
74.723463
 20
17.019321
 30
0.0
 40
0.0
 41
0.0
  0
VERTEX
  5
E5
100
AcDbEntity
  8
1
  6
CONTINUOUS
 62
   212
100
AcDbVertex
100
AcDb2dVertex
 10
73.814039
 20
16.942359
 30
0.0
 40
0.0
 41
0.0
  0
VERTEX
  5
E6
100
AcDbEntity
  8
1
  6
CONTINUOUS
 62
   212
100
AcDbVertex
100
AcDb2dVertex
 10
72.905378
 20
16.861869
 30
0.0
 40
0.0
 41
0.0
  0
VERTEX
  5
E7
100
AcDbEntity
  8
1
  6
CONTINUOUS
 62
   212
100
AcDbVertex
100
AcDb2dVertex
 10
71.996718
 20
16.777755
 30
0.0
 40
0.0
 41
0.0
  0
VERTEX
  5
E8
100
AcDbEntity
  8
1
  6
CONTINUOUS
 62
   212
100
AcDbVertex
100
AcDb2dVertex
 10
71.087294
 20
16.690017
 30
0.0
 40
0.0
 41
0.0
  0
VERTEX
  5
E9
100
AcDbEntity
  8
1
  6
CONTINUOUS
 62
   212
100
AcDbVertex
100
AcDb2dVertex
 10
70.17787
 20
16.598846
 30
0.0
 40
0.0
 41
0.0
  0
VERTEX
  5
EA
100
AcDbEntity
  8
1
  6
CONTINUOUS
 62
   212
100
AcDbVertex
100
AcDb2dVertex
 10
69.268446
 20
16.504146
 30
0.0
 40
0.0
 41
0.0
  0
VERTEX
  5
EB
100
AcDbEntity
  8
1
  6
CONTINUOUS
 62
   212
100
AcDbVertex
100
AcDb2dVertex
 10
68.359022
 20
16.406108
 30
0.0
 40
0.0
 41
0.0
  0
VERTEX
  5
EC
100
AcDbEntity
  8
1
  6
CONTINUOUS
 62
   212
100
AcDbVertex
100
AcDb2dVertex
 10
67.450361
 20
16.305019
 30
0.0
 40
0.0
 41
0.0
  0
VERTEX
  5
ED
100
AcDbEntity
  8
1
  6
CONTINUOUS
 62
   212
100
AcDbVertex
100
AcDb2dVertex
 10
66.540938
 20
16.200782
 30
0.0
 40
0.0
 41
0.0
  0
VERTEX
  5
EE
100
AcDbEntity
  8
1
  6
CONTINUOUS
 62
   212
100
AcDbVertex
100
AcDb2dVertex
 10
65.632277
 20
16.093589
 30
0.0
 40
0.0
 41
0.0
  0
VERTEX
  5
EF
100
AcDbEntity
  8
1
  6
CONTINUOUS
 62
   212
100
AcDbVertex
100
AcDb2dVertex
 10
64.722853
 20
15.983631
 30
0.0
 40
0.0
 41
0.0
  0
VERTEX
  5
F0
100
AcDbEntity
  8
1
  6
CONTINUOUS
 62
   212
100
AcDbVertex
100
AcDb2dVertex
 10
63.814192
 20
15.870906
 30
0.0
 40
0.0
 41
0.0
  0
VERTEX
  5
F1
100
AcDbEntity
  8
1
  6
CONTINUOUS
 62
   212
100
AcDbVertex
100
AcDb2dVertex
 10
62.905531
 20
15.755607
 30
0.0
 40
0.0
 41
0.0
  0
VERTEX
  5
F2
100
AcDbEntity
  8
1
  6
CONTINUOUS
 62
   212
100
AcDbVertex
100
AcDb2dVertex
 10
61.99687
 20
15.637828
 30
0.0
 40
0.0
 41
0.0
  0
VERTEX
  5
F3
100
AcDbEntity
  8
1
  6
CONTINUOUS
 62
   212
100
AcDbVertex
100
AcDb2dVertex
 10
61.087446
 20
15.517475
 30
0.0
 40
0.0
 41
0.0
  0
VERTEX
  5
F4
100
AcDbEntity
  8
1
  6
CONTINUOUS
 62
   212
100
AcDbVertex
100
AcDb2dVertex
 10
60.178023
 20
15.394832
 30
0.0
 40
0.0
 41
0.0
  0
VERTEX
  5
F5
100
AcDbEntity
  8
1
  6
CONTINUOUS
 62
   212
100
AcDbVertex
100
AcDb2dVertex
 10
59.268599
 20
15.269615
 30
0.0
 40
0.0
 41
0.0
  0
VERTEX
  5
F6
100
AcDbEntity
  8
1
  6
CONTINUOUS
 62
   212
100
AcDbVertex
100
AcDb2dVertex
 10
58.359175
 20
15.142108
 30
0.0
 40
0.0
 41
0.0
  0
VERTEX
  5
F7
100
AcDbEntity
  8
1
  6
CONTINUOUS
 62
   212
100
AcDbVertex
100
AcDb2dVertex
 10
57.449751
 20
15.012027
 30
0.0
 40
0.0
 41
0.0
  0
VERTEX
  5
F8
100
AcDbEntity
  8
1
  6
CONTINUOUS
 62
   212
100
AcDbVertex
100
AcDb2dVertex
 10
56.54109
 20
14.879467
 30
0.0
 40
0.0
 41
0.0
  0
VERTEX
  5
F9
100
AcDbEntity
  8
1
  6
CONTINUOUS
 62
   212
100
AcDbVertex
100
AcDb2dVertex
 10
55.631666
 20
14.744331
 30
0.0
 40
0.0
 41
0.0
  0
VERTEX
  5
FA
100
AcDbEntity
  8
1
  6
CONTINUOUS
 62
   212
100
AcDbVertex
100
AcDb2dVertex
 10
54.723005
 20
14.60662
 30
0.0
 40
0.0
 41
0.0
  0
VERTEX
  5
FB
100
AcDbEntity
  8
1
  6
CONTINUOUS
 62
   212
100
AcDbVertex
100
AcDb2dVertex
 10
53.814345
 20
14.466335
 30
0.0
 40
0.0
 41
0.0
  0
VERTEX
  5
FC
100
AcDbEntity
  8
1
  6
CONTINUOUS
 62
   212
100
AcDbVertex
100
AcDb2dVertex
 10
52.905684
 20
14.323379
 30
0.0
 40
0.0
 41
0.0
  0
VERTEX
  5
FD
100
AcDbEntity
  8
1
  6
CONTINUOUS
 62
   212
100
AcDbVertex
100
AcDb2dVertex
 10
51.997023
 20
14.177753
 30
0.0
 40
0.0
 41
0.0
  0
VERTEX
  5
FE
100
AcDbEntity
  8
1
  6
CONTINUOUS
 62
   212
100
AcDbVertex
100
AcDb2dVertex
 10
51.086836
 20
14.029361
 30
0.0
 40
0.0
 41
0.0
  0
VERTEX
  5
FF
100
AcDbEntity
  8
1
  6
CONTINUOUS
 62
   212
100
AcDbVertex
100
AcDb2dVertex
 10
50.177412
 20
13.878204
 30
0.0
 40
0.0
 41
0.0
  0
VERTEX
  5
100
100
AcDbEntity
  8
1
  6
CONTINUOUS
 62
   212
100
AcDbVertex
100
AcDb2dVertex
 10
49.267988
 20
13.724376
 30
0.0
 40
0.0
 41
0.0
  0
VERTEX
  5
101
100
AcDbEntity
  8
1
  6
CONTINUOUS
 62
   212
100
AcDbVertex
100
AcDb2dVertex
 10
48.358565
 20
13.567878
 30
0.0
 40
0.0
 41
0.0
  0
VERTEX
  5
102
100
AcDbEntity
  8
1
  6
CONTINUOUS
 62
   212
100
AcDbVertex
100
AcDb2dVertex
 10
47.449904
 20
13.40871
 30
0.0
 40
0.0
 41
0.0
  0
VERTEX
  5
103
100
AcDbEntity
  8
1
  6
CONTINUOUS
 62
   212
100
AcDbVertex
100
AcDb2dVertex
 10
46.54048
 20
13.246871
 30
0.0
 40
0.0
 41
0.0
  0
VERTEX
  5
104
100
AcDbEntity
  8
1
  6
CONTINUOUS
 62
   212
100
AcDbVertex
100
AcDb2dVertex
 10
45.631819
 20
13.082363
 30
0.0
 40
0.0
 41
0.0
  0
VERTEX
  5
105
100
AcDbEntity
  8
1
  6
CONTINUOUS
 62
   212
100
AcDbVertex
100
AcDb2dVertex
 10
44.722395
 20
12.915184
 30
0.0
 40
0.0
 41
0.0
  0
VERTEX
  5
106
100
AcDbEntity
  8
1
  6
CONTINUOUS
 62
   212
100
AcDbVertex
100
AcDb2dVertex
 10
43.813734
 20
12.745334
 30
0.0
 40
0.0
 41
0.0
  0
VERTEX
  5
107
100
AcDbEntity
  8
1
  6
CONTINUOUS
 62
   212
100
AcDbVertex
100
AcDb2dVertex
 10
42.905073
 20
12.57291
 30
0.0
 40
0.0
 41
0.0
  0
VERTEX
  5
108
100
AcDbEntity
  8
1
  6
CONTINUOUS
 62
   212
100
AcDbVertex
100
AcDb2dVertex
 10
41.997175
 20
12.397815
 30
0.0
 40
0.0
 41
0.0
  0
VERTEX
  5
109
100
AcDbEntity
  8
1
  6
CONTINUOUS
 62
   212
100
AcDbVertex
100
AcDb2dVertex
 10
41.086989
 20
12.219764
 30
0.0
 40
0.0
 41
0.0
  0
VERTEX
  5
10A
100
AcDbEntity
  8
1
  6
CONTINUOUS
 62
   212
100
AcDbVertex
100
AcDb2dVertex
 10
40.177565
 20
12.039234
 30
0.0
 40
0.0
 41
0.0
  0
VERTEX
  5
10B
100
AcDbEntity
  8
1
  6
CONTINUOUS
 62
   212
100
AcDbVertex
100
AcDb2dVertex
 10
39.268141
 20
11.856319
 30
0.0
 40
0.0
 41
0.0
  0
VERTEX
  5
10C
100
AcDbEntity
  8
1
  6
CONTINUOUS
 62
   212
100
AcDbVertex
100
AcDb2dVertex
 10
38.358717
 20
11.67102
 30
0.0
 40
0.0
 41
0.0
  0
VERTEX
  5
10D
100
AcDbEntity
  8
1
  6
CONTINUOUS
 62
   212
100
AcDbVertex
100
AcDb2dVertex
 10
37.450056
 20
11.483528
 30
0.0
 40
0.0
 41
0.0
  0
VERTEX
  5
10E
100
AcDbEntity
  8
1
  6
CONTINUOUS
 62
   212
100
AcDbVertex
100
AcDb2dVertex
 10
36.540632
 20
11.293937
 30
0.0
 40
0.0
 41
0.0
  0
VERTEX
  5
10F
100
AcDbEntity
  8
1
  6
CONTINUOUS
 62
   212
100
AcDbVertex
100
AcDb2dVertex
 10
35.631972
 20
11.102249
 30
0.0
 40
0.0
 41
0.0
  0
VERTEX
  5
110
100
AcDbEntity
  8
1
  6
CONTINUOUS
 62
   212
100
AcDbVertex
100
AcDb2dVertex
 10
34.723311
 20
10.908748
 30
0.0
 40
0.0
 41
0.0
  0
VERTEX
  5
111
100
AcDbEntity
  8
1
  6
CONTINUOUS
 62
   212
100
AcDbVertex
100
AcDb2dVertex
 10
33.813887
 20
10.713436
 30
0.0
 40
0.0
 41
0.0
  0
VERTEX
  5
112
100
AcDbEntity
  8
1
  6
CONTINUOUS
 62
   212
100
AcDbVertex
100
AcDb2dVertex
 10
32.905226
 20
10.516407
 30
0.0
 40
0.0
 41
0.0
  0
VERTEX
  5
113
100
AcDbEntity
  8
1
  6
CONTINUOUS
 62
   212
100
AcDbVertex
100
AcDb2dVertex
 10
31.996565
 20
10.317756
 30
0.0
 40
0.0
 41
0.0
  0
VERTEX
  5
114
100
AcDbEntity
  8
1
  6
CONTINUOUS
 62
   212
100
AcDbVertex
100
AcDb2dVertex
 10
31.541853
 20
10.217811
 30
0.0
 40
0.0
 41
0.0
  0
VERTEX
  5
115
100
AcDbEntity
  8
1
  6
CONTINUOUS
 62
   212
100
AcDbVertex
100
AcDb2dVertex
 10
31.087141
 20
10.117198
 30
0.0
 40
0.0
 41
0.0
  0
VERTEX
  5
116
100
AcDbEntity
  8
1
  6
CONTINUOUS
 62
   212
100
AcDbVertex
100
AcDb2dVertex
 10
30.632429
 20
10.015918
 30
0.0
 40
0.0
 41
0.0
  0
VERTEX
  5
117
100
AcDbEntity
  8
1
  6
CONTINUOUS
 62
   212
100
AcDbVertex
100
AcDb2dVertex
 10
30.177717
 20
9.913684
 30
0.0
 40
0.0
 41
0.0
  0
VERTEX
  5
118
100
AcDbEntity
  8
1
  6
CONTINUOUS
 62
   212
100
AcDbVertex
100
AcDb2dVertex
 10
29.723005
 20
9.810401
 30
0.0
 40
0.0
 41
0.0
  0
VERTEX
  5
119
100
AcDbEntity
  8
1
  6
CONTINUOUS
 62
   212
100
AcDbVertex
100
AcDb2dVertex
 10
29.268294
 20
9.705879
 30
0.0
 40
0.0
 41
0.0
  0
VERTEX
  5
11A
100
AcDbEntity
  8
1
  6
CONTINUOUS
 62
   212
100
AcDbVertex
100
AcDb2dVertex
 10
28.813582
 20
9.59983
 30
0.0
 40
0.0
 41
0.0
  0
VERTEX
  5
11B
100
AcDbEntity
  8
1
  6
CONTINUOUS
 62
   212
100
AcDbVertex
100
AcDb2dVertex
 10
28.359633
 20
9.492256
 30
0.0
 40
0.0
 41
0.0
  0
VERTEX
  5
11C
100
AcDbEntity
  8
1
  6
CONTINUOUS
 62
   212
100
AcDbVertex
100
AcDb2dVertex
 10
27.904921
 20
9.382774
 30
0.0
 40
0.0
 41
0.0
  0
VERTEX
  5
11D
100
AcDbEntity
  8
1
  6
CONTINUOUS
 62
   212
100
AcDbVertex
100
AcDb2dVertex
 10
27.450972
 20
9.271385
 30
0.0
 40
0.0
 41
0.0
  0
VERTEX
  5
11E
100
AcDbEntity
  8
1
  6
CONTINUOUS
 62
   212
100
AcDbVertex
100
AcDb2dVertex
 10
26.997023
 20
9.157802
 30
0.0
 40
0.0
 41
0.0
  0
VERTEX
  5
11F
100
AcDbEntity
  8
1
  6
CONTINUOUS
 62
   212
100
AcDbVertex
100
AcDb2dVertex
 10
26.541548
 20
9.041645
 30
0.0
 40
0.0
 41
0.0
  0
VERTEX
  5
120
100
AcDbEntity
  8
1
  6
CONTINUOUS
 62
   212
100
AcDbVertex
100
AcDb2dVertex
 10
26.086836
 20
8.923389
 30
0.0
 40
0.0
 41
0.0
  0
VERTEX
  5
121
100
AcDbEntity
  8
1
  6
CONTINUOUS
 62
   212
100
AcDbVertex
100
AcDb2dVertex
 10
25.632124
 20
8.803131
 30
0.0
 40
0.0
 41
0.0
  0
VERTEX
  5
122
100
AcDbEntity
  8
1
  6
CONTINUOUS
 62
   212
100
AcDbVertex
100
AcDb2dVertex
 10
25.177412
 20
8.681251
 30
0.0
 40
0.0
 41
0.0
  0
VERTEX
  5
123
100
AcDbEntity
  8
1
  6
CONTINUOUS
 62
   212
100
AcDbVertex
100
AcDb2dVertex
 10
24.7227
 20
8.557846
 30
0.0
 40
0.0
 41
0.0
  0
VERTEX
  5
124
100
AcDbEntity
  8
1
  6
CONTINUOUS
 62
   212
100
AcDbVertex
100
AcDb2dVertex
 10
24.268751
 20
8.433105
 30
0.0
 40
0.0
 41
0.0
  0
VERTEX
  5
125
100
AcDbEntity
  8
1
  6
CONTINUOUS
 62
   212
100
AcDbVertex
100
AcDb2dVertex
 10
23.814039
 20
8.307315
 30
0.0
 40
0.0
 41
0.0
  0
VERTEX
  5
126
100
AcDbEntity
  8
1
  6
CONTINUOUS
 62
   212
100
AcDbVertex
100
AcDb2dVertex
 10
23.36009
 20
8.180667
 30
0.0
 40
0.0
 41
0.0
  0
VERTEX
  5
127
100
AcDbEntity
  8
1
  6
CONTINUOUS
 62
   212
100
AcDbVertex
100
AcDb2dVertex
 10
22.905378
 20
8.053447
 30
0.0
 40
0.0
 41
0.0
  0
VERTEX
  5
128
100
AcDbEntity
  8
1
  6
CONTINUOUS
 62
   212
100
AcDbVertex
100
AcDb2dVertex
 10
22.45143
 20
7.92575
 30
0.0
 40
0.0
 41
0.0
  0
VERTEX
  5
129
100
AcDbEntity
  8
1
  6
CONTINUOUS
 62
   212
100
AcDbVertex
100
AcDb2dVertex
 10
21.996718
 20
7.797767
 30
0.0
 40
0.0
 41
0.0
  0
SEQEND
  5
12A
100
AcDbEntity
  8
0
  0
POLYLINE
  5
12B
100
AcDbEntity
  8
1
  6
CONTINUOUS
 62
   212
100
AcDb2dPolyline
 66
     1
 10
0.0
 20
0.0
 30
0.0
 70
   128
  0
VERTEX
  5
12C
100
AcDbEntity
  8
1
  6
CONTINUOUS
 62
   212
100
AcDbVertex
100
AcDb2dVertex
 10
120.747185
 20
7.804487
 30
0.0
 40
0.0
 41
0.0
  0
VERTEX
  5
12D
100
AcDbEntity
  8
1
  6
CONTINUOUS
 62
   212
100
AcDbVertex
100
AcDb2dVertex
 10
120.747185
 20
5.484483
 30
0.0
 40
0.0
 41
0.0
  0
SEQEND
  5
12E
100
AcDbEntity
  8
0
  0
POLYLINE
  5
12F
100
AcDbEntity
  8
1
  6
CONTINUOUS
 62
   212
100
AcDb2dPolyline
 66
     1
 10
0.0
 20
0.0
 30
0.0
 70
   128
  0
VERTEX
  5
130
100
AcDbEntity
  8
1
  6
CONTINUOUS
 62
   212
100
AcDbVertex
100
AcDb2dVertex
 10
119.496727
 20
7.804487
 30
0.0
 40
0.0
 41
0.0
  0
VERTEX
  5
131
100
AcDbEntity
  8
1
  6
CONTINUOUS
 62
   212
100
AcDbVertex
100
AcDb2dVertex
 10
119.496727
 20
4.404447
 30
0.0
 40
0.0
 41
0.0
  0
SEQEND
  5
132
100
AcDbEntity
  8
0
  0
POLYLINE
  5
133
100
AcDbEntity
  8
1
  6
CONTINUOUS
 62
   212
100
AcDb2dPolyline
 66
     1
 10
0.0
 20
0.0
 30
0.0
 70
   128
  0
VERTEX
  5
134
100
AcDbEntity
  8
1
  6
CONTINUOUS
 62
   212
100
AcDbVertex
100
AcDb2dVertex
 10
116.997337
 20
7.804487
 30
0.0
 40
0.0
 41
0.0
  0
VERTEX
  5
135
100
AcDbEntity
  8
1
  6
CONTINUOUS
 62
   212
100
AcDbVertex
100
AcDb2dVertex
 10
116.997337
 20
2.944467
 30
0.0
 40
0.0
 41
0.0
  0
SEQEND
  5
136
100
AcDbEntity
  8
0
  0
POLYLINE
  5
137
100
AcDbEntity
  8
1
  6
CONTINUOUS
 62
   212
100
AcDb2dPolyline
 66
     1
 10
0.0
 20
0.0
 30
0.0
 70
   128
  0
VERTEX
  5
138
100
AcDbEntity
  8
1
  6
CONTINUOUS
 62
   212
100
AcDbVertex
100
AcDb2dVertex
 10
114.497185
 20
7.804487
 30
0.0
 40
0.0
 41
0.0
  0
VERTEX
  5
139
100
AcDbEntity
  8
1
  6
CONTINUOUS
 62
   212
100
AcDbVertex
100
AcDb2dVertex
 10
114.497185
 20
1.784418
 30
0.0
 40
0.0
 41
0.0
  0
SEQEND
  5
13A
100
AcDbEntity
  8
0
  0
POLYLINE
  5
13B
100
AcDbEntity
  8
1
  6
CONTINUOUS
 62
   212
100
AcDb2dPolyline
 66
     1
 10
0.0
 20
0.0
 30
0.0
 70
   128
  0
VERTEX
  5
13C
100
AcDbEntity
  8
1
  6
CONTINUOUS
 62
   212
100
AcDbVertex
100
AcDb2dVertex
 10
111.997032
 20
7.804487
 30
0.0
 40
0.0
 41
0.0
  0
VERTEX
  5
13D
100
AcDbEntity
  8
1
  6
CONTINUOUS
 62
   212
100
AcDbVertex
100
AcDb2dVertex
 10
111.997032
 20
0.844476
 30
0.0
 40
0.0
 41
0.0
  0
SEQEND
  5
13E
100
AcDbEntity
  8
0
  0
POLYLINE
  5
13F
100
AcDbEntity
  8
1
  6
CONTINUOUS
 62
   212
100
AcDb2dPolyline
 66
     1
 10
0.0
 20
0.0
 30
0.0
 70
   128
  0
VERTEX
  5
140
100
AcDbEntity
  8
1
  6
CONTINUOUS
 62
   212
100
AcDbVertex
100
AcDb2dVertex
 10
106.996727
 20
7.804487
 30
0.0
 40
0.0
 41
0.0
  0
VERTEX
  5
141
100
AcDbEntity
  8
1
  6
CONTINUOUS
 62
   212
100
AcDbVertex
100
AcDb2dVertex
 10
106.996727
 20
-0.555518
 30
0.0
 40
0.0
 41
0.0
  0
SEQEND
  5
142
100
AcDbEntity
  8
0
  0
POLYLINE
  5
143
100
AcDbEntity
  8
1
  6
CONTINUOUS
 62
   212
100
AcDb2dPolyline
 66
     1
 10
0.0
 20
0.0
 30
0.0
 70
   128
  0
VERTEX
  5
144
100
AcDbEntity
  8
1
  6
CONTINUOUS
 62
   212
100
AcDbVertex
100
AcDb2dVertex
 10
101.997185
 20
7.804487
 30
0.0
 40
0.0
 41
0.0
  0
VERTEX
  5
145
100
AcDbEntity
  8
1
  6
CONTINUOUS
 62
   212
100
AcDbVertex
100
AcDb2dVertex
 10
101.997185
 20
-1.495555
 30
0.0
 40
0.0
 41
0.0
  0
SEQEND
  5
146
100
AcDbEntity
  8
0
  0
POLYLINE
  5
147
100
AcDbEntity
  8
1
  6
CONTINUOUS
 62
   212
100
AcDb2dPolyline
 66
     1
 10
0.0
 20
0.0
 30
0.0
 70
   128
  0
VERTEX
  5
148
100
AcDbEntity
  8
1
  6
CONTINUOUS
 62
   212
100
AcDbVertex
100
AcDb2dVertex
 10
96.996879
 20
7.804487
 30
0.0
 40
0.0
 41
0.0
  0
VERTEX
  5
149
100
AcDbEntity
  8
1
  6
CONTINUOUS
 62
   212
100
AcDbVertex
100
AcDb2dVertex
 10
96.996879
 20
-2.015498
 30
0.0
 40
0.0
 41
0.0
  0
SEQEND
  5
14A
100
AcDbEntity
  8
0
  0
POLYLINE
  5
14B
100
AcDbEntity
  8
1
  6
CONTINUOUS
 62
   212
100
AcDb2dPolyline
 66
     1
 10
0.0
 20
0.0
 30
0.0
 70
   128
  0
VERTEX
  5
14C
100
AcDbEntity
  8
1
  6
CONTINUOUS
 62
   212
100
AcDbVertex
100
AcDb2dVertex
 10
91.997337
 20
7.804487
 30
0.0
 40
0.0
 41
0.0
  0
VERTEX
  5
14D
100
AcDbEntity
  8
1
  6
CONTINUOUS
 62
   212
100
AcDbVertex
100
AcDb2dVertex
 10
91.997337
 20
-2.195551
 30
0.0
 40
0.0
 41
0.0
  0
SEQEND
  5
14E
100
AcDbEntity
  8
0
  0
POLYLINE
  5
14F
100
AcDbEntity
  8
1
  6
CONTINUOUS
 62
   212
100
AcDb2dPolyline
 66
     1
 10
0.0
 20
0.0
 30
0.0
 70
   128
  0
VERTEX
  5
150
100
AcDbEntity
  8
1
  6
CONTINUOUS
 62
   212
100
AcDbVertex
100
AcDb2dVertex
 10
81.996727
 20
7.804487
 30
0.0
 40
0.0
 41
0.0
  0
VERTEX
  5
151
100
AcDbEntity
  8
1
  6
CONTINUOUS
 62
   212
100
AcDbVertex
100
AcDb2dVertex
 10
81.996727
 20
-1.915553
 30
0.0
 40
0.0
 41
0.0
  0
SEQEND
  5
152
100
AcDbEntity
  8
0
  0
POLYLINE
  5
153
100
AcDbEntity
  8
1
  6
CONTINUOUS
 62
   212
100
AcDb2dPolyline
 66
     1
 10
0.0
 20
0.0
 30
0.0
 70
   128
  0
VERTEX
  5
154
100
AcDbEntity
  8
1
  6
CONTINUOUS
 62
   212
100
AcDbVertex
100
AcDb2dVertex
 10
71.996879
 20
7.804487
 30
0.0
 40
0.0
 41
0.0
  0
VERTEX
  5
155
100
AcDbEntity
  8
1
  6
CONTINUOUS
 62
   212
100
AcDbVertex
100
AcDb2dVertex
 10
71.996879
 20
-1.175501
 30
0.0
 40
0.0
 41
0.0
  0
SEQEND
  5
156
100
AcDbEntity
  8
0
  0
POLYLINE
  5
157
100
AcDbEntity
  8
1
  6
CONTINUOUS
 62
   212
100
AcDb2dPolyline
 66
     1
 10
0.0
 20
0.0
 30
0.0
 70
   128
  0
VERTEX
  5
158
100
AcDbEntity
  8
1
  6
CONTINUOUS
 62
   212
100
AcDbVertex
100
AcDb2dVertex
 10
61.997032
 20
7.804487
 30
0.0
 40
0.0
 41
0.0
  0
VERTEX
  5
159
100
AcDbEntity
  8
1
  6
CONTINUOUS
 62
   212
100
AcDbVertex
100
AcDb2dVertex
 10
61.997032
 20
-0.035575
 30
0.0
 40
0.0
 41
0.0
  0
SEQEND
  5
15A
100
AcDbEntity
  8
0
  0
POLYLINE
  5
15B
100
AcDbEntity
  8
1
  6
CONTINUOUS
 62
   212
100
AcDb2dPolyline
 66
     1
 10
0.0
 20
0.0
 30
0.0
 70
   128
  0
VERTEX
  5
15C
100
AcDbEntity
  8
1
  6
CONTINUOUS
 62
   212
100
AcDbVertex
100
AcDb2dVertex
 10
51.997185
 20
7.804487
 30
0.0
 40
0.0
 41
0.0
  0
VERTEX
  5
15D
100
AcDbEntity
  8
1
  6
CONTINUOUS
 62
   212
100
AcDbVertex
100
AcDb2dVertex
 10
51.997185
 20
1.424501
 30
0.0
 40
0.0
 41
0.0
  0
SEQEND
  5
15E
100
AcDbEntity
  8
0
  0
POLYLINE
  5
15F
100
AcDbEntity
  8
1
  6
CONTINUOUS
 62
   212
100
AcDb2dPolyline
 66
     1
 10
0.0
 20
0.0
 30
0.0
 70
   128
  0
VERTEX
  5
160
100
AcDbEntity
  8
1
  6
CONTINUOUS
 62
   212
100
AcDbVertex
100
AcDb2dVertex
 10
41.997337
 20
7.804487
 30
0.0
 40
0.0
 41
0.0
  0
VERTEX
  5
161
100
AcDbEntity
  8
1
  6
CONTINUOUS
 62
   212
100
AcDbVertex
100
AcDb2dVertex
 10
41.997337
 20
3.204439
 30
0.0
 40
0.0
 41
0.0
  0
SEQEND
  5
162
100
AcDbEntity
  8
0
  0
POLYLINE
  5
163
100
AcDbEntity
  8
1
  6
CONTINUOUS
 62
   212
100
AcDb2dPolyline
 66
     1
 10
0.0
 20
0.0
 30
0.0
 70
   128
  0
VERTEX
  5
164
100
AcDbEntity
  8
1
  6
CONTINUOUS
 62
   212
100
AcDbVertex
100
AcDb2dVertex
 10
31.996727
 20
7.804487
 30
0.0
 40
0.0
 41
0.0
  0
VERTEX
  5
165
100
AcDbEntity
  8
1
  6
CONTINUOUS
 62
   212
100
AcDbVertex
100
AcDb2dVertex
 10
31.996727
 20
5.284498
 30
0.0
 40
0.0
 41
0.0
  0
SEQEND
  5
166
100
AcDbEntity
  8
0
  0
POLYLINE
  5
167
100
AcDbEntity
  8
1
  6
CONTINUOUS
 62
   212
100
AcDb2dPolyline
 66
     1
 10
0.0
 20
0.0
 30
0.0
 70
   128
  0
VERTEX
  5
168
100
AcDbEntity
  8
1
  6
CONTINUOUS
 62
   212
100
AcDbVertex
100
AcDb2dVertex
 10
26.997185
 20
7.804487
 30
0.0
 40
0.0
 41
0.0
  0
VERTEX
  5
169
100
AcDbEntity
  8
1
  6
CONTINUOUS
 62
   212
100
AcDbVertex
100
AcDb2dVertex
 10
26.997185
 20
6.444452
 30
0.0
 40
0.0
 41
0.0
  0
SEQEND
  5
16A
100
AcDbEntity
  8
0
  0
POLYLINE
  5
16B
100
AcDbEntity
  8
1
  6
CONTINUOUS
 62
   212
100
AcDb2dPolyline
 66
     1
 10
0.0
 20
0.0
 30
0.0
 70
   128
  0
VERTEX
  5
16C
100
AcDbEntity
  8
1
  6
CONTINUOUS
 62
   212
100
AcDbVertex
100
AcDb2dVertex
 10
121.996879
 20
7.804487
 30
0.0
 40
0.0
 41
0.0
  0
VERTEX
  5
16D
100
AcDbEntity
  8
1
  6
CONTINUOUS
 62
   212
100
AcDbVertex
100
AcDb2dVertex
 10
121.891594
 20
7.569978
 30
0.0
 40
0.0
 41
0.0
  0
VERTEX
  5
16E
100
AcDbEntity
  8
1
  6
CONTINUOUS
 62
   212
100
AcDbVertex
100
AcDb2dVertex
 10
121.785545
 20
7.336709
 30
0.0
 40
0.0
 41
0.0
  0
VERTEX
  5
16F
100
AcDbEntity
  8
1
  6
CONTINUOUS
 62
   212
100
AcDbVertex
100
AcDb2dVertex
 10
121.677971
 20
7.10573
 30
0.0
 40
0.0
 41
0.0
  0
VERTEX
  5
170
100
AcDbEntity
  8
1
  6
CONTINUOUS
 62
   212
100
AcDbVertex
100
AcDb2dVertex
 10
121.570396
 20
6.878374
 30
0.0
 40
0.0
 41
0.0
  0
VERTEX
  5
171
100
AcDbEntity
  8
1
  6
CONTINUOUS
 62
   212
100
AcDbVertex
100
AcDb2dVertex
 10
121.460533
 20
6.655691
 30
0.0
 40
0.0
 41
0.0
  0
VERTEX
  5
172
100
AcDbEntity
  8
1
  6
CONTINUOUS
 62
   212
100
AcDbVertex
100
AcDb2dVertex
 10
121.349144
 20
6.43892
 30
0.0
 40
0.0
 41
0.0
  0
VERTEX
  5
173
100
AcDbEntity
  8
1
  6
CONTINUOUS
 62
   212
100
AcDbVertex
100
AcDb2dVertex
 10
121.234703
 20
6.229112
 30
0.0
 40
0.0
 41
0.0
  0
VERTEX
  5
174
100
AcDbEntity
  8
1
  6
CONTINUOUS
 62
   212
100
AcDbVertex
100
AcDb2dVertex
 10
121.117973
 20
6.027696
 30
0.0
 40
0.0
 41
0.0
  0
VERTEX
  5
175
100
AcDbEntity
  8
1
  6
CONTINUOUS
 62
   212
100
AcDbVertex
100
AcDb2dVertex
 10
120.998192
 20
5.835626
 30
0.0
 40
0.0
 41
0.0
  0
VERTEX
  5
176
100
AcDbEntity
  8
1
  6
CONTINUOUS
 62
   212
100
AcDbVertex
100
AcDb2dVertex
 10
120.874595
 20
5.654142
 30
0.0
 40
0.0
 41
0.0
  0
VERTEX
  5
177
100
AcDbEntity
  8
1
  6
CONTINUOUS
 62
   212
100
AcDbVertex
100
AcDb2dVertex
 10
120.747185
 20
5.484483
 30
0.0
 40
0.0
 41
0.0
  0
VERTEX
  5
178
100
AcDbEntity
  8
1
  6
CONTINUOUS
 62
   212
100
AcDbVertex
100
AcDb2dVertex
 10
120.641899
 20
5.358026
 30
0.0
 40
0.0
 41
0.0
  0
VERTEX
  5
179
100
AcDbEntity
  8
1
  6
CONTINUOUS
 62
   212
100
AcDbVertex
100
AcDb2dVertex
 10
120.535087
 20
5.239198
 30
0.0
 40
0.0
 41
0.0
  0
VERTEX
  5
17A
100
AcDbEntity
  8
1
  6
CONTINUOUS
 62
   212
100
AcDbVertex
100
AcDb2dVertex
 10
120.425224
 20
5.127237
 30
0.0
 40
0.0
 41
0.0
  0
VERTEX
  5
17B
100
AcDbEntity
  8
1
  6
CONTINUOUS
 62
   212
100
AcDbVertex
100
AcDb2dVertex
 10
120.313835
 20
5.021665
 30
0.0
 40
0.0
 41
0.0
  0
VERTEX
  5
17C
100
AcDbEntity
  8
1
  6
CONTINUOUS
 62
   212
100
AcDbVertex
100
AcDb2dVertex
 10
120.200157
 20
4.921815
 30
0.0
 40
0.0
 41
0.0
  0
VERTEX
  5
17D
100
AcDbEntity
  8
1
  6
CONTINUOUS
 62
   212
100
AcDbVertex
100
AcDb2dVertex
 10
120.084953
 20
4.826829
 30
0.0
 40
0.0
 41
0.0
  0
VERTEX
  5
17E
100
AcDbEntity
  8
1
  6
CONTINUOUS
 62
   212
100
AcDbVertex
100
AcDb2dVertex
 10
119.968986
 20
4.73623
 30
0.0
 40
0.0
 41
0.0
  0
VERTEX
  5
17F
100
AcDbEntity
  8
1
  6
CONTINUOUS
 62
   212
100
AcDbVertex
100
AcDb2dVertex
 10
119.851494
 20
4.649446
 30
0.0
 40
0.0
 41
0.0
  0
VERTEX
  5
180
100
AcDbEntity
  8
1
  6
CONTINUOUS
 62
   212
100
AcDbVertex
100
AcDb2dVertex
 10
119.734001
 20
4.565618
 30
0.0
 40
0.0
 41
0.0
  0
VERTEX
  5
181
100
AcDbEntity
  8
1
  6
CONTINUOUS
 62
   212
100
AcDbVertex
100
AcDb2dVertex
 10
119.615745
 20
4.484174
 30
0.0
 40
0.0
 41
0.0
  0
VERTEX
  5
182
100
AcDbEntity
  8
1
  6
CONTINUOUS
 62
   212
100
AcDbVertex
100
AcDb2dVertex
 10
119.496727
 20
4.404447
 30
0.0
 40
0.0
 41
0.0
  0
VERTEX
  5
183
100
AcDbEntity
  8
1
  6
CONTINUOUS
 62
   212
100
AcDbVertex
100
AcDb2dVertex
 10
119.270134
 20
4.255292
 30
0.0
 40
0.0
 41
0.0
  0
VERTEX
  5
184
100
AcDbEntity
  8
1
  6
CONTINUOUS
 62
   212
100
AcDbVertex
100
AcDb2dVertex
 10
119.043541
 20
4.109857
 30
0.0
 40
0.0
 41
0.0
  0
VERTEX
  5
185
100
AcDbEntity
  8
1
  6
CONTINUOUS
 62
   212
100
AcDbVertex
100
AcDb2dVertex
 10
118.816948
 20
3.968141
 30
0.0
 40
0.0
 41
0.0
  0
VERTEX
  5
186
100
AcDbEntity
  8
1
  6
CONTINUOUS
 62
   212
100
AcDbVertex
100
AcDb2dVertex
 10
118.589592
 20
3.829858
 30
0.0
 40
0.0
 41
0.0
  0
VERTEX
  5
187
100
AcDbEntity
  8
1
  6
CONTINUOUS
 62
   212
100
AcDbVertex
100
AcDb2dVertex
 10
118.362999
 20
3.694913
 30
0.0
 40
0.0
 41
0.0
  0
VERTEX
  5
188
100
AcDbEntity
  8
1
  6
CONTINUOUS
 62
   212
100
AcDbVertex
100
AcDb2dVertex
 10
118.136406
 20
3.56302
 30
0.0
 40
0.0
 41
0.0
  0
VERTEX
  5
189
100
AcDbEntity
  8
1
  6
CONTINUOUS
 62
   212
100
AcDbVertex
100
AcDb2dVertex
 10
117.90905
 20
3.434179
 30
0.0
 40
0.0
 41
0.0
  0
VERTEX
  5
18A
100
AcDbEntity
  8
1
  6
CONTINUOUS
 62
   212
100
AcDbVertex
100
AcDb2dVertex
 10
117.681694
 20
3.308008
 30
0.0
 40
0.0
 41
0.0
  0
VERTEX
  5
18B
100
AcDbEntity
  8
1
  6
CONTINUOUS
 62
   212
100
AcDbVertex
100
AcDb2dVertex
 10
117.453575
 20
3.184411
 30
0.0
 40
0.0
 41
0.0
  0
VERTEX
  5
18C
100
AcDbEntity
  8
1
  6
CONTINUOUS
 62
   212
100
AcDbVertex
100
AcDb2dVertex
 10
117.225456
 20
3.063295
 30
0.0
 40
0.0
 41
0.0
  0
VERTEX
  5
18D
100
AcDbEntity
  8
1
  6
CONTINUOUS
 62
   212
100
AcDbVertex
100
AcDb2dVertex
 10
116.997337
 20
2.944467
 30
0.0
 40
0.0
 41
0.0
  0
VERTEX
  5
18E
100
AcDbEntity
  8
1
  6
CONTINUOUS
 62
   212
100
AcDbVertex
100
AcDb2dVertex
 10
116.771507
 20
2.829359
 30
0.0
 40
0.0
 41
0.0
  0
VERTEX
  5
18F
100
AcDbEntity
  8
1
  6
CONTINUOUS
 62
   212
100
AcDbVertex
100
AcDb2dVertex
 10
116.545677
 20
2.716253
 30
0.0
 40
0.0
 41
0.0
  0
VERTEX
  5
190
100
AcDbEntity
  8
1
  6
CONTINUOUS
 62
   212
100
AcDbVertex
100
AcDb2dVertex
 10
116.319084
 20
2.60515
 30
0.0
 40
0.0
 41
0.0
  0
VERTEX
  5
191
100
AcDbEntity
  8
1
  6
CONTINUOUS
 62
   212
100
AcDbVertex
100
AcDb2dVertex
 10
116.092491
 20
2.495954
 30
0.0
 40
0.0
 41
0.0
  0
VERTEX
  5
192
100
AcDbEntity
  8
1
  6
CONTINUOUS
 62
   212
100
AcDbVertex
100
AcDb2dVertex
 10
115.865135
 20
2.388666
 30
0.0
 40
0.0
 41
0.0
  0
VERTEX
  5
193
100
AcDbEntity
  8
1
  6
CONTINUOUS
 62
   212
100
AcDbVertex
100
AcDb2dVertex
 10
115.637779
 20
2.283285
 30
0.0
 40
0.0
 41
0.0
  0
VERTEX
  5
194
100
AcDbEntity
  8
1
  6
CONTINUOUS
 62
   212
100
AcDbVertex
100
AcDb2dVertex
 10
115.40966
 20
2.179906
 30
0.0
 40
0.0
 41
0.0
  0
VERTEX
  5
195
100
AcDbEntity
  8
1
  6
CONTINUOUS
 62
   212
100
AcDbVertex
100
AcDb2dVertex
 10
115.182304
 20
2.078245
 30
0.0
 40
0.0
 41
0.0
  0
VERTEX
  5
196
100
AcDbEntity
  8
1
  6
CONTINUOUS
 62
   212
100
AcDbVertex
100
AcDb2dVertex
 10
114.954185
 20
1.97849
 30
0.0
 40
0.0
 41
0.0
  0
VERTEX
  5
197
100
AcDbEntity
  8
1
  6
CONTINUOUS
 62
   212
100
AcDbVertex
100
AcDb2dVertex
 10
114.725304
 20
1.880548
 30
0.0
 40
0.0
 41
0.0
  0
VERTEX
  5
198
100
AcDbEntity
  8
1
  6
CONTINUOUS
 62
   212
100
AcDbVertex
100
AcDb2dVertex
 10
114.497185
 20
1.784418
 30
0.0
 40
0.0
 41
0.0
  0
VERTEX
  5
199
100
AcDbEntity
  8
1
  6
CONTINUOUS
 62
   212
100
AcDbVertex
100
AcDb2dVertex
 10
114.270592
 20
1.690957
 30
0.0
 40
0.0
 41
0.0
  0
VERTEX
  5
19A
100
AcDbEntity
  8
1
  6
CONTINUOUS
 62
   212
100
AcDbVertex
100
AcDb2dVertex
 10
114.043999
 20
1.599119
 30
0.0
 40
0.0
 41
0.0
  0
VERTEX
  5
19B
100
AcDbEntity
  8
1
  6
CONTINUOUS
 62
   212
100
AcDbVertex
100
AcDb2dVertex
 10
113.816643
 20
1.508996
 30
0.0
 40
0.0
 41
0.0
  0
VERTEX
  5
19C
100
AcDbEntity
  8
1
  6
CONTINUOUS
 62
   212
100
AcDbVertex
100
AcDb2dVertex
 10
113.59005
 20
1.420495
 30
0.0
 40
0.0
 41
0.0
  0
VERTEX
  5
19D
100
AcDbEntity
  8
1
  6
CONTINUOUS
 62
   212
100
AcDbVertex
100
AcDb2dVertex
 10
113.362694
 20
1.333711
 30
0.0
 40
0.0
 41
0.0
  0
VERTEX
  5
19E
100
AcDbEntity
  8
1
  6
CONTINUOUS
 62
   212
100
AcDbVertex
100
AcDb2dVertex
 10
113.135338
 20
1.248357
 30
0.0
 40
0.0
 41
0.0
  0
VERTEX
  5
19F
100
AcDbEntity
  8
1
  6
CONTINUOUS
 62
   212
100
AcDbVertex
100
AcDb2dVertex
 10
112.907982
 20
1.164625
 30
0.0
 40
0.0
 41
0.0
  0
VERTEX
  5
1A0
100
AcDbEntity
  8
1
  6
CONTINUOUS
 62
   212
100
AcDbVertex
100
AcDb2dVertex
 10
112.680626
 20
1.082418
 30
0.0
 40
0.0
 41
0.0
  0
VERTEX
  5
1A1
100
AcDbEntity
  8
1
  6
CONTINUOUS
 62
   212
100
AcDbVertex
100
AcDb2dVertex
 10
112.452507
 20
1.001642
 30
0.0
 40
0.0
 41
0.0
  0
VERTEX
  5
1A2
100
AcDbEntity
  8
1
  6
CONTINUOUS
 62
   212
100
AcDbVertex
100
AcDb2dVertex
 10
112.225151
 20
0.922391
 30
0.0
 40
0.0
 41
0.0
  0
VERTEX
  5
1A3
100
AcDbEntity
  8
1
  6
CONTINUOUS
 62
   212
100
AcDbVertex
100
AcDb2dVertex
 10
111.997032
 20
0.844476
 30
0.0
 40
0.0
 41
0.0
  0
VERTEX
  5
1A4
100
AcDbEntity
  8
1
  6
CONTINUOUS
 62
   212
100
AcDbVertex
100
AcDb2dVertex
 10
111.544609
 20
0.693891
 30
0.0
 40
0.0
 41
0.0
  0
VERTEX
  5
1A5
100
AcDbEntity
  8
1
  6
CONTINUOUS
 62
   212
100
AcDbVertex
100
AcDb2dVertex
 10
111.091423
 20
0.548456
 30
0.0
 40
0.0
 41
0.0
  0
VERTEX
  5
1A6
100
AcDbEntity
  8
1
  6
CONTINUOUS
 62
   212
100
AcDbVertex
100
AcDb2dVertex
 10
110.637474
 20
0.40817
 30
0.0
 40
0.0
 41
0.0
  0
VERTEX
  5
1A7
100
AcDbEntity
  8
1
  6
CONTINUOUS
 62
   212
100
AcDbVertex
100
AcDb2dVertex
 10
110.183525
 20
0.272653
 30
0.0
 40
0.0
 41
0.0
  0
VERTEX
  5
1A8
100
AcDbEntity
  8
1
  6
CONTINUOUS
 62
   212
100
AcDbVertex
100
AcDb2dVertex
 10
109.729576
 20
0.141809
 30
0.0
 40
0.0
 41
0.0
  0
VERTEX
  5
1A9
100
AcDbEntity
  8
1
  6
CONTINUOUS
 62
   212
100
AcDbVertex
100
AcDb2dVertex
 10
109.274864
 20
0.015447
 30
0.0
 40
0.0
 41
0.0
  0
VERTEX
  5
1AA
100
AcDbEntity
  8
1
  6
CONTINUOUS
 62
   212
100
AcDbVertex
100
AcDb2dVertex
 10
108.819389
 20
-0.106623
 30
0.0
 40
0.0
 41
0.0
  0
VERTEX
  5
1AB
100
AcDbEntity
  8
1
  6
CONTINUOUS
 62
   212
100
AcDbVertex
100
AcDb2dVertex
 10
108.364677
 20
-0.224593
 30
0.0
 40
0.0
 41
0.0
  0
VERTEX
  5
1AC
100
AcDbEntity
  8
1
  6
CONTINUOUS
 62
   212
100
AcDbVertex
100
AcDb2dVertex
 10
107.908439
 20
-0.338557
 30
0.0
 40
0.0
 41
0.0
  0
VERTEX
  5
1AD
100
AcDbEntity
  8
1
  6
CONTINUOUS
 62
   212
100
AcDbVertex
100
AcDb2dVertex
 10
107.452965
 20
-0.448802
 30
0.0
 40
0.0
 41
0.0
  0
VERTEX
  5
1AE
100
AcDbEntity
  8
1
  6
CONTINUOUS
 62
   212
100
AcDbVertex
100
AcDb2dVertex
 10
106.996727
 20
-0.555518
 30
0.0
 40
0.0
 41
0.0
  0
VERTEX
  5
1AF
100
AcDbEntity
  8
1
  6
CONTINUOUS
 62
   212
100
AcDbVertex
100
AcDb2dVertex
 10
106.543541
 20
-0.658324
 30
0.0
 40
0.0
 41
0.0
  0
VERTEX
  5
1B0
100
AcDbEntity
  8
1
  6
CONTINUOUS
 62
   212
100
AcDbVertex
100
AcDb2dVertex
 10
106.089592
 20
-0.757601
 30
0.0
 40
0.0
 41
0.0
  0
VERTEX
  5
1B1
100
AcDbEntity
  8
1
  6
CONTINUOUS
 62
   212
100
AcDbVertex
100
AcDb2dVertex
 10
105.635643
 20
-0.853636
 30
0.0
 40
0.0
 41
0.0
  0
VERTEX
  5
1B2
100
AcDbEntity
  8
1
  6
CONTINUOUS
 62
   212
100
AcDbVertex
100
AcDb2dVertex
 10
105.180931
 20
-0.946143
 30
0.0
 40
0.0
 41
0.0
  0
VERTEX
  5
1B3
100
AcDbEntity
  8
1
  6
CONTINUOUS
 62
   212
100
AcDbVertex
100
AcDb2dVertex
 10
104.726982
 20
-1.035216
 30
0.0
 40
0.0
 41
0.0
  0
VERTEX
  5
1B4
100
AcDbEntity
  8
1
  6
CONTINUOUS
 62
   212
100
AcDbVertex
100
AcDb2dVertex
 10
104.27227
 20
-1.120856
 30
0.0
 40
0.0
 41
0.0
  0
VERTEX
  5
1B5
100
AcDbEntity
  8
1
  6
CONTINUOUS
 62
   212
100
AcDbVertex
100
AcDb2dVertex
 10
103.817558
 20
-1.202872
 30
0.0
 40
0.0
 41
0.0
  0
VERTEX
  5
1B6
100
AcDbEntity
  8
1
  6
CONTINUOUS
 62
   212
100
AcDbVertex
100
AcDb2dVertex
 10
103.362846
 20
-1.281455
 30
0.0
 40
0.0
 41
0.0
  0
VERTEX
  5
1B7
100
AcDbEntity
  8
1
  6
CONTINUOUS
 62
   212
100
AcDbVertex
100
AcDb2dVertex
 10
102.907371
 20
-1.356413
 30
0.0
 40
0.0
 41
0.0
  0
VERTEX
  5
1B8
100
AcDbEntity
  8
1
  6
CONTINUOUS
 62
   212
100
AcDbVertex
100
AcDb2dVertex
 10
102.452659
 20
-1.427748
 30
0.0
 40
0.0
 41
0.0
  0
VERTEX
  5
1B9
100
AcDbEntity
  8
1
  6
CONTINUOUS
 62
   212
100
AcDbVertex
100
AcDb2dVertex
 10
101.997185
 20
-1.495555
 30
0.0
 40
0.0
 41
0.0
  0
VERTEX
  5
1BA
100
AcDbEntity
  8
1
  6
CONTINUOUS
 62
   212
100
AcDbVertex
100
AcDb2dVertex
 10
101.543236
 20
-1.559451
 30
0.0
 40
0.0
 41
0.0
  0
VERTEX
  5
1BB
100
AcDbEntity
  8
1
  6
CONTINUOUS
 62
   212
100
AcDbVertex
100
AcDb2dVertex
 10
101.088524
 20
-1.619914
 30
0.0
 40
0.0
 41
0.0
  0
VERTEX
  5
1BC
100
AcDbEntity
  8
1
  6
CONTINUOUS
 62
   212
100
AcDbVertex
100
AcDb2dVertex
 10
100.634575
 20
-1.676753
 30
0.0
 40
0.0
 41
0.0
  0
VERTEX
  5
1BD
100
AcDbEntity
  8
1
  6
CONTINUOUS
 62
   212
100
AcDbVertex
100
AcDb2dVertex
 10
100.179863
 20
-1.730254
 30
0.0
 40
0.0
 41
0.0
  0
VERTEX
  5
1BE
100
AcDbEntity
  8
1
  6
CONTINUOUS
 62
   212
100
AcDbVertex
100
AcDb2dVertex
 10
99.725914
 20
-1.780417
 30
0.0
 40
0.0
 41
0.0
  0
VERTEX
  5
1BF
100
AcDbEntity
  8
1
  6
CONTINUOUS
 62
   212
100
AcDbVertex
100
AcDb2dVertex
 10
99.271202
 20
-1.827338
 30
0.0
 40
0.0
 41
0.0
  0
VERTEX
  5
1C0
100
AcDbEntity
  8
1
  6
CONTINUOUS
 62
   212
100
AcDbVertex
100
AcDb2dVertex
 10
98.81649
 20
-1.871111
 30
0.0
 40
0.0
 41
0.0
  0
VERTEX
  5
1C1
100
AcDbEntity
  8
1
  6
CONTINUOUS
 62
   212
100
AcDbVertex
100
AcDb2dVertex
 10
98.361778
 20
-1.911643
 30
0.0
 40
0.0
 41
0.0
  0
VERTEX
  5
1C2
100
AcDbEntity
  8
1
  6
CONTINUOUS
 62
   212
100
AcDbVertex
100
AcDb2dVertex
 10
97.907066
 20
-1.949217
 30
0.0
 40
0.0
 41
0.0
  0
VERTEX
  5
1C3
100
AcDbEntity
  8
1
  6
CONTINUOUS
 62
   212
100
AcDbVertex
100
AcDb2dVertex
 10
97.451591
 20
-1.983836
 30
0.0
 40
0.0
 41
0.0
  0
VERTEX
  5
1C4
100
AcDbEntity
  8
1
  6
CONTINUOUS
 62
   212
100
AcDbVertex
100
AcDb2dVertex
 10
96.996879
 20
-2.015498
 30
0.0
 40
0.0
 41
0.0
  0
VERTEX
  5
1C5
100
AcDbEntity
  8
1
  6
CONTINUOUS
 62
   212
100
AcDbVertex
100
AcDb2dVertex
 10
96.54293
 20
-2.044394
 30
0.0
 40
0.0
 41
0.0
  0
VERTEX
  5
1C6
100
AcDbEntity
  8
1
  6
CONTINUOUS
 62
   212
100
AcDbVertex
100
AcDb2dVertex
 10
96.088219
 20
-2.070525
 30
0.0
 40
0.0
 41
0.0
  0
VERTEX
  5
1C7
100
AcDbEntity
  8
1
  6
CONTINUOUS
 62
   212
100
AcDbVertex
100
AcDb2dVertex
 10
95.633507
 20
-2.093985
 30
0.0
 40
0.0
 41
0.0
  0
VERTEX
  5
1C8
100
AcDbEntity
  8
1
  6
CONTINUOUS
 62
   212
100
AcDbVertex
100
AcDb2dVertex
 10
95.178795
 20
-2.114871
 30
0.0
 40
0.0
 41
0.0
  0
VERTEX
  5
1C9
100
AcDbEntity
  8
1
  6
CONTINUOUS
 62
   212
100
AcDbVertex
100
AcDb2dVertex
 10
94.724846
 20
-2.133181
 30
0.0
 40
0.0
 41
0.0
  0
VERTEX
  5
1CA
100
AcDbEntity
  8
1
  6
CONTINUOUS
 62
   212
100
AcDbVertex
100
AcDb2dVertex
 10
94.270134
 20
-2.149203
 30
0.0
 40
0.0
 41
0.0
  0
VERTEX
  5
1CB
100
AcDbEntity
  8
1
  6
CONTINUOUS
 62
   212
100
AcDbVertex
100
AcDb2dVertex
 10
93.815422
 20
-2.16284
 30
0.0
 40
0.0
 41
0.0
  0
VERTEX
  5
1CC
100
AcDbEntity
  8
1
  6
CONTINUOUS
 62
   212
100
AcDbVertex
100
AcDb2dVertex
 10
93.36071
 20
-2.174189
 30
0.0
 40
0.0
 41
0.0
  0
VERTEX
  5
1CD
100
AcDbEntity
  8
1
  6
CONTINUOUS
 62
   212
100
AcDbVertex
100
AcDb2dVertex
 10
92.905998
 20
-2.183344
 30
0.0
 40
0.0
 41
0.0
  0
VERTEX
  5
1CE
100
AcDbEntity
  8
1
  6
CONTINUOUS
 62
   212
100
AcDbVertex
100
AcDb2dVertex
 10
92.451286
 20
-2.190497
 30
0.0
 40
0.0
 41
0.0
  0
VERTEX
  5
1CF
100
AcDbEntity
  8
1
  6
CONTINUOUS
 62
   212
100
AcDbVertex
100
AcDb2dVertex
 10
91.997337
 20
-2.195551
 30
0.0
 40
0.0
 41
0.0
  0
VERTEX
  5
1D0
100
AcDbEntity
  8
1
  6
CONTINUOUS
 62
   212
100
AcDbVertex
100
AcDb2dVertex
 10
91.087913
 20
-2.199938
 30
0.0
 40
0.0
 41
0.0
  0
VERTEX
  5
1D1
100
AcDbEntity
  8
1
  6
CONTINUOUS
 62
   212
100
AcDbVertex
100
AcDb2dVertex
 10
90.17849
 20
-2.196982
 30
0.0
 40
0.0
 41
0.0
  0
VERTEX
  5
1D2
100
AcDbEntity
  8
1
  6
CONTINUOUS
 62
   212
100
AcDbVertex
100
AcDb2dVertex
 10
89.269829
 20
-2.187255
 30
0.0
 40
0.0
 41
0.0
  0
VERTEX
  5
1D3
100
AcDbEntity
  8
1
  6
CONTINUOUS
 62
   212
100
AcDbVertex
100
AcDb2dVertex
 10
88.360405
 20
-2.171042
 30
0.0
 40
0.0
 41
0.0
  0
VERTEX
  5
1D4
100
AcDbEntity
  8
1
  6
CONTINUOUS
 62
   212
100
AcDbVertex
100
AcDb2dVertex
 10
87.450981
 20
-2.148917
 30
0.0
 40
0.0
 41
0.0
  0
VERTEX
  5
1D5
100
AcDbEntity
  8
1
  6
CONTINUOUS
 62
   212
100
AcDbVertex
100
AcDb2dVertex
 10
86.54232
 20
-2.121165
 30
0.0
 40
0.0
 41
0.0
  0
VERTEX
  5
1D6
100
AcDbEntity
  8
1
  6
CONTINUOUS
 62
   212
100
AcDbVertex
100
AcDb2dVertex
 10
85.632896
 20
-2.088454
 30
0.0
 40
0.0
 41
0.0
  0
VERTEX
  5
1D7
100
AcDbEntity
  8
1
  6
CONTINUOUS
 62
   212
100
AcDbVertex
100
AcDb2dVertex
 10
84.724235
 20
-2.05107
 30
0.0
 40
0.0
 41
0.0
  0
VERTEX
  5
1D8
100
AcDbEntity
  8
1
  6
CONTINUOUS
 62
   212
100
AcDbVertex
100
AcDb2dVertex
 10
83.814812
 20
-2.00949
 30
0.0
 40
0.0
 41
0.0
  0
VERTEX
  5
1D9
100
AcDbEntity
  8
1
  6
CONTINUOUS
 62
   212
100
AcDbVertex
100
AcDb2dVertex
 10
82.906151
 20
-1.96419
 30
0.0
 40
0.0
 41
0.0
  0
VERTEX
  5
1DA
100
AcDbEntity
  8
1
  6
CONTINUOUS
 62
   212
100
AcDbVertex
100
AcDb2dVertex
 10
81.996727
 20
-1.915553
 30
0.0
 40
0.0
 41
0.0
  0
VERTEX
  5
1DB
100
AcDbEntity
  8
1
  6
CONTINUOUS
 62
   212
100
AcDbVertex
100
AcDb2dVertex
 10
81.087303
 20
-1.863959
 30
0.0
 40
0.0
 41
0.0
  0
VERTEX
  5
1DC
100
AcDbEntity
  8
1
  6
CONTINUOUS
 62
   212
100
AcDbVertex
100
AcDb2dVertex
 10
80.178642
 20
-1.809504
 30
0.0
 40
0.0
 41
0.0
  0
VERTEX
  5
1DD
100
AcDbEntity
  8
1
  6
CONTINUOUS
 62
   212
100
AcDbVertex
100
AcDb2dVertex
 10
79.269218
 20
-1.751998
 30
0.0
 40
0.0
 41
0.0
  0
VERTEX
  5
1DE
100
AcDbEntity
  8
1
  6
CONTINUOUS
 62
   212
100
AcDbVertex
100
AcDb2dVertex
 10
78.359794
 20
-1.691439
 30
0.0
 40
0.0
 41
0.0
  0
VERTEX
  5
1DF
100
AcDbEntity
  8
1
  6
CONTINUOUS
 62
   212
100
AcDbVertex
100
AcDb2dVertex
 10
77.450371
 20
-1.627734
 30
0.0
 40
0.0
 41
0.0
  0
VERTEX
  5
1E0
100
AcDbEntity
  8
1
  6
CONTINUOUS
 62
   212
100
AcDbVertex
100
AcDb2dVertex
 10
76.54171
 20
-1.560786
 30
0.0
 40
0.0
 41
0.0
  0
VERTEX
  5
1E1
100
AcDbEntity
  8
1
  6
CONTINUOUS
 62
   212
100
AcDbVertex
100
AcDb2dVertex
 10
75.632286
 20
-1.490595
 30
0.0
 40
0.0
 41
0.0
  0
VERTEX
  5
1E2
100
AcDbEntity
  8
1
  6
CONTINUOUS
 62
   212
100
AcDbVertex
100
AcDb2dVertex
 10
74.723625
 20
-1.417067
 30
0.0
 40
0.0
 41
0.0
  0
VERTEX
  5
1E3
100
AcDbEntity
  8
1
  6
CONTINUOUS
 62
   212
100
AcDbVertex
100
AcDb2dVertex
 10
73.814201
 20
-1.340106
 30
0.0
 40
0.0
 41
0.0
  0
VERTEX
  5
1E4
100
AcDbEntity
  8
1
  6
CONTINUOUS
 62
   212
100
AcDbVertex
100
AcDb2dVertex
 10
72.90554
 20
-1.259615
 30
0.0
 40
0.0
 41
0.0
  0
VERTEX
  5
1E5
100
AcDbEntity
  8
1
  6
CONTINUOUS
 62
   212
100
AcDbVertex
100
AcDb2dVertex
 10
71.996879
 20
-1.175501
 30
0.0
 40
0.0
 41
0.0
  0
VERTEX
  5
1E6
100
AcDbEntity
  8
1
  6
CONTINUOUS
 62
   212
100
AcDbVertex
100
AcDb2dVertex
 10
71.087456
 20
-1.087763
 30
0.0
 40
0.0
 41
0.0
  0
VERTEX
  5
1E7
100
AcDbEntity
  8
1
  6
CONTINUOUS
 62
   212
100
AcDbVertex
100
AcDb2dVertex
 10
70.178032
 20
-0.996592
 30
0.0
 40
0.0
 41
0.0
  0
VERTEX
  5
1E8
100
AcDbEntity
  8
1
  6
CONTINUOUS
 62
   212
100
AcDbVertex
100
AcDb2dVertex
 10
69.268608
 20
-0.901892
 30
0.0
 40
0.0
 41
0.0
  0
VERTEX
  5
1E9
100
AcDbEntity
  8
1
  6
CONTINUOUS
 62
   212
100
AcDbVertex
100
AcDb2dVertex
 10
68.359184
 20
-0.803855
 30
0.0
 40
0.0
 41
0.0
  0
VERTEX
  5
1EA
100
AcDbEntity
  8
1
  6
CONTINUOUS
 62
   212
100
AcDbVertex
100
AcDb2dVertex
 10
67.450523
 20
-0.702765
 30
0.0
 40
0.0
 41
0.0
  0
VERTEX
  5
1EB
100
AcDbEntity
  8
1
  6
CONTINUOUS
 62
   212
100
AcDbVertex
100
AcDb2dVertex
 10
66.541099
 20
-0.598528
 30
0.0
 40
0.0
 41
0.0
  0
VERTEX
  5
1EC
100
AcDbEntity
  8
1
  6
CONTINUOUS
 62
   212
100
AcDbVertex
100
AcDb2dVertex
 10
65.632439
 20
-0.491335
 30
0.0
 40
0.0
 41
0.0
  0
VERTEX
  5
1ED
100
AcDbEntity
  8
1
  6
CONTINUOUS
 62
   212
100
AcDbVertex
100
AcDb2dVertex
 10
64.723015
 20
-0.381377
 30
0.0
 40
0.0
 41
0.0
  0
VERTEX
  5
1EE
100
AcDbEntity
  8
1
  6
CONTINUOUS
 62
   212
100
AcDbVertex
100
AcDb2dVertex
 10
63.814354
 20
-0.268653
 30
0.0
 40
0.0
 41
0.0
  0
VERTEX
  5
1EF
100
AcDbEntity
  8
1
  6
CONTINUOUS
 62
   212
100
AcDbVertex
100
AcDb2dVertex
 10
62.905693
 20
-0.153353
 30
0.0
 40
0.0
 41
0.0
  0
VERTEX
  5
1F0
100
AcDbEntity
  8
1
  6
CONTINUOUS
 62
   212
100
AcDbVertex
100
AcDb2dVertex
 10
61.997032
 20
-0.035575
 30
0.0
 40
0.0
 41
0.0
  0
VERTEX
  5
1F1
100
AcDbEntity
  8
1
  6
CONTINUOUS
 62
   212
100
AcDbVertex
100
AcDb2dVertex
 10
61.087608
 20
0.084779
 30
0.0
 40
0.0
 41
0.0
  0
VERTEX
  5
1F2
100
AcDbEntity
  8
1
  6
CONTINUOUS
 62
   212
100
AcDbVertex
100
AcDb2dVertex
 10
60.178184
 20
0.207422
 30
0.0
 40
0.0
 41
0.0
  0
VERTEX
  5
1F3
100
AcDbEntity
  8
1
  6
CONTINUOUS
 62
   212
100
AcDbVertex
100
AcDb2dVertex
 10
59.268761
 20
0.332639
 30
0.0
 40
0.0
 41
0.0
  0
VERTEX
  5
1F4
100
AcDbEntity
  8
1
  6
CONTINUOUS
 62
   212
100
AcDbVertex
100
AcDb2dVertex
 10
58.359337
 20
0.460145
 30
0.0
 40
0.0
 41
0.0
  0
VERTEX
  5
1F5
100
AcDbEntity
  8
1
  6
CONTINUOUS
 62
   212
100
AcDbVertex
100
AcDb2dVertex
 10
57.449913
 20
0.590227
 30
0.0
 40
0.0
 41
0.0
  0
VERTEX
  5
1F6
100
AcDbEntity
  8
1
  6
CONTINUOUS
 62
   212
100
AcDbVertex
100
AcDb2dVertex
 10
56.541252
 20
0.722787
 30
0.0
 40
0.0
 41
0.0
  0
VERTEX
  5
1F7
100
AcDbEntity
  8
1
  6
CONTINUOUS
 62
   212
100
AcDbVertex
100
AcDb2dVertex
 10
55.631828
 20
0.857923
 30
0.0
 40
0.0
 41
0.0
  0
VERTEX
  5
1F8
100
AcDbEntity
  8
1
  6
CONTINUOUS
 62
   212
100
AcDbVertex
100
AcDb2dVertex
 10
54.723167
 20
0.995634
 30
0.0
 40
0.0
 41
0.0
  0
VERTEX
  5
1F9
100
AcDbEntity
  8
1
  6
CONTINUOUS
 62
   212
100
AcDbVertex
100
AcDb2dVertex
 10
53.814506
 20
1.135919
 30
0.0
 40
0.0
 41
0.0
  0
VERTEX
  5
1FA
100
AcDbEntity
  8
1
  6
CONTINUOUS
 62
   212
100
AcDbVertex
100
AcDb2dVertex
 10
52.905845
 20
1.278875
 30
0.0
 40
0.0
 41
0.0
  0
VERTEX
  5
1FB
100
AcDbEntity
  8
1
  6
CONTINUOUS
 62
   212
100
AcDbVertex
100
AcDb2dVertex
 10
51.997185
 20
1.424501
 30
0.0
 40
0.0
 41
0.0
  0
VERTEX
  5
1FC
100
AcDbEntity
  8
1
  6
CONTINUOUS
 62
   212
100
AcDbVertex
100
AcDb2dVertex
 10
51.086998
 20
1.572893
 30
0.0
 40
0.0
 41
0.0
  0
VERTEX
  5
1FD
100
AcDbEntity
  8
1
  6
CONTINUOUS
 62
   212
100
AcDbVertex
100
AcDb2dVertex
 10
50.177574
 20
1.72405
 30
0.0
 40
0.0
 41
0.0
  0
VERTEX
  5
1FE
100
AcDbEntity
  8
1
  6
CONTINUOUS
 62
   212
100
AcDbVertex
100
AcDb2dVertex
 10
49.26815
 20
1.877878
 30
0.0
 40
0.0
 41
0.0
  0
VERTEX
  5
1FF
100
AcDbEntity
  8
1
  6
CONTINUOUS
 62
   212
100
AcDbVertex
100
AcDb2dVertex
 10
48.358726
 20
2.034376
 30
0.0
 40
0.0
 41
0.0
  0
VERTEX
  5
200
100
AcDbEntity
  8
1
  6
CONTINUOUS
 62
   212
100
AcDbVertex
100
AcDb2dVertex
 10
47.450065
 20
2.193544
 30
0.0
 40
0.0
 41
0.0
  0
VERTEX
  5
201
100
AcDbEntity
  8
1
  6
CONTINUOUS
 62
   212
100
AcDbVertex
100
AcDb2dVertex
 10
46.540642
 20
2.355382
 30
0.0
 40
0.0
 41
0.0
  0
VERTEX
  5
202
100
AcDbEntity
  8
1
  6
CONTINUOUS
 62
   212
100
AcDbVertex
100
AcDb2dVertex
 10
45.631981
 20
2.519891
 30
0.0
 40
0.0
 41
0.0
  0
VERTEX
  5
203
100
AcDbEntity
  8
1
  6
CONTINUOUS
 62
   212
100
AcDbVertex
100
AcDb2dVertex
 10
44.722557
 20
2.68707
 30
0.0
 40
0.0
 41
0.0
  0
VERTEX
  5
204
100
AcDbEntity
  8
1
  6
CONTINUOUS
 62
   212
100
AcDbVertex
100
AcDb2dVertex
 10
43.813896
 20
2.85692
 30
0.0
 40
0.0
 41
0.0
  0
VERTEX
  5
205
100
AcDbEntity
  8
1
  6
CONTINUOUS
 62
   212
100
AcDbVertex
100
AcDb2dVertex
 10
42.905235
 20
3.029344
 30
0.0
 40
0.0
 41
0.0
  0
VERTEX
  5
206
100
AcDbEntity
  8
1
  6
CONTINUOUS
 62
   212
100
AcDbVertex
100
AcDb2dVertex
 10
41.997337
 20
3.204439
 30
0.0
 40
0.0
 41
0.0
  0
VERTEX
  5
207
100
AcDbEntity
  8
1
  6
CONTINUOUS
 62
   212
100
AcDbVertex
100
AcDb2dVertex
 10
41.08715
 20
3.38249
 30
0.0
 40
0.0
 41
0.0
  0
VERTEX
  5
208
100
AcDbEntity
  8
1
  6
CONTINUOUS
 62
   212
100
AcDbVertex
100
AcDb2dVertex
 10
40.177727
 20
3.56302
 30
0.0
 40
0.0
 41
0.0
  0
VERTEX
  5
209
100
AcDbEntity
  8
1
  6
CONTINUOUS
 62
   212
100
AcDbVertex
100
AcDb2dVertex
 10
39.268303
 20
3.745935
 30
0.0
 40
0.0
 41
0.0
  0
VERTEX
  5
20A
100
AcDbEntity
  8
1
  6
CONTINUOUS
 62
   212
100
AcDbVertex
100
AcDb2dVertex
 10
38.358879
 20
3.931234
 30
0.0
 40
0.0
 41
0.0
  0
VERTEX
  5
20B
100
AcDbEntity
  8
1
  6
CONTINUOUS
 62
   212
100
AcDbVertex
100
AcDb2dVertex
 10
37.450218
 20
4.118726
 30
0.0
 40
0.0
 41
0.0
  0
VERTEX
  5
20C
100
AcDbEntity
  8
1
  6
CONTINUOUS
 62
   212
100
AcDbVertex
100
AcDb2dVertex
 10
36.540794
 20
4.308317
 30
0.0
 40
0.0
 41
0.0
  0
VERTEX
  5
20D
100
AcDbEntity
  8
1
  6
CONTINUOUS
 62
   212
100
AcDbVertex
100
AcDb2dVertex
 10
35.632133
 20
4.500005
 30
0.0
 40
0.0
 41
0.0
  0
VERTEX
  5
20E
100
AcDbEntity
  8
1
  6
CONTINUOUS
 62
   212
100
AcDbVertex
100
AcDb2dVertex
 10
34.723472
 20
4.693506
 30
0.0
 40
0.0
 41
0.0
  0
VERTEX
  5
20F
100
AcDbEntity
  8
1
  6
CONTINUOUS
 62
   212
100
AcDbVertex
100
AcDb2dVertex
 10
33.814049
 20
4.888818
 30
0.0
 40
0.0
 41
0.0
  0
VERTEX
  5
210
100
AcDbEntity
  8
1
  6
CONTINUOUS
 62
   212
100
AcDbVertex
100
AcDb2dVertex
 10
32.905388
 20
5.085847
 30
0.0
 40
0.0
 41
0.0
  0
VERTEX
  5
211
100
AcDbEntity
  8
1
  6
CONTINUOUS
 62
   212
100
AcDbVertex
100
AcDb2dVertex
 10
31.996727
 20
5.284498
 30
0.0
 40
0.0
 41
0.0
  0
VERTEX
  5
212
100
AcDbEntity
  8
1
  6
CONTINUOUS
 62
   212
100
AcDbVertex
100
AcDb2dVertex
 10
31.542015
 20
5.384443
 30
0.0
 40
0.0
 41
0.0
  0
VERTEX
  5
213
100
AcDbEntity
  8
1
  6
CONTINUOUS
 62
   212
100
AcDbVertex
100
AcDb2dVertex
 10
31.087303
 20
5.485055
 30
0.0
 40
0.0
 41
0.0
  0
VERTEX
  5
214
100
AcDbEntity
  8
1
  6
CONTINUOUS
 62
   212
100
AcDbVertex
100
AcDb2dVertex
 10
30.632591
 20
5.586336
 30
0.0
 40
0.0
 41
0.0
  0
VERTEX
  5
215
100
AcDbEntity
  8
1
  6
CONTINUOUS
 62
   212
100
AcDbVertex
100
AcDb2dVertex
 10
30.177879
 20
5.688569
 30
0.0
 40
0.0
 41
0.0
  0
VERTEX
  5
216
100
AcDbEntity
  8
1
  6
CONTINUOUS
 62
   212
100
AcDbVertex
100
AcDb2dVertex
 10
29.723167
 20
5.791852
 30
0.0
 40
0.0
 41
0.0
  0
VERTEX
  5
217
100
AcDbEntity
  8
1
  6
CONTINUOUS
 62
   212
100
AcDbVertex
100
AcDb2dVertex
 10
29.268455
 20
5.896375
 30
0.0
 40
0.0
 41
0.0
  0
VERTEX
  5
218
100
AcDbEntity
  8
1
  6
CONTINUOUS
 62
   212
100
AcDbVertex
100
AcDb2dVertex
 10
28.813743
 20
6.002424
 30
0.0
 40
0.0
 41
0.0
  0
VERTEX
  5
219
100
AcDbEntity
  8
1
  6
CONTINUOUS
 62
   212
100
AcDbVertex
100
AcDb2dVertex
 10
28.359794
 20
6.109998
 30
0.0
 40
0.0
 41
0.0
  0
VERTEX
  5
21A
100
AcDbEntity
  8
1
  6
CONTINUOUS
 62
   212
100
AcDbVertex
100
AcDb2dVertex
 10
27.905083
 20
6.21948
 30
0.0
 40
0.0
 41
0.0
  0
VERTEX
  5
21B
100
AcDbEntity
  8
1
  6
CONTINUOUS
 62
   212
100
AcDbVertex
100
AcDb2dVertex
 10
27.451134
 20
6.330869
 30
0.0
 40
0.0
 41
0.0
  0
VERTEX
  5
21C
100
AcDbEntity
  8
1
  6
CONTINUOUS
 62
   212
100
AcDbVertex
100
AcDb2dVertex
 10
26.997185
 20
6.444452
 30
0.0
 40
0.0
 41
0.0
  0
VERTEX
  5
21D
100
AcDbEntity
  8
1
  6
CONTINUOUS
 62
   212
100
AcDbVertex
100
AcDb2dVertex
 10
26.54171
 20
6.560609
 30
0.0
 40
0.0
 41
0.0
  0
VERTEX
  5
21E
100
AcDbEntity
  8
1
  6
CONTINUOUS
 62
   212
100
AcDbVertex
100
AcDb2dVertex
 10
26.086998
 20
6.678865
 30
0.0
 40
0.0
 41
0.0
  0
VERTEX
  5
21F
100
AcDbEntity
  8
1
  6
CONTINUOUS
 62
   212
100
AcDbVertex
100
AcDb2dVertex
 10
25.632286
 20
6.799123
 30
0.0
 40
0.0
 41
0.0
  0
VERTEX
  5
220
100
AcDbEntity
  8
1
  6
CONTINUOUS
 62
   212
100
AcDbVertex
100
AcDb2dVertex
 10
25.177574
 20
6.921003
 30
0.0
 40
0.0
 41
0.0
  0
VERTEX
  5
221
100
AcDbEntity
  8
1
  6
CONTINUOUS
 62
   212
100
AcDbVertex
100
AcDb2dVertex
 10
24.722862
 20
7.044408
 30
0.0
 40
0.0
 41
0.0
  0
VERTEX
  5
222
100
AcDbEntity
  8
1
  6
CONTINUOUS
 62
   212
100
AcDbVertex
100
AcDb2dVertex
 10
24.268913
 20
7.169149
 30
0.0
 40
0.0
 41
0.0
  0
VERTEX
  5
223
100
AcDbEntity
  8
1
  6
CONTINUOUS
 62
   212
100
AcDbVertex
100
AcDb2dVertex
 10
23.814201
 20
7.294938
 30
0.0
 40
0.0
 41
0.0
  0
VERTEX
  5
224
100
AcDbEntity
  8
1
  6
CONTINUOUS
 62
   212
100
AcDbVertex
100
AcDb2dVertex
 10
23.360252
 20
7.421586
 30
0.0
 40
0.0
 41
0.0
  0
VERTEX
  5
225
100
AcDbEntity
  8
1
  6
CONTINUOUS
 62
   212
100
AcDbVertex
100
AcDb2dVertex
 10
22.90554
 20
7.548807
 30
0.0
 40
0.0
 41
0.0
  0
VERTEX
  5
226
100
AcDbEntity
  8
1
  6
CONTINUOUS
 62
   212
100
AcDbVertex
100
AcDb2dVertex
 10
22.451591
 20
7.676504
 30
0.0
 40
0.0
 41
0.0
  0
VERTEX
  5
227
100
AcDbEntity
  8
1
  6
CONTINUOUS
 62
   212
100
AcDbVertex
100
AcDb2dVertex
 10
21.996879
 20
7.804487
 30
0.0
 40
0.0
 41
0.0
  0
SEQEND
  5
228
100
AcDbEntity
  8
0
  0
POLYLINE
  5
229
100
AcDbEntity
  8
1
  6
CONTINUOUS
 62
   212
100
AcDb2dPolyline
 66
     1
 10
0.0
 20
0.0
 30
0.0
 70
   128
  0
VERTEX
  5
22A
100
AcDbEntity
  8
1
  6
CONTINUOUS
 62
   212
100
AcDbVertex
100
AcDb2dVertex
 10
121.996879
 20
7.804487
 30
0.0
 40
0.0
 41
0.0
  0
VERTEX
  5
22B
100
AcDbEntity
  8
1
  6
CONTINUOUS
 62
   212
100
AcDbVertex
100
AcDb2dVertex
 10
21.996879
 20
7.804487
 30
0.0
 40
0.0
 41
0.0
  0
SEQEND
  5
22C
100
AcDbEntity
  8
0
  0
TEXT
  5
22D
100
AcDbEntity
  8
0
 62
   212
 48
0.0
100
AcDbText
 10
75.84709
 20
4.369094
 30
0.0
 40
1.5
  1
Çemberci Denizcilik
 72
     5
 11
106.006308
 21
4.369094
 31
0.0
210
0.0
220
0.0
230
1.0
100
AcDbText
  0
TEXT
  5
22E
100
AcDbEntity
  8
0
 62
   212
 48
0.0
100
AcDbText
 10
74.791233
 20
12.36344
 30
0.0
 40
1.5
  1
NACA - 2306 
 72
     5
 11
95.988161
 21
12.36344
 31
0.0
210
0.0
220
0.0
230
1.0
100
AcDbText
  0
TEXT
  5
22F
100
AcDbEntity
  8
0
 62
   212
 48
0.0
100
AcDbText
 10
53.983763
 20
11.73431
 30
0.0
 40
1.0
  1
Boy = 100
 72
     5
 11
59.173707
 21
11.73431
 31
0.0
210
0.0
220
0.0
230
1.0
100
AcDbText
  0
TEXT
  5
230
100
AcDbEntity
  8
0
 62
   212
 48
0.0
100
AcDbText
 10
53.983763
 20
9.73431
 30
0.0
 40
1.0
  1
Kalinlik = 20
 72
     5
 11
60.190467
 21
9.73431
 31
0.0
210
0.0
220
0.0
230
1.0
100
AcDbText
  0
ENDSEC
  0
SECTION
  2
OBJECTS
  0
DICTIONARY
  5
19
100
AcDbDictionary
  3
ACAD_GROUP
350
1A
  3
ACAD_MLINESTYLE
350
1B
  0
DICTIONARY
  5
1A
102
{ACAD_REACTORS
330
19
102
}
100
AcDbDictionary
  0
DICTIONARY
  5
1B
102
{ACAD_REACTORS
330
19
102
}
100
AcDbDictionary
  3
STANDARD
350
1C
  0
MLINESTYLE
  5
1C
102
{ACAD_REACTORS
330
1B
102
}
100
AcDbMlineStyle
  2
STANDARD
 70
     0
  3

 62
     0
 51
90.0
 52
90.0
 71
     2
 49
0.5
 62
   256
  6
BYLAYER
 49
-0.5
 62
   256
  6
BYLAYER
  0
ENDSEC
  0
EOF
