  0
SECTION
  2
HEADER
  9
$ACADVER
  1
AC1014
  9
$ACADMAINTVER
 70
     0
  9
$DWGCODEPAGE
  3
ANSI_1252
  9
$INSBASE
 10
0.0
 20
0.0
 30
0.0
  9
$EXTMIN
 10
24.130182
 20
-4.897431
 30
0.0
  9
$EXTMAX
 10
124.130319
 20
7.105799
 30
0.0
  9
$LIMMIN
 10
0.0
 20
0.0
  9
$LIMMAX
 10
0.0
 20
0.0
  9
$ORTHOMODE
 70
     0
  9
$REGENMODE
 70
     1
  9
$FILLMODE
 70
     1
  9
$QTEXTMODE
 70
     0
  9
$MIRRTEXT
 70
     1
  9
$DRAGMODE
 70
     2
  9
$LTSCALE
 40
1.0
  9
$OSMODE
 70
     0
  9
$ATTMODE
 70
     1
  9
$TEXTSIZE
 40
0.2
  9
$TRACEWID
 40
0.05
  9
$TEXTSTYLE
  7
STANDARD
  9
$CLAYER
  8
0
  9
$CELTYPE
  6
CONTINUOUS
  9
$CECOLOR
 62
   256
  9
$CELTSCALE
 40
1.0
  9
$DELOBJ
 70
     1
  9
$DISPSILH
 70
     0
  9
$DIMSCALE
 40
1.0
  9
$DIMASZ
 40
0.18
  9
$DIMEXO
 40
0.0625
  9
$DIMDLI
 40
0.38
  9
$DIMRND
 40
0.0
  9
$DIMDLE
 40
0.0
  9
$DIMEXE
 40
0.18
  9
$DIMTP
 40
0.0
  9
$DIMTM
 40
0.0
  9
$DIMTXT
 40
0.18
  9
$DIMCEN
 40
0.09
  9
$DIMTSZ
 40
0.0
  9
$DIMTOL
 70
     0
  9
$DIMLIM
 70
     0
  9
$DIMTIH
 70
     1
  9
$DIMTOH
 70
     1
  9
$DIMSE1
 70
     0
  9
$DIMSE2
 70
     0
  9
$DIMTAD
 70
     0
  9
$DIMZIN
 70
     0
  9
$DIMBLK
  1

  9
$DIMASO
 70
     1
  9
$DIMSHO
 70
     1
  9
$DIMPOST
  1

  9
$DIMAPOST
  1

  9
$DIMALT
 70
     0
  9
$DIMALTD
 70
     2
  9
$DIMALTF
 40
25.4
  9
$DIMLFAC
 40
1.0
  9
$DIMTOFL
 70
     0
  9
$DIMTVP
 40
0.0
  9
$DIMTIX
 70
     0
  9
$DIMSOXD
 70
     0
  9
$DIMSAH
 70
     0
  9
$DIMBLK1
  1

  9
$DIMBLK2
  1

  9
$DIMSTYLE
  2
STANDARD
  9
$DIMCLRD
 70
     0
  9
$DIMCLRE
 70
     0
  9
$DIMCLRT
 70
     0
  9
$DIMTFAC
 40
1.0
  9
$DIMGAP
 40
0.09
  9
$DIMJUST
 70
     0
  9
$DIMSD1
 70
     0
  9
$DIMSD2
 70
     0
  9
$DIMTOLJ
 70
     1
  9
$DIMTZIN
 70
     0
  9
$DIMALTZ
 70
     0
  9
$DIMALTTZ
 70
     0
  9
$DIMFIT
 70
     3
  9
$DIMUPT
 70
     0
  9
$DIMUNIT
 70
     2
  9
$DIMDEC
 70
     4
  9
$DIMTDEC
 70
     4
  9
$DIMALTU
 70
     2
  9
$DIMALTTD
 70
     2
  9
$DIMTXSTY
  7
STANDARD
  9
$DIMAUNIT
 70
     0
  9
$LUNITS
 70
     2
  9
$LUPREC
 70
     4
  9
$SKETCHINC
 40
0.1
  9
$FILLETRAD
 40
0.0
  9
$AUNITS
 70
     0
  9
$AUPREC
 70
     0
  9
$MENU
  1
acad
  9
$ELEVATION
 40
0.0
  9
$PELEVATION
 40
0.0
  9
$THICKNESS
 40
0.0
  9
$LIMCHECK
 70
     0
  9
$BLIPMODE
 70
     1
  9
$CHAMFERA
 40
0.0
  9
$CHAMFERB
 40
0.0
  9
$CHAMFERC
 40
0.0
  9
$CHAMFERD
 40
0.0
  9
$SKPOLY
 70
     0
  9
$TDCREATE
 40
0.000000000
  9
$TDUPDATE
 40
0.000000000
  9
$TDINDWG
 40
0.0000000000
  9
$TDUSRTIMER
 40
0.0000000000
  9
$USRTIMER
 70
     1
  9
$ANGBASE
 50
0.0
  9
$ANGDIR
 70
     0
  9
$PDMODE
 70
     0
  9
$PDSIZE
 40
0.0
  9
$PLINEWID
 40
0.0
  9
$COORDS
 70
     0
  9
$SPLFRAME
 70
     0
  9
$SPLINETYPE
 70
     6
  9
$SPLINESEGS
 70
     8
  9
$ATTDIA
 70
     0
  9
$ATTREQ
 70
     1
  9
$HANDLING
 70
     1
  9
$HANDSEED
  5
AE
  9
$SURFTAB1
 70
     6
  9
$SURFTAB2
 70
     6
  9
$SURFTYPE
 70
     6
  9
$SURFU
 70
     6
  9
$SURFV
 70
     6
  9
$UCSNAME
  2

  9
$UCSORG
 10
0.0
 20
0.0
 30
0.0
  9
$UCSXDIR
 10
1.0
 20
0.0
 30
0.0
  9
$UCSYDIR
 10
0.0
 20
1.0
 30
0.0
  9
$PUCSNAME
  2

  9
$PUCSORG
 10
0.0
 20
0.0
 30
0.0
  9
$PUCSXDIR
 10
1.0
 20
0.0
 30
0.0
  9
$PUCSYDIR
 10
0.0
 20
1.0
 30
0.0
  9
$USERI1
 70
     0
  9
$USERI2
 70
     0
  9
$USERI3
 70
     0
  9
$USERI4
 70
     0
  9
$USERI5
 70
     0
  9
$USERR1
 40
0.0
  9
$USERR2
 40
0.0
  9
$USERR3
 40
0.0
  9
$USERR4
 40
0.0
  9
$USERR5
 40
0.0
  9
$WORLDVIEW
 70
     1
  9
$SHADEDGE
 70
     3
  9
$SHADEDIF
 70
    70
  9
$TILEMODE
 70
     1
  9
$MAXACTVP
 70
    16
  9
$PINSBASE
 10
0.0
 20
0.0
 30
0.0
  9
$PLIMCHECK
 70
     0
  9
$PEXTMIN
 10
1.000000E+20
 20
1.000000E+20
 30
1.000000E+20
  9
$PEXTMAX
 10
-1.000000E+20
 20
-1.000000E+20
 30
-1.000000E+20
  9
$PLIMMIN
 10
0.0
 20
0.0
  9
$PLIMMAX
 10
12.0
 20
9.0
  9
$UNITMODE
 70
     0
  9
$VISRETAIN
 70
     0
  9
$PLINEGEN
 70
     0
  9
$PSLTSCALE
 70
     0
  9
$TREEDEPTH
 70
  3020
  9
$PICKSTYLE
 70
     1
  9
$CMLSTYLE
  2
STANDARD
  9
$CMLJUST
 70
     0
  9
$CMLSCALE
 40
1.0
  9
$PROXYGRAPHICS
 70
     0
  9
$MEASUREMENT
 70
     0
  0
ENDSEC
  0
SECTION
  2
CLASSES
  0
CLASS
  1
LWPOLYLINE
  2
AcDbPolyline
  3
"AutoCAD"
 90
        0
280
     0
281
     1
  0
CLASS
  1
IMAGE
  2
AcDbRasterImage
  3
ISM
 90
      127
280
     0
281
     1
  0
CLASS
  1
OLE2FRAME
  2
AcDbOle2Frame
  3
""
 90
        0
280
     0
281
     1
  0
CLASS
  1
HATCH
  2
AcDbHatch
  3
"ACAD_SEDONA"
 90
        0
280
     0
281
     1
  0
CLASS
  1
DICTIONARYVAR
  2
AcDbDictionaryVar
  3
"AutoCAD"
 90
        0
280
     0
281
     0
  0
CLASS
  1
RASTERVARIABLES
  2
AcDbRasterVariables
  3
ISM
 90
        0
280
     0
281
     0
  0
CLASS
  1
IMAGEDEF
  2
AcDbRasterImageDef
  3
ISM
 90
        0
280
     0
281
     0
  0
CLASS
  1
IMAGEDEF_REACTOR
  2
AcDbRasterImageDefReactor
  3
ISM
 90
        1
280
     0
281
     0
  0
CLASS
  1
IDBUFFER
  2
AcDbIdBuffer
  3
"Acad"
 90
        0
280
     0
281
     0
  0
CLASS
  1
SPATIAL_FILTER
  2
AcDbSpatialFilter
  3
"Acad"
 90
        0
280
     0
281
     0
  0
CLASS
  1
XRECORD
  2
AcDbXrecord
  3
"<Built In>"
 90
        0
280
     0
281
     0
  0
CLASS
  1
SORTENTSTABLE
  2
AcDbSortentsTable
  3
"AutoCAD"
 90
        0
280
     0
281
     0
  0
CLASS
  1
LAYER_INDEX
  2
AcDbLayerIndex
  3
"Acad"
 90
        0
280
     0
281
     0
  0
CLASS
  1
SPATIAL_INDEX
  2
AcDbSpatialIndex
  3
"Acad"
 90
        0
280
     0
281
     0
  0
CLASS
  1
OBJECT_PTR
  2
CAseDLPNTableRecord
  3
"ASE-LPNTableRecord"
 90
        1
280
     0
281
     0
  0
CLASS
  1
LAYOUT
  2
AcDbLayout
  3
"AutoCAD 2000"
 90
        1
280
     0
281
     0
  0
CLASS
  1
PLOTSETTINGS
  2
AcDbPlotSettings
  3
"AutoCAD 2000"
 90
        1
280
     0
281
     0
  0
CLASS
  1
ACDBDICTIONARYWDFLT
  2
AcDbDictionaryWithDefault
  3
"AutoCAD 2000"
 90
        1
280
     0
281
     0
  0
CLASS
  1
ACDBPLACEHOLDER
  2
AcDbPlaceHolder
  3
"AutoCAD 2000"
 90
        1
280
     0
281
     0
  0
CLASS
  1
VBA_PROJECT
  2
AcDbVbaProject
  3
"acadvba"
 90
        1
280
     0
281
     0
  0
CLASS
  1
WIPEOUT
  2
AcDbWipeout
  3
WipeOut|AutoCAD Express Tool|expresstools@autodesk.com
 90
      127
280
     0
281
     1
  0
CLASS
  1
WIPEOUTVARIABLES
  2
AcDbWipeoutVariables
  3
WipeOut|AutoCAD Express Tool|expresstools@autodesk.com
 90
        0
280
     0
281
     0
  0
CLASS
  1
RTEXT
  2
RText
  3
RText|AutoCAD Express Tool|expresstools@autodesk.com
 90
        0
280
     0
281
     1
  0
CLASS
  1
ARCALIGNEDTEXT
  2
AcDbArcAlignedText
  3
ATEXT|AutoCAD Express Tool|expresstools@autodesk.com
 90
        0
280
     0
281
     1
  0
ENDSEC
  0
SECTION
  2
TABLES
  0
TABLE
  2
VPORT
  5
7
100
AcDbSymbolTable
 70
     2
  0
VPORT
  5
15
100
AcDbSymbolTableRecord
100
AcDbViewportTableRecord
  2
*ACTIVE
 70
     0
 10
0.0
 20
0.0
 11
1.0
 21
1.0
 12
6.591288
 22
4.579184
 13
0.0
 23
0.0
 14
1.0
 24
1.0
 15
0.0
 25
0.0
 16
0.0
 26
0.0
 36
1.0
 17
0.0
 27
0.0
 37
0.0
 40
9.158369
 41
0.688564
 42
50.0
 43
0.0
 44
0.0
 50
0.0
 51
0.0
 71
     0
 72
   100
 73
     1
 74
     1
 75
     0
 76
     0
 77
     0
 78
     0
  0
VPORT
  5
2C
100
AcDbSymbolTableRecord
100
AcDbViewportTableRecord
  2
DCADVPORT
 70
     0
 10
24.130182
 20
-4.897431
 11
124.130319
 21
7.105799
 12
6.21
 22
9.02
 13
0.0
 23
0.0
 14
1.0
 24
1.0
 15
0.0
 25
0.0
 16
0.0
 26
0.0
 36
1.0
 17
0.0
 27
0.0
 37
0.0
 40
18.04
 41
0.688564
 42
50.0
 43
1.0
 44
1.0
 50
0.0
 51
0.0
 71
     0
 72
   100
 73
     1
 74
     1
 75
     0
 76
     0
 77
     0
 78
     0
  0
ENDTAB
  0
TABLE
  2
LTYPE
  5
4
100
AcDbSymbolTable
 70
    15
  0
LTYPE
  5
11
100
AcDbSymbolTableRecord
100
AcDbLinetypeTableRecord
  2
BYBLOCK
 70
    64
  3

 72
    65
 73
     0
 40
0.0
  0
LTYPE
  5
12
100
AcDbSymbolTableRecord
100
AcDbLinetypeTableRecord
  2
BYLAYER
 70
    64
  3

 72
    65
 73
     0
 40
0.0
  0
LTYPE
  5
13
100
AcDbSymbolTableRecord
100
AcDbLinetypeTableRecord
  2
CONTINUOUS
 70
    64
  3
Solid line
 72
    65
 73
     0
 40
0.0
  0
LTYPE
  5
1E
100
AcDbSymbolTableRecord
100
AcDbLinetypeTableRecord
  2
CONTINUOUS
 70
     0
  3
Solid line
 72
    65
 73
     0
 40
0.0
  0
LTYPE
  5
1F
100
AcDbSymbolTableRecord
100
AcDbLinetypeTableRecord
  2
BORDER
 70
    64
  3
__ __ . __ __ . __ __ . __ __ . __ __ . __ __ .
 72
    65
 73
     6
 40
1.75
 49
0.5
 74
     0
 49
-0.25
 74
     0
 49
0.5
 74
     0
 49
-0.25
 74
     0
 49
0.0
 74
     0
 49
-0.25
 74
     0
  0
LTYPE
  5
20
100
AcDbSymbolTableRecord
100
AcDbLinetypeTableRecord
  2
BORDER2
 70
    64
  3
__.__.__.__.__.__.__.__.__.__.__.__.__.__.__.__
 72
    65
 73
     6
 40
0.875
 49
0.25
 74
     0
 49
-0.125
 74
     0
 49
0.25
 74
     0
 49
-0.125
 74
     0
 49
0.0
 74
     0
 49
-0.125
 74
     0
  0
LTYPE
  5
21
100
AcDbSymbolTableRecord
100
AcDbLinetypeTableRecord
  2
CENTER
 70
    64
  3
____ _ ____ _ ____ _ ____ _ ____ _ ____ _ ____ 
 72
    65
 73
     4
 40
2.0
 49
1.25
 74
     0
 49
-0.25
 74
     0
 49
0.25
 74
     0
 49
-0.25
 74
     0
  0
LTYPE
  5
22
100
AcDbSymbolTableRecord
100
AcDbLinetypeTableRecord
  2
DASHDOT
 70
    64
  3
__ . __ . __ . __ . __ . __ . __ . __ . __ . __
 72
    65
 73
     4
 40
1.0
 49
0.5
 74
     0
 49
-0.25
 74
     0
 49
0.0
 74
     0
 49
-0.25
 74
     0
  0
LTYPE
  5
23
100
AcDbSymbolTableRecord
100
AcDbLinetypeTableRecord
  2
DASHDOT2
 70
    64
  3
_._._._._._._._._._._._._._._._._._._._._._._._
 72
    65
 73
     4
 40
0.5
 49
0.25
 74
     0
 49
-0.125
 74
     0
 49
0.0
 74
     0
 49
-0.125
 74
     0
  0
LTYPE
  5
24
100
AcDbSymbolTableRecord
100
AcDbLinetypeTableRecord
  2
DASHED
 70
    64
  3
__ __ __ __ __ __ __ __ __ __ __ __ __ __ __ __
 72
    65
 73
     2
 40
0.75
 49
0.5
 74
     0
 49
-0.25
 74
     0
  0
LTYPE
  5
25
100
AcDbSymbolTableRecord
100
AcDbLinetypeTableRecord
  2
DIVIDE
 70
    64
  3
____ . . ____ . . ____ . . ____ . . ____ . . __
 72
    65
 73
     6
 40
1.25
 49
0.5
 74
     0
 49
-0.25
 74
     0
 49
0.0
 74
     0
 49
-0.25
 74
     0
 49
0.0
 74
     0
 49
-0.25
 74
     0
  0
LTYPE
  5
26
100
AcDbSymbolTableRecord
100
AcDbLinetypeTableRecord
  2
DIVIDE2
 70
    64
  3
__..__..__..__..__..__..__..__..__..__..__..__.
 72
    65
 73
     6
 40
0.625
 49
0.25
 74
     0
 49
-0.125
 74
     0
 49
0.0
 74
     0
 49
-0.125
 74
     0
 49
0.0
 74
     0
 49
-0.125
 74
     0
  0
LTYPE
  5
27
100
AcDbSymbolTableRecord
100
AcDbLinetypeTableRecord
  2
DOT
 70
    64
  3
. . . . . . . . . . . . . . . . . . . . . . . .
 72
    65
 73
     2
 40
0.25
 49
0.0
 74
     0
 49
-0.25
 74
     0
  0
LTYPE
  5
28
100
AcDbSymbolTableRecord
100
AcDbLinetypeTableRecord
  2
HIDDEN
 70
    64
  3
__ __ __ __ __ __ __ __ __ __ __ __ __ __ __ __
 72
    65
 73
     2
 40
0.375
 49
0.25
 74
     0
 49
-0.125
 74
     0
  0
LTYPE
  5
29
100
AcDbSymbolTableRecord
100
AcDbLinetypeTableRecord
  2
PHANTOM
 70
    64
  3
______  __  __  ______  __  __  ______  __  __ 
 72
    65
 73
     6
 40
2.5
 49
1.25
 74
     0
 49
-0.25
 74
     0
 49
0.25
 74
     0
 49
-0.25
 74
     0
 49
0.25
 74
     0
 49
-0.25
 74
     0
  0
ENDTAB
  0
TABLE
  2
LAYER
  5
2
100
AcDbSymbolTable
 70
     3
  0
LAYER
  5
14
100
AcDbSymbolTableRecord
100
AcDbLayerTableRecord
  2
0
 70
     0
 62
     7
  6
CONTINUOUS
  0
LAYER
  5
2A
100
AcDbSymbolTableRecord
100
AcDbLayerTableRecord
  2
0
 70
     0
 62
     7
  6
CONTINUOUS
  0
LAYER
  5
2B
100
AcDbSymbolTableRecord
100
AcDbLayerTableRecord
  2
1
 70
     0
 62
     7
  6
CONTINUOUS
  0
ENDTAB
  0
TABLE
  2
STYLE
  5
3
100
AcDbSymbolTable
 70
     2
  0
STYLE
  5
17
100
AcDbSymbolTableRecord
100
AcDbTextStyleTableRecord
  2
STANDARD
 70
     0
 40
0.0
 41
1.0
 50
0.0
 71
     0
 42
0.0
  3
txt
  4

  0
STYLE
  5
1D
100
AcDbSymbolTableRecord
100
AcDbTextStyleTableRecord
  2
BIGFONT
 70
    64
 40
3.0
 41
1.0
 50
0.0
 71
     0
 42
0.2
  3

  4
BIGFONT
  0
ENDTAB
  0
TABLE
  2
VIEW
  5
5
100
AcDbSymbolTable
 70
     0
  0
ENDTAB
  0
TABLE
  2
UCS
  5
6
100
AcDbSymbolTable
 70
     0
  0
ENDTAB
  0
TABLE
  2
APPID
  5
8
100
AcDbSymbolTable
 70
     1
  0
APPID
  5
16
100
AcDbSymbolTableRecord
100
AcDbRegAppTableRecord
  2
ACAD
 70
     0
  0
ENDTAB
  0
TABLE
  2
DIMSTYLE
  5
9
100
AcDbSymbolTable
 70
     1
  0
DIMSTYLE
105
18
100
AcDbSymbolTableRecord
100
AcDbDimStyleTableRecord
  2
STANDARD
 70
     0
  3

  4

  5

  6

  7

 40
1.0
 41
0.18
 42
0.0625
 43
0.38
 44
0.18
 45
0.0
 46
0.0
 47
0.0
 48
0.0
 71
     0
 72
     0
 73
     1
 74
     1
 75
     0
 76
     0
 77
     0
 78
     0
140
0.18
141
0.09
142
0.0
143
25.4
144
1.0
145
0.0
146
1.0
147
0.09
170
     0
171
     2
172
     0
173
     0
174
     0
175
     0
176
     0
177
     0
178
     0
270
     2
271
     4
272
     4
273
     2
274
     2
275
     0
280
     0
281
     0
282
     0
283
     1
284
     0
285
     0
286
     0
287
     0
288
     0
340
17
  0
ENDTAB
  0
TABLE
  2
BLOCK_RECORD
  5
1
100
AcDbSymbolTable
 70
     0
  0
BLOCK_RECORD
  5
A
100
AcDbSymbolTableRecord
100
AcDbBlockTableRecord
  2
*MODEL_SPACE
  0
BLOCK_RECORD
  5
B
100
AcDbSymbolTableRecord
100
AcDbBlockTableRecord
  2
*PAPER_SPACE
  0
ENDTAB
  0
ENDSEC
  0
SECTION
  2
BLOCKS
  0
BLOCK
  5
D
100
AcDbEntity
  8
0
100
AcDbBlockBegin
  2
*MODEL_SPACE
 70
     0
 10
0.0
 20
0.0
 30
0.0
  3
*MODEL_SPACE
  1

  0
ENDBLK
  5
E
100
AcDbEntity
  8
0
100
AcDbBlockEnd
  0
BLOCK
  5
F
100
AcDbEntity
 67
     1
  8
0
100
AcDbBlockBegin
  2
*PAPER_SPACE
 70
     0
 10
0.0
 20
0.0
 30
0.0
  3
*PAPER_SPACE
  1

  0
ENDBLK
  5
10
100
AcDbEntity
 67
     1
  8
0
100
AcDbBlockEnd
  0
ENDSEC
  0
SECTION
  2
ENTITIES
  0
POLYLINE
  5
2D
100
AcDbEntity
  8
1
  6
CONTINUOUS
 62
     6
 48
0.75
100
AcDb2dPolyline
 66
     1
 10
0.0
 20
0.0
 30
0.0
 70
   128
  0
VERTEX
  5
2E
100
AcDbEntity
  8
1
  6
CONTINUOUS
 62
     6
 48
0.75
100
AcDbVertex
100
AcDb2dVertex
 10
122.880319
 20
1.105799
 30
0.0
 40
0.0
 41
0.0
  0
VERTEX
  5
2F
100
AcDbEntity
  8
1
  6
CONTINUOUS
 62
     6
 48
0.75
100
AcDbVertex
100
AcDb2dVertex
 10
122.880319
 20
2.238799
 30
0.0
 40
0.0
 41
0.0
  0
SEQEND
  5
30
100
AcDbEntity
  8
0
  0
POLYLINE
  5
31
100
AcDbEntity
  8
1
  6
CONTINUOUS
 62
     6
 48
0.75
100
AcDb2dPolyline
 66
     1
 10
0.0
 20
0.0
 30
0.0
 70
   128
  0
VERTEX
  5
32
100
AcDbEntity
  8
1
  6
CONTINUOUS
 62
     6
 48
0.75
100
AcDbVertex
100
AcDb2dVertex
 10
121.630319
 20
1.105799
 30
0.0
 40
0.0
 41
0.0
  0
VERTEX
  5
33
100
AcDbEntity
  8
1
  6
CONTINUOUS
 62
     6
 48
0.75
100
AcDbVertex
100
AcDb2dVertex
 10
121.630319
 20
2.785799
 30
0.0
 40
0.0
 41
0.0
  0
SEQEND
  5
34
100
AcDbEntity
  8
0
  0
POLYLINE
  5
35
100
AcDbEntity
  8
1
  6
CONTINUOUS
 62
     6
 48
0.75
100
AcDb2dPolyline
 66
     1
 10
0.0
 20
0.0
 30
0.0
 70
   128
  0
VERTEX
  5
36
100
AcDbEntity
  8
1
  6
CONTINUOUS
 62
     6
 48
0.75
100
AcDbVertex
100
AcDb2dVertex
 10
119.130319
 20
1.105799
 30
0.0
 40
0.0
 41
0.0
  0
VERTEX
  5
37
100
AcDbEntity
  8
1
  6
CONTINUOUS
 62
     6
 48
0.75
100
AcDbVertex
100
AcDb2dVertex
 10
119.130319
 20
3.598799
 30
0.0
 40
0.0
 41
0.0
  0
SEQEND
  5
38
100
AcDbEntity
  8
0
  0
POLYLINE
  5
39
100
AcDbEntity
  8
1
  6
CONTINUOUS
 62
     6
 48
0.75
100
AcDb2dPolyline
 66
     1
 10
0.0
 20
0.0
 30
0.0
 70
   128
  0
VERTEX
  5
3A
100
AcDbEntity
  8
1
  6
CONTINUOUS
 62
     6
 48
0.75
100
AcDbVertex
100
AcDb2dVertex
 10
116.630319
 20
1.105799
 30
0.0
 40
0.0
 41
0.0
  0
VERTEX
  5
3B
100
AcDbEntity
  8
1
  6
CONTINUOUS
 62
     6
 48
0.75
100
AcDbVertex
100
AcDb2dVertex
 10
116.630319
 20
4.238799
 30
0.0
 40
0.0
 41
0.0
  0
SEQEND
  5
3C
100
AcDbEntity
  8
0
  0
POLYLINE
  5
3D
100
AcDbEntity
  8
1
  6
CONTINUOUS
 62
     6
 48
0.75
100
AcDb2dPolyline
 66
     1
 10
0.0
 20
0.0
 30
0.0
 70
   128
  0
VERTEX
  5
3E
100
AcDbEntity
  8
1
  6
CONTINUOUS
 62
     6
 48
0.75
100
AcDbVertex
100
AcDb2dVertex
 10
114.130319
 20
1.105799
 30
0.0
 40
0.0
 41
0.0
  0
VERTEX
  5
3F
100
AcDbEntity
  8
1
  6
CONTINUOUS
 62
     6
 48
0.75
100
AcDbVertex
100
AcDb2dVertex
 10
114.130319
 20
4.758799
 30
0.0
 40
0.0
 41
0.0
  0
SEQEND
  5
40
100
AcDbEntity
  8
0
  0
POLYLINE
  5
41
100
AcDbEntity
  8
1
  6
CONTINUOUS
 62
     6
 48
0.75
100
AcDb2dPolyline
 66
     1
 10
0.0
 20
0.0
 30
0.0
 70
   128
  0
VERTEX
  5
42
100
AcDbEntity
  8
1
  6
CONTINUOUS
 62
     6
 48
0.75
100
AcDbVertex
100
AcDb2dVertex
 10
109.130319
 20
1.105799
 30
0.0
 40
0.0
 41
0.0
  0
VERTEX
  5
43
100
AcDbEntity
  8
1
  6
CONTINUOUS
 62
     6
 48
0.75
100
AcDbVertex
100
AcDb2dVertex
 10
109.130319
 20
5.598799
 30
0.0
 40
0.0
 41
0.0
  0
SEQEND
  5
44
100
AcDbEntity
  8
0
  0
POLYLINE
  5
45
100
AcDbEntity
  8
1
  6
CONTINUOUS
 62
     6
 48
0.75
100
AcDb2dPolyline
 66
     1
 10
0.0
 20
0.0
 30
0.0
 70
   128
  0
VERTEX
  5
46
100
AcDbEntity
  8
1
  6
CONTINUOUS
 62
     6
 48
0.75
100
AcDbVertex
100
AcDb2dVertex
 10
104.130319
 20
1.105799
 30
0.0
 40
0.0
 41
0.0
  0
VERTEX
  5
47
100
AcDbEntity
  8
1
  6
CONTINUOUS
 62
     6
 48
0.75
100
AcDbVertex
100
AcDb2dVertex
 10
104.130319
 20
6.198799
 30
0.0
 40
0.0
 41
0.0
  0
SEQEND
  5
48
100
AcDbEntity
  8
0
  0
POLYLINE
  5
49
100
AcDbEntity
  8
1
  6
CONTINUOUS
 62
     6
 48
0.75
100
AcDb2dPolyline
 66
     1
 10
0.0
 20
0.0
 30
0.0
 70
   128
  0
VERTEX
  5
4A
100
AcDbEntity
  8
1
  6
CONTINUOUS
 62
     6
 48
0.75
100
AcDbVertex
100
AcDb2dVertex
 10
94.130319
 20
1.105799
 30
0.0
 40
0.0
 41
0.0
  0
VERTEX
  5
4B
100
AcDbEntity
  8
1
  6
CONTINUOUS
 62
     6
 48
0.75
100
AcDbVertex
100
AcDb2dVertex
 10
94.130319
 20
6.905799
 30
0.0
 40
0.0
 41
0.0
  0
SEQEND
  5
4C
100
AcDbEntity
  8
0
  0
POLYLINE
  5
4D
100
AcDbEntity
  8
1
  6
CONTINUOUS
 62
     6
 48
0.75
100
AcDb2dPolyline
 66
     1
 10
0.0
 20
0.0
 30
0.0
 70
   128
  0
VERTEX
  5
4E
100
AcDbEntity
  8
1
  6
CONTINUOUS
 62
     6
 48
0.75
100
AcDbVertex
100
AcDb2dVertex
 10
84.130319
 20
1.105799
 30
0.0
 40
0.0
 41
0.0
  0
VERTEX
  5
4F
100
AcDbEntity
  8
1
  6
CONTINUOUS
 62
     6
 48
0.75
100
AcDbVertex
100
AcDb2dVertex
 10
84.130319
 20
7.105799
 30
0.0
 40
0.0
 41
0.0
  0
SEQEND
  5
50
100
AcDbEntity
  8
0
  0
POLYLINE
  5
51
100
AcDbEntity
  8
1
  6
CONTINUOUS
 62
     6
 48
0.75
100
AcDb2dPolyline
 66
     1
 10
0.0
 20
0.0
 30
0.0
 70
   128
  0
VERTEX
  5
52
100
AcDbEntity
  8
1
  6
CONTINUOUS
 62
     6
 48
0.75
100
AcDbVertex
100
AcDb2dVertex
 10
74.130319
 20
1.105799
 30
0.0
 40
0.0
 41
0.0
  0
VERTEX
  5
53
100
AcDbEntity
  8
1
  6
CONTINUOUS
 62
     6
 48
0.75
100
AcDbVertex
100
AcDb2dVertex
 10
74.130319
 20
6.932799
 30
0.0
 40
0.0
 41
0.0
  0
SEQEND
  5
54
100
AcDbEntity
  8
0
  0
POLYLINE
  5
55
100
AcDbEntity
  8
1
  6
CONTINUOUS
 62
     6
 48
0.75
100
AcDb2dPolyline
 66
     1
 10
0.0
 20
0.0
 30
0.0
 70
   128
  0
VERTEX
  5
56
100
AcDbEntity
  8
1
  6
CONTINUOUS
 62
     6
 48
0.75
100
AcDbVertex
100
AcDb2dVertex
 10
64.130319
 20
1.105799
 30
0.0
 40
0.0
 41
0.0
  0
VERTEX
  5
57
100
AcDbEntity
  8
1
  6
CONTINUOUS
 62
     6
 48
0.75
100
AcDbVertex
100
AcDb2dVertex
 10
64.130319
 20
6.425799
 30
0.0
 40
0.0
 41
0.0
  0
SEQEND
  5
58
100
AcDbEntity
  8
0
  0
POLYLINE
  5
59
100
AcDbEntity
  8
1
  6
CONTINUOUS
 62
     6
 48
0.75
100
AcDb2dPolyline
 66
     1
 10
0.0
 20
0.0
 30
0.0
 70
   128
  0
VERTEX
  5
5A
100
AcDbEntity
  8
1
  6
CONTINUOUS
 62
     6
 48
0.75
100
AcDbVertex
100
AcDb2dVertex
 10
54.130319
 20
1.105799
 30
0.0
 40
0.0
 41
0.0
  0
VERTEX
  5
5B
100
AcDbEntity
  8
1
  6
CONTINUOUS
 62
     6
 48
0.75
100
AcDbVertex
100
AcDb2dVertex
 10
54.130319
 20
5.585799
 30
0.0
 40
0.0
 41
0.0
  0
SEQEND
  5
5C
100
AcDbEntity
  8
0
  0
POLYLINE
  5
5D
100
AcDbEntity
  8
1
  6
CONTINUOUS
 62
     6
 48
0.75
100
AcDb2dPolyline
 66
     1
 10
0.0
 20
0.0
 30
0.0
 70
   128
  0
VERTEX
  5
5E
100
AcDbEntity
  8
1
  6
CONTINUOUS
 62
     6
 48
0.75
100
AcDbVertex
100
AcDb2dVertex
 10
44.130319
 20
1.105799
 30
0.0
 40
0.0
 41
0.0
  0
VERTEX
  5
5F
100
AcDbEntity
  8
1
  6
CONTINUOUS
 62
     6
 48
0.75
100
AcDbVertex
100
AcDb2dVertex
 10
44.130319
 20
4.425799
 30
0.0
 40
0.0
 41
0.0
  0
SEQEND
  5
60
100
AcDbEntity
  8
0
  0
POLYLINE
  5
61
100
AcDbEntity
  8
1
  6
CONTINUOUS
 62
     6
 48
0.75
100
AcDb2dPolyline
 66
     1
 10
0.0
 20
0.0
 30
0.0
 70
   128
  0
VERTEX
  5
62
100
AcDbEntity
  8
1
  6
CONTINUOUS
 62
     6
 48
0.75
100
AcDbVertex
100
AcDb2dVertex
 10
34.130319
 20
1.105799
 30
0.0
 40
0.0
 41
0.0
  0
VERTEX
  5
63
100
AcDbEntity
  8
1
  6
CONTINUOUS
 62
     6
 48
0.75
100
AcDbVertex
100
AcDb2dVertex
 10
34.130319
 20
2.972799
 30
0.0
 40
0.0
 41
0.0
  0
SEQEND
  5
64
100
AcDbEntity
  8
0
  0
POLYLINE
  5
65
100
AcDbEntity
  8
1
  6
CONTINUOUS
 62
     6
 48
0.75
100
AcDb2dPolyline
 66
     1
 10
0.0
 20
0.0
 30
0.0
 70
   128
  0
VERTEX
  5
66
100
AcDbEntity
  8
1
  6
CONTINUOUS
 62
     6
 48
0.75
100
AcDbVertex
100
AcDb2dVertex
 10
29.130319
 20
1.105799
 30
0.0
 40
0.0
 41
0.0
  0
VERTEX
  5
67
100
AcDbEntity
  8
1
  6
CONTINUOUS
 62
     6
 48
0.75
100
AcDbVertex
100
AcDb2dVertex
 10
29.130319
 20
2.132799
 30
0.0
 40
0.0
 41
0.0
  0
SEQEND
  5
68
100
AcDbEntity
  8
0
  0
POLYLINE
  5
69
100
AcDbEntity
  8
1
  6
CONTINUOUS
 62
     6
 48
0.75
100
AcDb2dPolyline
 66
     1
 10
0.0
 20
0.0
 30
0.0
 70
   128
  0
VERTEX
  5
6A
100
AcDbEntity
  8
1
  6
CONTINUOUS
 62
     6
 48
0.75
100
AcDbVertex
100
AcDb2dVertex
 10
124.130319
 20
1.105799
 30
0.0
 40
0.0
 41
0.0
  0
VERTEX
  5
6B
100
AcDbEntity
  8
1
  6
CONTINUOUS
 62
     6
 48
0.75
100
AcDbVertex
100
AcDb2dVertex
 10
24.130319
 20
1.105799
 30
0.0
 40
0.0
 41
0.0
  0
SEQEND
  5
6C
100
AcDbEntity
  8
0
  0
POLYLINE
  5
6D
100
AcDbEntity
  8
1
  6
CONTINUOUS
 62
     6
 48
0.75
100
AcDb2dPolyline
 66
     1
 10
0.0
 20
0.0
 30
0.0
 70
   128
  0
VERTEX
  5
6E
100
AcDbEntity
  8
1
  6
CONTINUOUS
 62
     6
 48
0.75
100
AcDbVertex
100
AcDb2dVertex
 10
122.878201
 20
1.10257
 30
0.0
 40
0.0
 41
0.0
  0
VERTEX
  5
6F
100
AcDbEntity
  8
1
  6
CONTINUOUS
 62
     6
 48
0.75
100
AcDbVertex
100
AcDb2dVertex
 10
122.878201
 20
-0.03043
 30
0.0
 40
0.0
 41
0.0
  0
SEQEND
  5
70
100
AcDbEntity
  8
0
  0
POLYLINE
  5
71
100
AcDbEntity
  8
1
  6
CONTINUOUS
 62
     6
 48
0.75
100
AcDb2dPolyline
 66
     1
 10
0.0
 20
0.0
 30
0.0
 70
   128
  0
VERTEX
  5
72
100
AcDbEntity
  8
1
  6
CONTINUOUS
 62
     6
 48
0.75
100
AcDbVertex
100
AcDb2dVertex
 10
121.628201
 20
1.10257
 30
0.0
 40
0.0
 41
0.0
  0
VERTEX
  5
73
100
AcDbEntity
  8
1
  6
CONTINUOUS
 62
     6
 48
0.75
100
AcDbVertex
100
AcDb2dVertex
 10
121.628201
 20
-0.57743
 30
0.0
 40
0.0
 41
0.0
  0
SEQEND
  5
74
100
AcDbEntity
  8
0
  0
POLYLINE
  5
75
100
AcDbEntity
  8
1
  6
CONTINUOUS
 62
     6
 48
0.75
100
AcDb2dPolyline
 66
     1
 10
0.0
 20
0.0
 30
0.0
 70
   128
  0
VERTEX
  5
76
100
AcDbEntity
  8
1
  6
CONTINUOUS
 62
     6
 48
0.75
100
AcDbVertex
100
AcDb2dVertex
 10
119.128201
 20
1.10257
 30
0.0
 40
0.0
 41
0.0
  0
VERTEX
  5
77
100
AcDbEntity
  8
1
  6
CONTINUOUS
 62
     6
 48
0.75
100
AcDbVertex
100
AcDb2dVertex
 10
119.128201
 20
-1.39043
 30
0.0
 40
0.0
 41
0.0
  0
SEQEND
  5
78
100
AcDbEntity
  8
0
  0
POLYLINE
  5
79
100
AcDbEntity
  8
1
  6
CONTINUOUS
 62
     6
 48
0.75
100
AcDb2dPolyline
 66
     1
 10
0.0
 20
0.0
 30
0.0
 70
   128
  0
VERTEX
  5
7A
100
AcDbEntity
  8
1
  6
CONTINUOUS
 62
     6
 48
0.75
100
AcDbVertex
100
AcDb2dVertex
 10
116.628201
 20
1.10257
 30
0.0
 40
0.0
 41
0.0
  0
VERTEX
  5
7B
100
AcDbEntity
  8
1
  6
CONTINUOUS
 62
     6
 48
0.75
100
AcDbVertex
100
AcDb2dVertex
 10
116.628201
 20
-2.03043
 30
0.0
 40
0.0
 41
0.0
  0
SEQEND
  5
7C
100
AcDbEntity
  8
0
  0
POLYLINE
  5
7D
100
AcDbEntity
  8
1
  6
CONTINUOUS
 62
     6
 48
0.75
100
AcDb2dPolyline
 66
     1
 10
0.0
 20
0.0
 30
0.0
 70
   128
  0
VERTEX
  5
7E
100
AcDbEntity
  8
1
  6
CONTINUOUS
 62
     6
 48
0.75
100
AcDbVertex
100
AcDb2dVertex
 10
114.128201
 20
1.10257
 30
0.0
 40
0.0
 41
0.0
  0
VERTEX
  5
7F
100
AcDbEntity
  8
1
  6
CONTINUOUS
 62
     6
 48
0.75
100
AcDbVertex
100
AcDb2dVertex
 10
114.128201
 20
-2.55043
 30
0.0
 40
0.0
 41
0.0
  0
SEQEND
  5
80
100
AcDbEntity
  8
0
  0
POLYLINE
  5
81
100
AcDbEntity
  8
1
  6
CONTINUOUS
 62
     6
 48
0.75
100
AcDb2dPolyline
 66
     1
 10
0.0
 20
0.0
 30
0.0
 70
   128
  0
VERTEX
  5
82
100
AcDbEntity
  8
1
  6
CONTINUOUS
 62
     6
 48
0.75
100
AcDbVertex
100
AcDb2dVertex
 10
109.128201
 20
1.10257
 30
0.0
 40
0.0
 41
0.0
  0
VERTEX
  5
83
100
AcDbEntity
  8
1
  6
CONTINUOUS
 62
     6
 48
0.75
100
AcDbVertex
100
AcDb2dVertex
 10
109.128201
 20
-3.39043
 30
0.0
 40
0.0
 41
0.0
  0
SEQEND
  5
84
100
AcDbEntity
  8
0
  0
POLYLINE
  5
85
100
AcDbEntity
  8
1
  6
CONTINUOUS
 62
     6
 48
0.75
100
AcDb2dPolyline
 66
     1
 10
0.0
 20
0.0
 30
0.0
 70
   128
  0
VERTEX
  5
86
100
AcDbEntity
  8
1
  6
CONTINUOUS
 62
     6
 48
0.75
100
AcDbVertex
100
AcDb2dVertex
 10
104.128201
 20
1.10257
 30
0.0
 40
0.0
 41
0.0
  0
VERTEX
  5
87
100
AcDbEntity
  8
1
  6
CONTINUOUS
 62
     6
 48
0.75
100
AcDbVertex
100
AcDb2dVertex
 10
104.128201
 20
-3.99043
 30
0.0
 40
0.0
 41
0.0
  0
SEQEND
  5
88
100
AcDbEntity
  8
0
  0
POLYLINE
  5
89
100
AcDbEntity
  8
1
  6
CONTINUOUS
 62
     6
 48
0.75
100
AcDb2dPolyline
 66
     1
 10
0.0
 20
0.0
 30
0.0
 70
   128
  0
VERTEX
  5
8A
100
AcDbEntity
  8
1
  6
CONTINUOUS
 62
     6
 48
0.75
100
AcDbVertex
100
AcDb2dVertex
 10
94.128201
 20
1.10257
 30
0.0
 40
0.0
 41
0.0
  0
VERTEX
  5
8B
100
AcDbEntity
  8
1
  6
CONTINUOUS
 62
     6
 48
0.75
100
AcDbVertex
100
AcDb2dVertex
 10
94.128201
 20
-4.69743
 30
0.0
 40
0.0
 41
0.0
  0
SEQEND
  5
8C
100
AcDbEntity
  8
0
  0
POLYLINE
  5
8D
100
AcDbEntity
  8
1
  6
CONTINUOUS
 62
     6
 48
0.75
100
AcDb2dPolyline
 66
     1
 10
0.0
 20
0.0
 30
0.0
 70
   128
  0
VERTEX
  5
8E
100
AcDbEntity
  8
1
  6
CONTINUOUS
 62
     6
 48
0.75
100
AcDbVertex
100
AcDb2dVertex
 10
84.128201
 20
1.10257
 30
0.0
 40
0.0
 41
0.0
  0
VERTEX
  5
8F
100
AcDbEntity
  8
1
  6
CONTINUOUS
 62
     6
 48
0.75
100
AcDbVertex
100
AcDb2dVertex
 10
84.128201
 20
-4.89743
 30
0.0
 40
0.0
 41
0.0
  0
SEQEND
  5
90
100
AcDbEntity
  8
0
  0
POLYLINE
  5
91
100
AcDbEntity
  8
1
  6
CONTINUOUS
 62
     6
 48
0.75
100
AcDb2dPolyline
 66
     1
 10
0.0
 20
0.0
 30
0.0
 70
   128
  0
VERTEX
  5
92
100
AcDbEntity
  8
1
  6
CONTINUOUS
 62
     6
 48
0.75
100
AcDbVertex
100
AcDb2dVertex
 10
74.128201
 20
1.10257
 30
0.0
 40
0.0
 41
0.0
  0
VERTEX
  5
93
100
AcDbEntity
  8
1
  6
CONTINUOUS
 62
     6
 48
0.75
100
AcDbVertex
100
AcDb2dVertex
 10
74.128201
 20
-4.72443
 30
0.0
 40
0.0
 41
0.0
  0
SEQEND
  5
94
100
AcDbEntity
  8
0
  0
POLYLINE
  5
95
100
AcDbEntity
  8
1
  6
CONTINUOUS
 62
     6
 48
0.75
100
AcDb2dPolyline
 66
     1
 10
0.0
 20
0.0
 30
0.0
 70
   128
  0
VERTEX
  5
96
100
AcDbEntity
  8
1
  6
CONTINUOUS
 62
     6
 48
0.75
100
AcDbVertex
100
AcDb2dVertex
 10
64.128201
 20
1.10257
 30
0.0
 40
0.0
 41
0.0
  0
VERTEX
  5
97
100
AcDbEntity
  8
1
  6
CONTINUOUS
 62
     6
 48
0.75
100
AcDbVertex
100
AcDb2dVertex
 10
64.128201
 20
-4.21743
 30
0.0
 40
0.0
 41
0.0
  0
SEQEND
  5
98
100
AcDbEntity
  8
0
  0
POLYLINE
  5
99
100
AcDbEntity
  8
1
  6
CONTINUOUS
 62
     6
 48
0.75
100
AcDb2dPolyline
 66
     1
 10
0.0
 20
0.0
 30
0.0
 70
   128
  0
VERTEX
  5
9A
100
AcDbEntity
  8
1
  6
CONTINUOUS
 62
     6
 48
0.75
100
AcDbVertex
100
AcDb2dVertex
 10
54.128201
 20
1.10257
 30
0.0
 40
0.0
 41
0.0
  0
VERTEX
  5
9B
100
AcDbEntity
  8
1
  6
CONTINUOUS
 62
     6
 48
0.75
100
AcDbVertex
100
AcDb2dVertex
 10
54.128201
 20
-3.37743
 30
0.0
 40
0.0
 41
0.0
  0
SEQEND
  5
9C
100
AcDbEntity
  8
0
  0
POLYLINE
  5
9D
100
AcDbEntity
  8
1
  6
CONTINUOUS
 62
     6
 48
0.75
100
AcDb2dPolyline
 66
     1
 10
0.0
 20
0.0
 30
0.0
 70
   128
  0
VERTEX
  5
9E
100
AcDbEntity
  8
1
  6
CONTINUOUS
 62
     6
 48
0.75
100
AcDbVertex
100
AcDb2dVertex
 10
44.128201
 20
1.10257
 30
0.0
 40
0.0
 41
0.0
  0
VERTEX
  5
9F
100
AcDbEntity
  8
1
  6
CONTINUOUS
 62
     6
 48
0.75
100
AcDbVertex
100
AcDb2dVertex
 10
44.128201
 20
-2.21743
 30
0.0
 40
0.0
 41
0.0
  0
SEQEND
  5
A0
100
AcDbEntity
  8
0
  0
POLYLINE
  5
A1
100
AcDbEntity
  8
1
  6
CONTINUOUS
 62
     6
 48
0.75
100
AcDb2dPolyline
 66
     1
 10
0.0
 20
0.0
 30
0.0
 70
   128
  0
VERTEX
  5
A2
100
AcDbEntity
  8
1
  6
CONTINUOUS
 62
     6
 48
0.75
100
AcDbVertex
100
AcDb2dVertex
 10
34.128201
 20
1.10257
 30
0.0
 40
0.0
 41
0.0
  0
VERTEX
  5
A3
100
AcDbEntity
  8
1
  6
CONTINUOUS
 62
     6
 48
0.75
100
AcDbVertex
100
AcDb2dVertex
 10
34.128201
 20
-0.76443
 30
0.0
 40
0.0
 41
0.0
  0
SEQEND
  5
A4
100
AcDbEntity
  8
0
  0
POLYLINE
  5
A5
100
AcDbEntity
  8
1
  6
CONTINUOUS
 62
     6
 48
0.75
100
AcDb2dPolyline
 66
     1
 10
0.0
 20
0.0
 30
0.0
 70
   128
  0
VERTEX
  5
A6
100
AcDbEntity
  8
1
  6
CONTINUOUS
 62
     6
 48
0.75
100
AcDbVertex
100
AcDb2dVertex
 10
29.128201
 20
1.10257
 30
0.0
 40
0.0
 41
0.0
  0
VERTEX
  5
A7
100
AcDbEntity
  8
1
  6
CONTINUOUS
 62
     6
 48
0.75
100
AcDbVertex
100
AcDb2dVertex
 10
29.128201
 20
0.07557
 30
0.0
 40
0.0
 41
0.0
  0
SEQEND
  5
A8
100
AcDbEntity
  8
0
  0
SPLINE
  5
A9
100
AcDbEntity
  8
1
  6
CONTINUOUS
 62
     6
 48
0.75
100
AcDbSpline
210
0.0
220
0.0
230
1.0
 70
     0
 71
     3
 72
     0
 73
     0
 74
    33
 44
0.0
 11
24.130301769886952
 21
1.1057729816780484
 31
0.0
 11
29.12822735482403
 21
0.0754573833591331
 31
0.0
 11
34.128410156247895
 21
-0.7645422387253327
 31
0.0
 11
44.128186067566666
 21
-2.2175093040929141
 31
0.0
 11
54.128239855763056
 21
-3.3773916009824068
 31
0.0
 11
64.128091536355839
 21
-4.2177724196069599
 31
0.0
 11
74.130937297277981
 21
-4.7312440996512697
 31
0.0
 11
84.12820266990542
 21
-4.8974306129536886
 31
0.0
 11
94.128181089650809
 21
-4.6975084690808329
 31
0.0
 11
104.12779427774281
 21
-3.9905722392709153
 31
0.0
 11
109.13141288768689
 21
-3.3898009588988587
 31
0.0
 11
114.12319863786725
 21
-2.5520843576206942
 31
0.0
 11
116.6247080128057
 21
-2.0301615415021326
 31
0.0
 11
119.12757375969143
 21
-1.3907804401274046
 31
0.0
 11
121.62910178378387
 21
-0.5777268297998156
 31
0.0
 11
122.87895184686887
 21
-0.0304611509571095
 31
0.0
 11
124.13031734874117
 21
1.1058188311520238
 31
0.0
 11
122.88031877415669
 21
2.2387993706806366
 31
0.0
 11
121.63031877415669
 21
2.7857993706806408
 31
0.0
 11
119.13031877415669
 21
3.5987993706806396
 31
0.0
 11
116.63031877415669
 21
4.2387993706806366
 31
0.0
 11
114.13031877415669
 21
4.7587993706806397
 31
0.0
 11
109.13031877415669
 21
5.5987993706806396
 31
0.0
 11
104.13031877415669
 21
6.1987993706806375
 31
0.0
 11
94.130318774156692
 21
6.9057993706806382
 31
0.0
 11
84.130318774156692
 21
7.105799370680641
 31
0.0
 11
74.130318774156692
 21
6.9327993706806392
 31
0.0
 11
64.130318774156692
 21
6.4257993706806413
 31
0.0
 11
54.130318774156692
 21
5.5857993706806379
 31
0.0
 11
44.130318774156692
 21
4.4257993706806413
 31
0.0
 11
34.130318774156692
 21
2.9727993706806384
 31
0.0
 11
29.130318774156692
 21
2.1327993706806385
 31
0.0
 11
24.130181936863544
 21
1.1057729816780484
 31
0.0
  0
TEXT
  5
AA
100
AcDbEntity
  8
0
 62
     6
 48
0.0
100
AcDbText
 10
46.816549
 20
3.584044
 30
0.0
 40
0.6
  1
Boy = 100
 72
     5
 11
50.600259
 21
3.584044
 31
0.0
210
0.0
220
0.0
230
1.0
100
AcDbText
  0
TEXT
  5
AB
100
AcDbEntity
  8
0
 62
     6
 48
0.0
100
AcDbText
 10
46.816549
 20
2.384044
 30
0.0
 40
0.6
  1
Kalinlik = 12
 72
     5
 11
51.707952
 21
2.384044
 31
0.0
210
0.0
220
0.0
230
1.0
100
AcDbText
  0
TEXT
  5
AC
100
AcDbEntity
  8
0
 62
     6
 48
0.0
100
AcDbText
 10
71.250971
 20
-2.301635
 30
0.0
 40
1.5
  1
Çemberci Denizcilik
 72
     5
 11
90.16726
 21
-2.301635
 31
0.0
210
0.0
220
0.0
230
1.0
100
AcDbText
  0
TEXT
  5
AD
100
AcDbEntity
  8
0
 62
     6
 48
0.0
100
AcDbText
 10
70.195163
 20
2.524917
 30
0.0
 40
2.0
  1
NACA - 0012
 72
     5
 11
86.955344
 21
2.524917
 31
0.0
210
0.0
220
0.0
230
1.0
100
AcDbText
  0
ENDSEC
  0
SECTION
  2
OBJECTS
  0
DICTIONARY
  5
19
100
AcDbDictionary
  3
ACAD_GROUP
350
1A
  3
ACAD_MLINESTYLE
350
1B
  0
DICTIONARY
  5
1A
102
{ACAD_REACTORS
330
19
102
}
100
AcDbDictionary
  0
DICTIONARY
  5
1B
102
{ACAD_REACTORS
330
19
102
}
100
AcDbDictionary
  3
STANDARD
350
1C
  0
MLINESTYLE
  5
1C
102
{ACAD_REACTORS
330
1B
102
}
100
AcDbMlineStyle
  2
STANDARD
 70
     0
  3

 62
     0
 51
90.0
 52
90.0
 71
     2
 49
0.5
 62
   256
  6
BYLAYER
 49
-0.5
 62
   256
  6
BYLAYER
  0
ENDSEC
  0
EOF
