  0
SECTION
  2
HEADER
  9
$ACADVER
  1
AC1014
  9
$ACADMAINTVER
 70
     0
  9
$DWGCODEPAGE
  3
ANSI_1252
  9
$INSBASE
 10
0.0
 20
0.0
 30
0.0
  9
$EXTMIN
 10
2.999084
 20
-3.716218
 30
0.0
  9
$EXTMAX
 10
12.999175
 20
-1.717544
 30
0.0
  9
$LIMMIN
 10
0.0
 20
0.0
  9
$LIMMAX
 10
0.0
 20
0.0
  9
$ORTHOMODE
 70
     0
  9
$REGENMODE
 70
     1
  9
$FILLMODE
 70
     1
  9
$QTEXTMODE
 70
     0
  9
$MIRRTEXT
 70
     1
  9
$DRAGMODE
 70
     2
  9
$LTSCALE
 40
1.0
  9
$OSMODE
 70
     0
  9
$ATTMODE
 70
     1
  9
$TEXTSIZE
 40
0.2
  9
$TRACEWID
 40
0.05
  9
$TEXTSTYLE
  7
STANDARD
  9
$CLAYER
  8
0
  9
$CELTYPE
  6
CONTINUOUS
  9
$CECOLOR
 62
   256
  9
$CELTSCALE
 40
1.0
  9
$DELOBJ
 70
     1
  9
$DISPSILH
 70
     0
  9
$DIMSCALE
 40
1.0
  9
$DIMASZ
 40
0.18
  9
$DIMEXO
 40
0.0625
  9
$DIMDLI
 40
0.38
  9
$DIMRND
 40
0.0
  9
$DIMDLE
 40
0.0
  9
$DIMEXE
 40
0.18
  9
$DIMTP
 40
0.0
  9
$DIMTM
 40
0.0
  9
$DIMTXT
 40
0.18
  9
$DIMCEN
 40
0.09
  9
$DIMTSZ
 40
0.0
  9
$DIMTOL
 70
     0
  9
$DIMLIM
 70
     0
  9
$DIMTIH
 70
     1
  9
$DIMTOH
 70
     1
  9
$DIMSE1
 70
     0
  9
$DIMSE2
 70
     0
  9
$DIMTAD
 70
     0
  9
$DIMZIN
 70
     0
  9
$DIMBLK
  1

  9
$DIMASO
 70
     1
  9
$DIMSHO
 70
     1
  9
$DIMPOST
  1

  9
$DIMAPOST
  1

  9
$DIMALT
 70
     0
  9
$DIMALTD
 70
     2
  9
$DIMALTF
 40
25.4
  9
$DIMLFAC
 40
1.0
  9
$DIMTOFL
 70
     0
  9
$DIMTVP
 40
0.0
  9
$DIMTIX
 70
     0
  9
$DIMSOXD
 70
     0
  9
$DIMSAH
 70
     0
  9
$DIMBLK1
  1

  9
$DIMBLK2
  1

  9
$DIMSTYLE
  2
STANDARD
  9
$DIMCLRD
 70
     0
  9
$DIMCLRE
 70
     0
  9
$DIMCLRT
 70
     0
  9
$DIMTFAC
 40
1.0
  9
$DIMGAP
 40
0.09
  9
$DIMJUST
 70
     0
  9
$DIMSD1
 70
     0
  9
$DIMSD2
 70
     0
  9
$DIMTOLJ
 70
     1
  9
$DIMTZIN
 70
     0
  9
$DIMALTZ
 70
     0
  9
$DIMALTTZ
 70
     0
  9
$DIMFIT
 70
     3
  9
$DIMUPT
 70
     0
  9
$DIMUNIT
 70
     2
  9
$DIMDEC
 70
     4
  9
$DIMTDEC
 70
     4
  9
$DIMALTU
 70
     2
  9
$DIMALTTD
 70
     2
  9
$DIMTXSTY
  7
STANDARD
  9
$DIMAUNIT
 70
     0
  9
$LUNITS
 70
     2
  9
$LUPREC
 70
     4
  9
$SKETCHINC
 40
0.1
  9
$FILLETRAD
 40
0.0
  9
$AUNITS
 70
     0
  9
$AUPREC
 70
     0
  9
$MENU
  1
acad
  9
$ELEVATION
 40
0.0
  9
$PELEVATION
 40
0.0
  9
$THICKNESS
 40
0.0
  9
$LIMCHECK
 70
     0
  9
$BLIPMODE
 70
     1
  9
$CHAMFERA
 40
0.0
  9
$CHAMFERB
 40
0.0
  9
$CHAMFERC
 40
0.0
  9
$CHAMFERD
 40
0.0
  9
$SKPOLY
 70
     0
  9
$TDCREATE
 40
0.000000000
  9
$TDUPDATE
 40
0.000000000
  9
$TDINDWG
 40
0.0000000000
  9
$TDUSRTIMER
 40
0.0000000000
  9
$USRTIMER
 70
     1
  9
$ANGBASE
 50
0.0
  9
$ANGDIR
 70
     0
  9
$PDMODE
 70
     0
  9
$PDSIZE
 40
0.0
  9
$PLINEWID
 40
0.0
  9
$COORDS
 70
     0
  9
$SPLFRAME
 70
     0
  9
$SPLINETYPE
 70
     6
  9
$SPLINESEGS
 70
     8
  9
$ATTDIA
 70
     0
  9
$ATTREQ
 70
     1
  9
$HANDLING
 70
     1
  9
$HANDSEED
  5
108
  9
$SURFTAB1
 70
     6
  9
$SURFTAB2
 70
     6
  9
$SURFTYPE
 70
     6
  9
$SURFU
 70
     6
  9
$SURFV
 70
     6
  9
$UCSNAME
  2

  9
$UCSORG
 10
0.0
 20
0.0
 30
0.0
  9
$UCSXDIR
 10
1.0
 20
0.0
 30
0.0
  9
$UCSYDIR
 10
0.0
 20
1.0
 30
0.0
  9
$PUCSNAME
  2

  9
$PUCSORG
 10
0.0
 20
0.0
 30
0.0
  9
$PUCSXDIR
 10
1.0
 20
0.0
 30
0.0
  9
$PUCSYDIR
 10
0.0
 20
1.0
 30
0.0
  9
$USERI1
 70
     0
  9
$USERI2
 70
     0
  9
$USERI3
 70
     0
  9
$USERI4
 70
     0
  9
$USERI5
 70
     0
  9
$USERR1
 40
0.0
  9
$USERR2
 40
0.0
  9
$USERR3
 40
0.0
  9
$USERR4
 40
0.0
  9
$USERR5
 40
0.0
  9
$WORLDVIEW
 70
     1
  9
$SHADEDGE
 70
     3
  9
$SHADEDIF
 70
    70
  9
$TILEMODE
 70
     1
  9
$MAXACTVP
 70
    16
  9
$PINSBASE
 10
0.0
 20
0.0
 30
0.0
  9
$PLIMCHECK
 70
     0
  9
$PEXTMIN
 10
1.000000E+20
 20
1.000000E+20
 30
1.000000E+20
  9
$PEXTMAX
 10
-1.000000E+20
 20
-1.000000E+20
 30
-1.000000E+20
  9
$PLIMMIN
 10
0.0
 20
0.0
  9
$PLIMMAX
 10
12.0
 20
9.0
  9
$UNITMODE
 70
     0
  9
$VISRETAIN
 70
     0
  9
$PLINEGEN
 70
     0
  9
$PSLTSCALE
 70
     0
  9
$TREEDEPTH
 70
  3020
  9
$PICKSTYLE
 70
     1
  9
$CMLSTYLE
  2
STANDARD
  9
$CMLJUST
 70
     0
  9
$CMLSCALE
 40
1.0
  9
$PROXYGRAPHICS
 70
     0
  9
$MEASUREMENT
 70
     0
  0
ENDSEC
  0
SECTION
  2
CLASSES
  0
CLASS
  1
LWPOLYLINE
  2
AcDbPolyline
  3
"AutoCAD"
 90
        0
280
     0
281
     1
  0
CLASS
  1
IMAGE
  2
AcDbRasterImage
  3
ISM
 90
      127
280
     0
281
     1
  0
CLASS
  1
OLE2FRAME
  2
AcDbOle2Frame
  3
""
 90
        0
280
     0
281
     1
  0
CLASS
  1
HATCH
  2
AcDbHatch
  3
"ACAD_SEDONA"
 90
        0
280
     0
281
     1
  0
CLASS
  1
DICTIONARYVAR
  2
AcDbDictionaryVar
  3
"AutoCAD"
 90
        0
280
     0
281
     0
  0
CLASS
  1
RASTERVARIABLES
  2
AcDbRasterVariables
  3
ISM
 90
        0
280
     0
281
     0
  0
CLASS
  1
IMAGEDEF
  2
AcDbRasterImageDef
  3
ISM
 90
        0
280
     0
281
     0
  0
CLASS
  1
IMAGEDEF_REACTOR
  2
AcDbRasterImageDefReactor
  3
ISM
 90
        1
280
     0
281
     0
  0
CLASS
  1
IDBUFFER
  2
AcDbIdBuffer
  3
"Acad"
 90
        0
280
     0
281
     0
  0
CLASS
  1
SPATIAL_FILTER
  2
AcDbSpatialFilter
  3
"Acad"
 90
        0
280
     0
281
     0
  0
CLASS
  1
XRECORD
  2
AcDbXrecord
  3
"<Built In>"
 90
        0
280
     0
281
     0
  0
CLASS
  1
SORTENTSTABLE
  2
AcDbSortentsTable
  3
"AutoCAD"
 90
        0
280
     0
281
     0
  0
CLASS
  1
LAYER_INDEX
  2
AcDbLayerIndex
  3
"Acad"
 90
        0
280
     0
281
     0
  0
CLASS
  1
SPATIAL_INDEX
  2
AcDbSpatialIndex
  3
"Acad"
 90
        0
280
     0
281
     0
  0
CLASS
  1
OBJECT_PTR
  2
CAseDLPNTableRecord
  3
"ASE-LPNTableRecord"
 90
        1
280
     0
281
     0
  0
CLASS
  1
LAYOUT
  2
AcDbLayout
  3
"AutoCAD 2000"
 90
        1
280
     0
281
     0
  0
CLASS
  1
PLOTSETTINGS
  2
AcDbPlotSettings
  3
"AutoCAD 2000"
 90
        1
280
     0
281
     0
  0
CLASS
  1
ACDBDICTIONARYWDFLT
  2
AcDbDictionaryWithDefault
  3
"AutoCAD 2000"
 90
        1
280
     0
281
     0
  0
CLASS
  1
ACDBPLACEHOLDER
  2
AcDbPlaceHolder
  3
"AutoCAD 2000"
 90
        1
280
     0
281
     0
  0
CLASS
  1
VBA_PROJECT
  2
AcDbVbaProject
  3
"acadvba"
 90
        1
280
     0
281
     0
  0
CLASS
  1
WIPEOUT
  2
AcDbWipeout
  3
WipeOut|AutoCAD Express Tool|expresstools@autodesk.com
 90
      127
280
     0
281
     1
  0
CLASS
  1
WIPEOUTVARIABLES
  2
AcDbWipeoutVariables
  3
WipeOut|AutoCAD Express Tool|expresstools@autodesk.com
 90
        0
280
     0
281
     0
  0
CLASS
  1
RTEXT
  2
RText
  3
RText|AutoCAD Express Tool|expresstools@autodesk.com
 90
        0
280
     0
281
     1
  0
CLASS
  1
ARCALIGNEDTEXT
  2
AcDbArcAlignedText
  3
ATEXT|AutoCAD Express Tool|expresstools@autodesk.com
 90
        0
280
     0
281
     1
  0
ENDSEC
  0
SECTION
  2
TABLES
  0
TABLE
  2
VPORT
  5
7
100
AcDbSymbolTable
 70
     2
  0
VPORT
  5
15
100
AcDbSymbolTableRecord
100
AcDbViewportTableRecord
  2
*ACTIVE
 70
     0
 10
0.0
 20
0.0
 11
1.0
 21
1.0
 12
6.591288
 22
4.579184
 13
0.0
 23
0.0
 14
1.0
 24
1.0
 15
0.0
 25
0.0
 16
0.0
 26
0.0
 36
1.0
 17
0.0
 27
0.0
 37
0.0
 40
9.158369
 41
0.688564
 42
50.0
 43
0.0
 44
0.0
 50
0.0
 51
0.0
 71
     0
 72
   100
 73
     1
 74
     1
 75
     0
 76
     0
 77
     0
 78
     0
  0
VPORT
  5
2B
100
AcDbSymbolTableRecord
100
AcDbViewportTableRecord
  2
DCADVPORT
 70
     0
 10
2.999084
 20
-3.716218
 11
12.999175
 21
-1.717544
 12
6.21
 22
9.02
 13
0.0
 23
0.0
 14
1.0
 24
1.0
 15
0.0
 25
0.0
 16
0.0
 26
0.0
 36
1.0
 17
0.0
 27
0.0
 37
0.0
 40
18.04
 41
0.688564
 42
50.0
 43
1.0
 44
1.0
 50
0.0
 51
0.0
 71
     0
 72
   100
 73
     1
 74
     1
 75
     0
 76
     0
 77
     0
 78
     0
  0
ENDTAB
  0
TABLE
  2
LTYPE
  5
4
100
AcDbSymbolTable
 70
    15
  0
LTYPE
  5
11
100
AcDbSymbolTableRecord
100
AcDbLinetypeTableRecord
  2
BYBLOCK
 70
    64
  3

 72
    65
 73
     0
 40
0.0
  0
LTYPE
  5
12
100
AcDbSymbolTableRecord
100
AcDbLinetypeTableRecord
  2
BYLAYER
 70
    64
  3

 72
    65
 73
     0
 40
0.0
  0
LTYPE
  5
13
100
AcDbSymbolTableRecord
100
AcDbLinetypeTableRecord
  2
CONTINUOUS
 70
    64
  3
Solid line
 72
    65
 73
     0
 40
0.0
  0
LTYPE
  5
1E
100
AcDbSymbolTableRecord
100
AcDbLinetypeTableRecord
  2
CONTINUOUS
 70
     0
  3
Solid line
 72
    65
 73
     0
 40
0.0
  0
LTYPE
  5
1F
100
AcDbSymbolTableRecord
100
AcDbLinetypeTableRecord
  2
BORDER
 70
    64
  3
__ __ . __ __ . __ __ . __ __ . __ __ . __ __ .
 72
    65
 73
     6
 40
1.75
 49
0.5
 74
     0
 49
-0.25
 74
     0
 49
0.5
 74
     0
 49
-0.25
 74
     0
 49
0.0
 74
     0
 49
-0.25
 74
     0
  0
LTYPE
  5
20
100
AcDbSymbolTableRecord
100
AcDbLinetypeTableRecord
  2
BORDER2
 70
    64
  3
__.__.__.__.__.__.__.__.__.__.__.__.__.__.__.__
 72
    65
 73
     6
 40
0.875
 49
0.25
 74
     0
 49
-0.125
 74
     0
 49
0.25
 74
     0
 49
-0.125
 74
     0
 49
0.0
 74
     0
 49
-0.125
 74
     0
  0
LTYPE
  5
21
100
AcDbSymbolTableRecord
100
AcDbLinetypeTableRecord
  2
CENTER
 70
    64
  3
____ _ ____ _ ____ _ ____ _ ____ _ ____ _ ____ 
 72
    65
 73
     4
 40
2.0
 49
1.25
 74
     0
 49
-0.25
 74
     0
 49
0.25
 74
     0
 49
-0.25
 74
     0
  0
LTYPE
  5
22
100
AcDbSymbolTableRecord
100
AcDbLinetypeTableRecord
  2
DASHDOT
 70
    64
  3
__ . __ . __ . __ . __ . __ . __ . __ . __ . __
 72
    65
 73
     4
 40
1.0
 49
0.5
 74
     0
 49
-0.25
 74
     0
 49
0.0
 74
     0
 49
-0.25
 74
     0
  0
LTYPE
  5
23
100
AcDbSymbolTableRecord
100
AcDbLinetypeTableRecord
  2
DASHDOT2
 70
    64
  3
_._._._._._._._._._._._._._._._._._._._._._._._
 72
    65
 73
     4
 40
0.5
 49
0.25
 74
     0
 49
-0.125
 74
     0
 49
0.0
 74
     0
 49
-0.125
 74
     0
  0
LTYPE
  5
24
100
AcDbSymbolTableRecord
100
AcDbLinetypeTableRecord
  2
DASHED
 70
    64
  3
__ __ __ __ __ __ __ __ __ __ __ __ __ __ __ __
 72
    65
 73
     2
 40
0.75
 49
0.5
 74
     0
 49
-0.25
 74
     0
  0
LTYPE
  5
25
100
AcDbSymbolTableRecord
100
AcDbLinetypeTableRecord
  2
DIVIDE
 70
    64
  3
____ . . ____ . . ____ . . ____ . . ____ . . __
 72
    65
 73
     6
 40
1.25
 49
0.5
 74
     0
 49
-0.25
 74
     0
 49
0.0
 74
     0
 49
-0.25
 74
     0
 49
0.0
 74
     0
 49
-0.25
 74
     0
  0
LTYPE
  5
26
100
AcDbSymbolTableRecord
100
AcDbLinetypeTableRecord
  2
DIVIDE2
 70
    64
  3
__..__..__..__..__..__..__..__..__..__..__..__.
 72
    65
 73
     6
 40
0.625
 49
0.25
 74
     0
 49
-0.125
 74
     0
 49
0.0
 74
     0
 49
-0.125
 74
     0
 49
0.0
 74
     0
 49
-0.125
 74
     0
  0
LTYPE
  5
27
100
AcDbSymbolTableRecord
100
AcDbLinetypeTableRecord
  2
DOT
 70
    64
  3
. . . . . . . . . . . . . . . . . . . . . . . .
 72
    65
 73
     2
 40
0.25
 49
0.0
 74
     0
 49
-0.25
 74
     0
  0
LTYPE
  5
28
100
AcDbSymbolTableRecord
100
AcDbLinetypeTableRecord
  2
HIDDEN
 70
    64
  3
__ __ __ __ __ __ __ __ __ __ __ __ __ __ __ __
 72
    65
 73
     2
 40
0.375
 49
0.25
 74
     0
 49
-0.125
 74
     0
  0
LTYPE
  5
29
100
AcDbSymbolTableRecord
100
AcDbLinetypeTableRecord
  2
PHANTOM
 70
    64
  3
______  __  __  ______  __  __  ______  __  __ 
 72
    65
 73
     6
 40
2.5
 49
1.25
 74
     0
 49
-0.25
 74
     0
 49
0.25
 74
     0
 49
-0.25
 74
     0
 49
0.25
 74
     0
 49
-0.25
 74
     0
  0
ENDTAB
  0
TABLE
  2
LAYER
  5
2
100
AcDbSymbolTable
 70
     2
  0
LAYER
  5
14
100
AcDbSymbolTableRecord
100
AcDbLayerTableRecord
  2
0
 70
     0
 62
     7
  6
CONTINUOUS
  0
LAYER
  5
2A
100
AcDbSymbolTableRecord
100
AcDbLayerTableRecord
  2
1
 70
     0
 62
     7
  6
CONTINUOUS
  0
ENDTAB
  0
TABLE
  2
STYLE
  5
3
100
AcDbSymbolTable
 70
     2
  0
STYLE
  5
17
100
AcDbSymbolTableRecord
100
AcDbTextStyleTableRecord
  2
STANDARD
 70
     0
 40
0.0
 41
1.0
 50
0.0
 71
     0
 42
0.0
  3
txt
  4

  0
STYLE
  5
1D
100
AcDbSymbolTableRecord
100
AcDbTextStyleTableRecord
  2
BIGFONT
 70
    64
 40
3.0
 41
1.0
 50
0.0
 71
     0
 42
0.2
  3

  4
BIGFONT
  0
ENDTAB
  0
TABLE
  2
VIEW
  5
5
100
AcDbSymbolTable
 70
     0
  0
ENDTAB
  0
TABLE
  2
UCS
  5
6
100
AcDbSymbolTable
 70
     0
  0
ENDTAB
  0
TABLE
  2
APPID
  5
8
100
AcDbSymbolTable
 70
     1
  0
APPID
  5
16
100
AcDbSymbolTableRecord
100
AcDbRegAppTableRecord
  2
ACAD
 70
     0
  0
ENDTAB
  0
TABLE
  2
DIMSTYLE
  5
9
100
AcDbSymbolTable
 70
     1
  0
DIMSTYLE
105
18
100
AcDbSymbolTableRecord
100
AcDbDimStyleTableRecord
  2
STANDARD
 70
     0
  3

  4

  5

  6

  7

 40
1.0
 41
0.18
 42
0.0625
 43
0.38
 44
0.18
 45
0.0
 46
0.0
 47
0.0
 48
0.0
 71
     0
 72
     0
 73
     1
 74
     1
 75
     0
 76
     0
 77
     0
 78
     0
140
0.18
141
0.09
142
0.0
143
25.4
144
1.0
145
0.0
146
1.0
147
0.09
170
     0
171
     2
172
     0
173
     0
174
     0
175
     0
176
     0
177
     0
178
     0
270
     2
271
     4
272
     4
273
     2
274
     2
275
     0
280
     0
281
     0
282
     0
283
     1
284
     0
285
     0
286
     0
287
     0
288
     0
340
17
  0
ENDTAB
  0
TABLE
  2
BLOCK_RECORD
  5
1
100
AcDbSymbolTable
 70
     0
  0
BLOCK_RECORD
  5
A
100
AcDbSymbolTableRecord
100
AcDbBlockTableRecord
  2
*MODEL_SPACE
  0
BLOCK_RECORD
  5
B
100
AcDbSymbolTableRecord
100
AcDbBlockTableRecord
  2
*PAPER_SPACE
  0
ENDTAB
  0
ENDSEC
  0
SECTION
  2
BLOCKS
  0
BLOCK
  5
D
100
AcDbEntity
  8
0
100
AcDbBlockBegin
  2
*MODEL_SPACE
 70
     0
 10
0.0
 20
0.0
 30
0.0
  3
*MODEL_SPACE
  1

  0
ENDBLK
  5
E
100
AcDbEntity
  8
0
100
AcDbBlockEnd
  0
BLOCK
  5
F
100
AcDbEntity
 67
     1
  8
0
100
AcDbBlockBegin
  2
*PAPER_SPACE
 70
     0
 10
0.0
 20
0.0
 30
0.0
  3
*PAPER_SPACE
  1

  0
ENDBLK
  5
10
100
AcDbEntity
 67
     1
  8
0
100
AcDbBlockEnd
  0
ENDSEC
  0
SECTION
  2
ENTITIES
  0
POLYLINE
  5
2C
100
AcDbEntity
  8
1
  6
CONTINUOUS
 62
   212
 48
0.0008
100
AcDb2dPolyline
 66
     1
 10
0.0
 20
0.0
 30
0.0
 70
   128
  0
VERTEX
  5
2D
100
AcDbEntity
  8
1
  6
CONTINUOUS
 62
   212
 48
0.0008
100
AcDbVertex
100
AcDb2dVertex
 10
12.874801
 20
-2.71899
 30
0.0
 40
0.0
 41
0.0
  0
VERTEX
  5
2E
100
AcDbEntity
  8
1
  6
CONTINUOUS
 62
   212
 48
0.0008
100
AcDbVertex
100
AcDb2dVertex
 10
12.874801
 20
-2.496447
 30
0.0
 40
0.0
 41
0.0
  0
SEQEND
  5
2F
100
AcDbEntity
  8
0
  0
POLYLINE
  5
30
100
AcDbEntity
  8
1
  6
CONTINUOUS
 62
   212
 48
0.0008
100
AcDb2dPolyline
 66
     1
 10
0.0
 20
0.0
 30
0.0
 70
   128
  0
VERTEX
  5
31
100
AcDbEntity
  8
1
  6
CONTINUOUS
 62
   212
 48
0.0008
100
AcDbVertex
100
AcDb2dVertex
 10
12.750001
 20
-2.71899
 30
0.0
 40
0.0
 41
0.0
  0
VERTEX
  5
32
100
AcDbEntity
  8
1
  6
CONTINUOUS
 62
   212
 48
0.0008
100
AcDbVertex
100
AcDb2dVertex
 10
12.750001
 20
-2.403814
 30
0.0
 40
0.0
 41
0.0
  0
SEQEND
  5
33
100
AcDbEntity
  8
0
  0
POLYLINE
  5
34
100
AcDbEntity
  8
1
  6
CONTINUOUS
 62
   212
 48
0.0008
100
AcDb2dPolyline
 66
     1
 10
0.0
 20
0.0
 30
0.0
 70
   128
  0
VERTEX
  5
35
100
AcDbEntity
  8
1
  6
CONTINUOUS
 62
   212
 48
0.0008
100
AcDbVertex
100
AcDb2dVertex
 10
12.500001
 20
-2.71899
 30
0.0
 40
0.0
 41
0.0
  0
VERTEX
  5
36
100
AcDbEntity
  8
1
  6
CONTINUOUS
 62
   212
 48
0.0008
100
AcDbVertex
100
AcDb2dVertex
 10
12.500001
 20
-2.287812
 30
0.0
 40
0.0
 41
0.0
  0
SEQEND
  5
37
100
AcDbEntity
  8
0
  0
POLYLINE
  5
38
100
AcDbEntity
  8
1
  6
CONTINUOUS
 62
   212
 48
0.0008
100
AcDb2dPolyline
 66
     1
 10
0.0
 20
0.0
 30
0.0
 70
   128
  0
VERTEX
  5
39
100
AcDbEntity
  8
1
  6
CONTINUOUS
 62
   212
 48
0.0008
100
AcDbVertex
100
AcDb2dVertex
 10
12.250001
 20
-2.71899
 30
0.0
 40
0.0
 41
0.0
  0
VERTEX
  5
3A
100
AcDbEntity
  8
1
  6
CONTINUOUS
 62
   212
 48
0.0008
100
AcDbVertex
100
AcDb2dVertex
 10
12.250001
 20
-2.199629
 30
0.0
 40
0.0
 41
0.0
  0
SEQEND
  5
3B
100
AcDbEntity
  8
0
  0
POLYLINE
  5
3C
100
AcDbEntity
  8
1
  6
CONTINUOUS
 62
   212
 48
0.0008
100
AcDb2dPolyline
 66
     1
 10
0.0
 20
0.0
 30
0.0
 70
   128
  0
VERTEX
  5
3D
100
AcDbEntity
  8
1
  6
CONTINUOUS
 62
   212
 48
0.0008
100
AcDbVertex
100
AcDb2dVertex
 10
12.000001
 20
-2.71899
 30
0.0
 40
0.0
 41
0.0
  0
VERTEX
  5
3E
100
AcDbEntity
  8
1
  6
CONTINUOUS
 62
   212
 48
0.0008
100
AcDbVertex
100
AcDb2dVertex
 10
12.000001
 20
-2.127302
 30
0.0
 40
0.0
 41
0.0
  0
SEQEND
  5
3F
100
AcDbEntity
  8
0
  0
POLYLINE
  5
40
100
AcDbEntity
  8
1
  6
CONTINUOUS
 62
   212
 48
0.0008
100
AcDb2dPolyline
 66
     1
 10
0.0
 20
0.0
 30
0.0
 70
   128
  0
VERTEX
  5
41
100
AcDbEntity
  8
1
  6
CONTINUOUS
 62
   212
 48
0.0008
100
AcDbVertex
100
AcDb2dVertex
 10
11.500001
 20
-2.71899
 30
0.0
 40
0.0
 41
0.0
  0
VERTEX
  5
42
100
AcDbEntity
  8
1
  6
CONTINUOUS
 62
   212
 48
0.0008
100
AcDbVertex
100
AcDb2dVertex
 10
11.500001
 20
-2.018256
 30
0.0
 40
0.0
 41
0.0
  0
SEQEND
  5
43
100
AcDbEntity
  8
0
  0
POLYLINE
  5
44
100
AcDbEntity
  8
1
  6
CONTINUOUS
 62
   212
 48
0.0008
100
AcDb2dPolyline
 66
     1
 10
0.0
 20
0.0
 30
0.0
 70
   128
  0
VERTEX
  5
45
100
AcDbEntity
  8
1
  6
CONTINUOUS
 62
   212
 48
0.0008
100
AcDbVertex
100
AcDb2dVertex
 10
11.000001
 20
-2.71899
 30
0.0
 40
0.0
 41
0.0
  0
VERTEX
  5
46
100
AcDbEntity
  8
1
  6
CONTINUOUS
 62
   212
 48
0.0008
100
AcDbVertex
100
AcDb2dVertex
 10
11.000001
 20
-1.926179
 30
0.0
 40
0.0
 41
0.0
  0
SEQEND
  5
47
100
AcDbEntity
  8
0
  0
POLYLINE
  5
48
100
AcDbEntity
  8
1
  6
CONTINUOUS
 62
   212
 48
0.0008
100
AcDb2dPolyline
 66
     1
 10
0.0
 20
0.0
 30
0.0
 70
   128
  0
VERTEX
  5
49
100
AcDbEntity
  8
1
  6
CONTINUOUS
 62
   212
 48
0.0008
100
AcDbVertex
100
AcDb2dVertex
 10
10.500001
 20
-2.71899
 30
0.0
 40
0.0
 41
0.0
  0
VERTEX
  5
4A
100
AcDbEntity
  8
1
  6
CONTINUOUS
 62
   212
 48
0.0008
100
AcDbVertex
100
AcDb2dVertex
 10
10.500001
 20
-1.853296
 30
0.0
 40
0.0
 41
0.0
  0
SEQEND
  5
4B
100
AcDbEntity
  8
0
  0
POLYLINE
  5
4C
100
AcDbEntity
  8
1
  6
CONTINUOUS
 62
   212
 48
0.0008
100
AcDb2dPolyline
 66
     1
 10
0.0
 20
0.0
 30
0.0
 70
   128
  0
VERTEX
  5
4D
100
AcDbEntity
  8
1
  6
CONTINUOUS
 62
   212
 48
0.0008
100
AcDbVertex
100
AcDb2dVertex
 10
10.000001
 20
-2.71899
 30
0.0
 40
0.0
 41
0.0
  0
VERTEX
  5
4E
100
AcDbEntity
  8
1
  6
CONTINUOUS
 62
   212
 48
0.0008
100
AcDbVertex
100
AcDb2dVertex
 10
10.000001
 20
-1.800997
 30
0.0
 40
0.0
 41
0.0
  0
SEQEND
  5
4F
100
AcDbEntity
  8
0
  0
POLYLINE
  5
50
100
AcDbEntity
  8
1
  6
CONTINUOUS
 62
   212
 48
0.0008
100
AcDb2dPolyline
 66
     1
 10
0.0
 20
0.0
 30
0.0
 70
   128
  0
VERTEX
  5
51
100
AcDbEntity
  8
1
  6
CONTINUOUS
 62
   212
 48
0.0008
100
AcDbVertex
100
AcDb2dVertex
 10
9.500001
 20
-2.71899
 30
0.0
 40
0.0
 41
0.0
  0
VERTEX
  5
52
100
AcDbEntity
  8
1
  6
CONTINUOUS
 62
   212
 48
0.0008
100
AcDbVertex
100
AcDb2dVertex
 10
9.500001
 20
-1.765668
 30
0.0
 40
0.0
 41
0.0
  0
SEQEND
  5
53
100
AcDbEntity
  8
0
  0
POLYLINE
  5
54
100
AcDbEntity
  8
1
  6
CONTINUOUS
 62
   212
 48
0.0008
100
AcDb2dPolyline
 66
     1
 10
0.0
 20
0.0
 30
0.0
 70
   128
  0
VERTEX
  5
55
100
AcDbEntity
  8
1
  6
CONTINUOUS
 62
   212
 48
0.0008
100
AcDbVertex
100
AcDb2dVertex
 10
9.000001
 20
-2.71899
 30
0.0
 40
0.0
 41
0.0
  0
VERTEX
  5
56
100
AcDbEntity
  8
1
  6
CONTINUOUS
 62
   212
 48
0.0008
100
AcDbVertex
100
AcDb2dVertex
 10
9.000001
 20
-1.741746
 30
0.0
 40
0.0
 41
0.0
  0
SEQEND
  5
57
100
AcDbEntity
  8
0
  0
POLYLINE
  5
58
100
AcDbEntity
  8
1
  6
CONTINUOUS
 62
   212
 48
0.0008
100
AcDb2dPolyline
 66
     1
 10
0.0
 20
0.0
 30
0.0
 70
   128
  0
VERTEX
  5
59
100
AcDbEntity
  8
1
  6
CONTINUOUS
 62
   212
 48
0.0008
100
AcDbVertex
100
AcDb2dVertex
 10
8.500001
 20
-2.71899
 30
0.0
 40
0.0
 41
0.0
  0
VERTEX
  5
5A
100
AcDbEntity
  8
1
  6
CONTINUOUS
 62
   212
 48
0.0008
100
AcDbVertex
100
AcDb2dVertex
 10
8.500001
 20
-1.724777
 30
0.0
 40
0.0
 41
0.0
  0
SEQEND
  5
5B
100
AcDbEntity
  8
0
  0
POLYLINE
  5
5C
100
AcDbEntity
  8
1
  6
CONTINUOUS
 62
   212
 48
0.0008
100
AcDb2dPolyline
 66
     1
 10
0.0
 20
0.0
 30
0.0
 70
   128
  0
VERTEX
  5
5D
100
AcDbEntity
  8
1
  6
CONTINUOUS
 62
   212
 48
0.0008
100
AcDbVertex
100
AcDb2dVertex
 10
8.0
 20
-2.71899
 30
0.0
 40
0.0
 41
0.0
  0
VERTEX
  5
5E
100
AcDbEntity
  8
1
  6
CONTINUOUS
 62
   212
 48
0.0008
100
AcDbVertex
100
AcDb2dVertex
 10
8.0
 20
-1.717544
 30
0.0
 40
0.0
 41
0.0
  0
SEQEND
  5
5F
100
AcDbEntity
  8
0
  0
POLYLINE
  5
60
100
AcDbEntity
  8
1
  6
CONTINUOUS
 62
   212
 48
0.0008
100
AcDb2dPolyline
 66
     1
 10
0.0
 20
0.0
 30
0.0
 70
   128
  0
VERTEX
  5
61
100
AcDbEntity
  8
1
  6
CONTINUOUS
 62
   212
 48
0.0008
100
AcDbVertex
100
AcDb2dVertex
 10
7.5
 20
-2.71899
 30
0.0
 40
0.0
 41
0.0
  0
VERTEX
  5
62
100
AcDbEntity
  8
1
  6
CONTINUOUS
 62
   212
 48
0.0008
100
AcDbVertex
100
AcDb2dVertex
 10
7.5
 20
-1.723664
 30
0.0
 40
0.0
 41
0.0
  0
SEQEND
  5
63
100
AcDbEntity
  8
0
  0
POLYLINE
  5
64
100
AcDbEntity
  8
1
  6
CONTINUOUS
 62
   212
 48
0.0008
100
AcDb2dPolyline
 66
     1
 10
0.0
 20
0.0
 30
0.0
 70
   128
  0
VERTEX
  5
65
100
AcDbEntity
  8
1
  6
CONTINUOUS
 62
   212
 48
0.0008
100
AcDbVertex
100
AcDb2dVertex
 10
7.0
 20
-2.71899
 30
0.0
 40
0.0
 41
0.0
  0
VERTEX
  5
66
100
AcDbEntity
  8
1
  6
CONTINUOUS
 62
   212
 48
0.0008
100
AcDbVertex
100
AcDb2dVertex
 10
7.0
 20
-1.745083
 30
0.0
 40
0.0
 41
0.0
  0
SEQEND
  5
67
100
AcDbEntity
  8
0
  0
POLYLINE
  5
68
100
AcDbEntity
  8
1
  6
CONTINUOUS
 62
   212
 48
0.0008
100
AcDb2dPolyline
 66
     1
 10
0.0
 20
0.0
 30
0.0
 70
   128
  0
VERTEX
  5
69
100
AcDbEntity
  8
1
  6
CONTINUOUS
 62
   212
 48
0.0008
100
AcDbVertex
100
AcDb2dVertex
 10
6.5
 20
-2.71899
 30
0.0
 40
0.0
 41
0.0
  0
VERTEX
  5
6A
100
AcDbEntity
  8
1
  6
CONTINUOUS
 62
   212
 48
0.0008
100
AcDbVertex
100
AcDb2dVertex
 10
6.5
 20
-1.782916
 30
0.0
 40
0.0
 41
0.0
  0
SEQEND
  5
6B
100
AcDbEntity
  8
0
  0
POLYLINE
  5
6C
100
AcDbEntity
  8
1
  6
CONTINUOUS
 62
   212
 48
0.0008
100
AcDb2dPolyline
 66
     1
 10
0.0
 20
0.0
 30
0.0
 70
   128
  0
VERTEX
  5
6D
100
AcDbEntity
  8
1
  6
CONTINUOUS
 62
   212
 48
0.0008
100
AcDbVertex
100
AcDb2dVertex
 10
6.0
 20
-2.71899
 30
0.0
 40
0.0
 41
0.0
  0
VERTEX
  5
6E
100
AcDbEntity
  8
1
  6
CONTINUOUS
 62
   212
 48
0.0008
100
AcDbVertex
100
AcDb2dVertex
 10
6.0
 20
-1.839387
 30
0.0
 40
0.0
 41
0.0
  0
SEQEND
  5
6F
100
AcDbEntity
  8
0
  0
POLYLINE
  5
70
100
AcDbEntity
  8
1
  6
CONTINUOUS
 62
   212
 48
0.0008
100
AcDb2dPolyline
 66
     1
 10
0.0
 20
0.0
 30
0.0
 70
   128
  0
VERTEX
  5
71
100
AcDbEntity
  8
1
  6
CONTINUOUS
 62
   212
 48
0.0008
100
AcDbVertex
100
AcDb2dVertex
 10
5.5
 20
-2.71899
 30
0.0
 40
0.0
 41
0.0
  0
VERTEX
  5
72
100
AcDbEntity
  8
1
  6
CONTINUOUS
 62
   212
 48
0.0008
100
AcDbVertex
100
AcDb2dVertex
 10
5.5
 20
-1.916998
 30
0.0
 40
0.0
 41
0.0
  0
SEQEND
  5
73
100
AcDbEntity
  8
0
  0
POLYLINE
  5
74
100
AcDbEntity
  8
1
  6
CONTINUOUS
 62
   212
 48
0.0008
100
AcDb2dPolyline
 66
     1
 10
0.0
 20
0.0
 30
0.0
 70
   128
  0
VERTEX
  5
75
100
AcDbEntity
  8
1
  6
CONTINUOUS
 62
   212
 48
0.0008
100
AcDbVertex
100
AcDb2dVertex
 10
5.0
 20
-2.71899
 30
0.0
 40
0.0
 41
0.0
  0
VERTEX
  5
76
100
AcDbEntity
  8
1
  6
CONTINUOUS
 62
   212
 48
0.0008
100
AcDbVertex
100
AcDb2dVertex
 10
5.0
 20
-2.018256
 30
0.0
 40
0.0
 41
0.0
  0
SEQEND
  5
77
100
AcDbEntity
  8
0
  0
POLYLINE
  5
78
100
AcDbEntity
  8
1
  6
CONTINUOUS
 62
   212
 48
0.0008
100
AcDb2dPolyline
 66
     1
 10
0.0
 20
0.0
 30
0.0
 70
   128
  0
VERTEX
  5
79
100
AcDbEntity
  8
1
  6
CONTINUOUS
 62
   212
 48
0.0008
100
AcDbVertex
100
AcDb2dVertex
 10
4.5
 20
-2.71899
 30
0.0
 40
0.0
 41
0.0
  0
VERTEX
  5
7A
100
AcDbEntity
  8
1
  6
CONTINUOUS
 62
   212
 48
0.0008
100
AcDbVertex
100
AcDb2dVertex
 10
4.5
 20
-2.144828
 30
0.0
 40
0.0
 41
0.0
  0
SEQEND
  5
7B
100
AcDbEntity
  8
0
  0
POLYLINE
  5
7C
100
AcDbEntity
  8
1
  6
CONTINUOUS
 62
   212
 48
0.0008
100
AcDb2dPolyline
 66
     1
 10
0.0
 20
0.0
 30
0.0
 70
   128
  0
VERTEX
  5
7D
100
AcDbEntity
  8
1
  6
CONTINUOUS
 62
   212
 48
0.0008
100
AcDbVertex
100
AcDb2dVertex
 10
4.0
 20
-2.71899
 30
0.0
 40
0.0
 41
0.0
  0
VERTEX
  5
7E
100
AcDbEntity
  8
1
  6
CONTINUOUS
 62
   212
 48
0.0008
100
AcDbVertex
100
AcDb2dVertex
 10
4.0
 20
-2.298661
 30
0.0
 40
0.0
 41
0.0
  0
SEQEND
  5
7F
100
AcDbEntity
  8
0
  0
POLYLINE
  5
80
100
AcDbEntity
  8
1
  6
CONTINUOUS
 62
   212
 48
0.0008
100
AcDb2dPolyline
 66
     1
 10
0.0
 20
0.0
 30
0.0
 70
   128
  0
VERTEX
  5
81
100
AcDbEntity
  8
1
  6
CONTINUOUS
 62
   212
 48
0.0008
100
AcDbVertex
100
AcDb2dVertex
 10
3.5
 20
-2.71899
 30
0.0
 40
0.0
 41
0.0
  0
VERTEX
  5
82
100
AcDbEntity
  8
1
  6
CONTINUOUS
 62
   212
 48
0.0008
100
AcDbVertex
100
AcDb2dVertex
 10
3.5
 20
-2.482816
 30
0.0
 40
0.0
 41
0.0
  0
SEQEND
  5
83
100
AcDbEntity
  8
0
  0
POLYLINE
  5
84
100
AcDbEntity
  8
1
  6
CONTINUOUS
 62
   212
 48
0.0008
100
AcDb2dPolyline
 66
     1
 10
0.0
 20
0.0
 30
0.0
 70
   128
  0
VERTEX
  5
85
100
AcDbEntity
  8
1
  6
CONTINUOUS
 62
   212
 48
0.0008
100
AcDbVertex
100
AcDb2dVertex
 10
12.994806
 20
-2.717648
 30
0.0
 40
0.0
 41
0.0
  0
VERTEX
  5
86
100
AcDbEntity
  8
1
  6
CONTINUOUS
 62
   212
 48
0.0008
100
AcDbVertex
100
AcDb2dVertex
 10
12.994806
 20
-2.717648
 30
0.0
 40
0.0
 41
0.0
  0
SEQEND
  5
87
100
AcDbEntity
  8
0
  0
POLYLINE
  5
88
100
AcDbEntity
  8
1
  6
CONTINUOUS
 62
   212
 48
0.0008
100
AcDb2dPolyline
 66
     1
 10
0.0
 20
0.0
 30
0.0
 70
   128
  0
VERTEX
  5
89
100
AcDbEntity
  8
1
  6
CONTINUOUS
 62
   212
 48
0.0008
100
AcDbVertex
100
AcDb2dVertex
 10
12.873883
 20
-2.71477
 30
0.0
 40
0.0
 41
0.0
  0
VERTEX
  5
8A
100
AcDbEntity
  8
1
  6
CONTINUOUS
 62
   212
 48
0.0008
100
AcDbVertex
100
AcDb2dVertex
 10
12.873883
 20
-2.937314
 30
0.0
 40
0.0
 41
0.0
  0
SEQEND
  5
8B
100
AcDbEntity
  8
0
  0
POLYLINE
  5
8C
100
AcDbEntity
  8
1
  6
CONTINUOUS
 62
   212
 48
0.0008
100
AcDb2dPolyline
 66
     1
 10
0.0
 20
0.0
 30
0.0
 70
   128
  0
VERTEX
  5
8D
100
AcDbEntity
  8
1
  6
CONTINUOUS
 62
   212
 48
0.0008
100
AcDbVertex
100
AcDb2dVertex
 10
12.749083
 20
-2.71477
 30
0.0
 40
0.0
 41
0.0
  0
VERTEX
  5
8E
100
AcDbEntity
  8
1
  6
CONTINUOUS
 62
   212
 48
0.0008
100
AcDbVertex
100
AcDb2dVertex
 10
12.749083
 20
-3.029948
 30
0.0
 40
0.0
 41
0.0
  0
SEQEND
  5
8F
100
AcDbEntity
  8
0
  0
POLYLINE
  5
90
100
AcDbEntity
  8
1
  6
CONTINUOUS
 62
   212
 48
0.0008
100
AcDb2dPolyline
 66
     1
 10
0.0
 20
0.0
 30
0.0
 70
   128
  0
VERTEX
  5
91
100
AcDbEntity
  8
1
  6
CONTINUOUS
 62
   212
 48
0.0008
100
AcDbVertex
100
AcDb2dVertex
 10
12.499083
 20
-2.71477
 30
0.0
 40
0.0
 41
0.0
  0
VERTEX
  5
92
100
AcDbEntity
  8
1
  6
CONTINUOUS
 62
   212
 48
0.0008
100
AcDbVertex
100
AcDb2dVertex
 10
12.499083
 20
-3.145949
 30
0.0
 40
0.0
 41
0.0
  0
SEQEND
  5
93
100
AcDbEntity
  8
0
  0
POLYLINE
  5
94
100
AcDbEntity
  8
1
  6
CONTINUOUS
 62
   212
 48
0.0008
100
AcDb2dPolyline
 66
     1
 10
0.0
 20
0.0
 30
0.0
 70
   128
  0
VERTEX
  5
95
100
AcDbEntity
  8
1
  6
CONTINUOUS
 62
   212
 48
0.0008
100
AcDbVertex
100
AcDb2dVertex
 10
12.249083
 20
-2.71477
 30
0.0
 40
0.0
 41
0.0
  0
VERTEX
  5
96
100
AcDbEntity
  8
1
  6
CONTINUOUS
 62
   212
 48
0.0008
100
AcDbVertex
100
AcDb2dVertex
 10
12.249083
 20
-3.234132
 30
0.0
 40
0.0
 41
0.0
  0
SEQEND
  5
97
100
AcDbEntity
  8
0
  0
POLYLINE
  5
98
100
AcDbEntity
  8
1
  6
CONTINUOUS
 62
   212
 48
0.0008
100
AcDb2dPolyline
 66
     1
 10
0.0
 20
0.0
 30
0.0
 70
   128
  0
VERTEX
  5
99
100
AcDbEntity
  8
1
  6
CONTINUOUS
 62
   212
 48
0.0008
100
AcDbVertex
100
AcDb2dVertex
 10
11.999083
 20
-2.71477
 30
0.0
 40
0.0
 41
0.0
  0
VERTEX
  5
9A
100
AcDbEntity
  8
1
  6
CONTINUOUS
 62
   212
 48
0.0008
100
AcDbVertex
100
AcDb2dVertex
 10
11.999083
 20
-3.306459
 30
0.0
 40
0.0
 41
0.0
  0
SEQEND
  5
9B
100
AcDbEntity
  8
0
  0
POLYLINE
  5
9C
100
AcDbEntity
  8
1
  6
CONTINUOUS
 62
   212
 48
0.0008
100
AcDb2dPolyline
 66
     1
 10
0.0
 20
0.0
 30
0.0
 70
   128
  0
VERTEX
  5
9D
100
AcDbEntity
  8
1
  6
CONTINUOUS
 62
   212
 48
0.0008
100
AcDbVertex
100
AcDb2dVertex
 10
11.499083
 20
-2.714771
 30
0.0
 40
0.0
 41
0.0
  0
VERTEX
  5
9E
100
AcDbEntity
  8
1
  6
CONTINUOUS
 62
   212
 48
0.0008
100
AcDbVertex
100
AcDb2dVertex
 10
11.499083
 20
-3.415505
 30
0.0
 40
0.0
 41
0.0
  0
SEQEND
  5
9F
100
AcDbEntity
  8
0
  0
POLYLINE
  5
A0
100
AcDbEntity
  8
1
  6
CONTINUOUS
 62
   212
 48
0.0008
100
AcDb2dPolyline
 66
     1
 10
0.0
 20
0.0
 30
0.0
 70
   128
  0
VERTEX
  5
A1
100
AcDbEntity
  8
1
  6
CONTINUOUS
 62
   212
 48
0.0008
100
AcDbVertex
100
AcDb2dVertex
 10
10.999083
 20
-2.714771
 30
0.0
 40
0.0
 41
0.0
  0
VERTEX
  5
A2
100
AcDbEntity
  8
1
  6
CONTINUOUS
 62
   212
 48
0.0008
100
AcDbVertex
100
AcDb2dVertex
 10
10.999083
 20
-3.507582
 30
0.0
 40
0.0
 41
0.0
  0
SEQEND
  5
A3
100
AcDbEntity
  8
0
  0
POLYLINE
  5
A4
100
AcDbEntity
  8
1
  6
CONTINUOUS
 62
   212
 48
0.0008
100
AcDb2dPolyline
 66
     1
 10
0.0
 20
0.0
 30
0.0
 70
   128
  0
VERTEX
  5
A5
100
AcDbEntity
  8
1
  6
CONTINUOUS
 62
   212
 48
0.0008
100
AcDbVertex
100
AcDb2dVertex
 10
10.499083
 20
-2.714771
 30
0.0
 40
0.0
 41
0.0
  0
VERTEX
  5
A6
100
AcDbEntity
  8
1
  6
CONTINUOUS
 62
   212
 48
0.0008
100
AcDbVertex
100
AcDb2dVertex
 10
10.499083
 20
-3.580465
 30
0.0
 40
0.0
 41
0.0
  0
SEQEND
  5
A7
100
AcDbEntity
  8
0
  0
POLYLINE
  5
A8
100
AcDbEntity
  8
1
  6
CONTINUOUS
 62
   212
 48
0.0008
100
AcDb2dPolyline
 66
     1
 10
0.0
 20
0.0
 30
0.0
 70
   128
  0
VERTEX
  5
A9
100
AcDbEntity
  8
1
  6
CONTINUOUS
 62
   212
 48
0.0008
100
AcDbVertex
100
AcDb2dVertex
 10
9.999083
 20
-2.714771
 30
0.0
 40
0.0
 41
0.0
  0
VERTEX
  5
AA
100
AcDbEntity
  8
1
  6
CONTINUOUS
 62
   212
 48
0.0008
100
AcDbVertex
100
AcDb2dVertex
 10
9.999083
 20
-3.632764
 30
0.0
 40
0.0
 41
0.0
  0
SEQEND
  5
AB
100
AcDbEntity
  8
0
  0
POLYLINE
  5
AC
100
AcDbEntity
  8
1
  6
CONTINUOUS
 62
   212
 48
0.0008
100
AcDb2dPolyline
 66
     1
 10
0.0
 20
0.0
 30
0.0
 70
   128
  0
VERTEX
  5
AD
100
AcDbEntity
  8
1
  6
CONTINUOUS
 62
   212
 48
0.0008
100
AcDbVertex
100
AcDb2dVertex
 10
9.499083
 20
-2.714771
 30
0.0
 40
0.0
 41
0.0
  0
VERTEX
  5
AE
100
AcDbEntity
  8
1
  6
CONTINUOUS
 62
   212
 48
0.0008
100
AcDbVertex
100
AcDb2dVertex
 10
9.499083
 20
-3.668093
 30
0.0
 40
0.0
 41
0.0
  0
SEQEND
  5
AF
100
AcDbEntity
  8
0
  0
POLYLINE
  5
B0
100
AcDbEntity
  8
1
  6
CONTINUOUS
 62
   212
 48
0.0008
100
AcDb2dPolyline
 66
     1
 10
0.0
 20
0.0
 30
0.0
 70
   128
  0
VERTEX
  5
B1
100
AcDbEntity
  8
1
  6
CONTINUOUS
 62
   212
 48
0.0008
100
AcDbVertex
100
AcDb2dVertex
 10
8.999083
 20
-2.714771
 30
0.0
 40
0.0
 41
0.0
  0
VERTEX
  5
B2
100
AcDbEntity
  8
1
  6
CONTINUOUS
 62
   212
 48
0.0008
100
AcDbVertex
100
AcDb2dVertex
 10
8.999083
 20
-3.692016
 30
0.0
 40
0.0
 41
0.0
  0
SEQEND
  5
B3
100
AcDbEntity
  8
0
  0
POLYLINE
  5
B4
100
AcDbEntity
  8
1
  6
CONTINUOUS
 62
   212
 48
0.0008
100
AcDb2dPolyline
 66
     1
 10
0.0
 20
0.0
 30
0.0
 70
   128
  0
VERTEX
  5
B5
100
AcDbEntity
  8
1
  6
CONTINUOUS
 62
   212
 48
0.0008
100
AcDbVertex
100
AcDb2dVertex
 10
8.499083
 20
-2.714771
 30
0.0
 40
0.0
 41
0.0
  0
VERTEX
  5
B6
100
AcDbEntity
  8
1
  6
CONTINUOUS
 62
   212
 48
0.0008
100
AcDbVertex
100
AcDb2dVertex
 10
8.499083
 20
-3.708986
 30
0.0
 40
0.0
 41
0.0
  0
SEQEND
  5
B7
100
AcDbEntity
  8
0
  0
POLYLINE
  5
B8
100
AcDbEntity
  8
1
  6
CONTINUOUS
 62
   212
 48
0.0008
100
AcDb2dPolyline
 66
     1
 10
0.0
 20
0.0
 30
0.0
 70
   128
  0
VERTEX
  5
B9
100
AcDbEntity
  8
1
  6
CONTINUOUS
 62
   212
 48
0.0008
100
AcDbVertex
100
AcDb2dVertex
 10
7.999083
 20
-2.714772
 30
0.0
 40
0.0
 41
0.0
  0
VERTEX
  5
BA
100
AcDbEntity
  8
1
  6
CONTINUOUS
 62
   212
 48
0.0008
100
AcDbVertex
100
AcDb2dVertex
 10
7.999083
 20
-3.716218
 30
0.0
 40
0.0
 41
0.0
  0
SEQEND
  5
BB
100
AcDbEntity
  8
0
  0
POLYLINE
  5
BC
100
AcDbEntity
  8
1
  6
CONTINUOUS
 62
   212
 48
0.0008
100
AcDb2dPolyline
 66
     1
 10
0.0
 20
0.0
 30
0.0
 70
   128
  0
VERTEX
  5
BD
100
AcDbEntity
  8
1
  6
CONTINUOUS
 62
   212
 48
0.0008
100
AcDbVertex
100
AcDb2dVertex
 10
7.499084
 20
-2.714772
 30
0.0
 40
0.0
 41
0.0
  0
VERTEX
  5
BE
100
AcDbEntity
  8
1
  6
CONTINUOUS
 62
   212
 48
0.0008
100
AcDbVertex
100
AcDb2dVertex
 10
7.499084
 20
-3.710098
 30
0.0
 40
0.0
 41
0.0
  0
SEQEND
  5
BF
100
AcDbEntity
  8
0
  0
POLYLINE
  5
C0
100
AcDbEntity
  8
1
  6
CONTINUOUS
 62
   212
 48
0.0008
100
AcDb2dPolyline
 66
     1
 10
0.0
 20
0.0
 30
0.0
 70
   128
  0
VERTEX
  5
C1
100
AcDbEntity
  8
1
  6
CONTINUOUS
 62
   212
 48
0.0008
100
AcDbVertex
100
AcDb2dVertex
 10
6.999084
 20
-2.714772
 30
0.0
 40
0.0
 41
0.0
  0
VERTEX
  5
C2
100
AcDbEntity
  8
1
  6
CONTINUOUS
 62
   212
 48
0.0008
100
AcDbVertex
100
AcDb2dVertex
 10
6.999084
 20
-3.688679
 30
0.0
 40
0.0
 41
0.0
  0
SEQEND
  5
C3
100
AcDbEntity
  8
0
  0
POLYLINE
  5
C4
100
AcDbEntity
  8
1
  6
CONTINUOUS
 62
   212
 48
0.0008
100
AcDb2dPolyline
 66
     1
 10
0.0
 20
0.0
 30
0.0
 70
   128
  0
VERTEX
  5
C5
100
AcDbEntity
  8
1
  6
CONTINUOUS
 62
   212
 48
0.0008
100
AcDbVertex
100
AcDb2dVertex
 10
6.499084
 20
-2.714772
 30
0.0
 40
0.0
 41
0.0
  0
VERTEX
  5
C6
100
AcDbEntity
  8
1
  6
CONTINUOUS
 62
   212
 48
0.0008
100
AcDbVertex
100
AcDb2dVertex
 10
6.499084
 20
-3.650846
 30
0.0
 40
0.0
 41
0.0
  0
SEQEND
  5
C7
100
AcDbEntity
  8
0
  0
POLYLINE
  5
C8
100
AcDbEntity
  8
1
  6
CONTINUOUS
 62
   212
 48
0.0008
100
AcDb2dPolyline
 66
     1
 10
0.0
 20
0.0
 30
0.0
 70
   128
  0
VERTEX
  5
C9
100
AcDbEntity
  8
1
  6
CONTINUOUS
 62
   212
 48
0.0008
100
AcDbVertex
100
AcDb2dVertex
 10
5.999084
 20
-2.714772
 30
0.0
 40
0.0
 41
0.0
  0
VERTEX
  5
CA
100
AcDbEntity
  8
1
  6
CONTINUOUS
 62
   212
 48
0.0008
100
AcDbVertex
100
AcDb2dVertex
 10
5.999084
 20
-3.594376
 30
0.0
 40
0.0
 41
0.0
  0
SEQEND
  5
CB
100
AcDbEntity
  8
0
  0
POLYLINE
  5
CC
100
AcDbEntity
  8
1
  6
CONTINUOUS
 62
   212
 48
0.0008
100
AcDb2dPolyline
 66
     1
 10
0.0
 20
0.0
 30
0.0
 70
   128
  0
VERTEX
  5
CD
100
AcDbEntity
  8
1
  6
CONTINUOUS
 62
   212
 48
0.0008
100
AcDbVertex
100
AcDb2dVertex
 10
5.499084
 20
-2.714772
 30
0.0
 40
0.0
 41
0.0
  0
VERTEX
  5
CE
100
AcDbEntity
  8
1
  6
CONTINUOUS
 62
   212
 48
0.0008
100
AcDbVertex
100
AcDb2dVertex
 10
5.499084
 20
-3.516764
 30
0.0
 40
0.0
 41
0.0
  0
SEQEND
  5
CF
100
AcDbEntity
  8
0
  0
POLYLINE
  5
D0
100
AcDbEntity
  8
1
  6
CONTINUOUS
 62
   212
 48
0.0008
100
AcDb2dPolyline
 66
     1
 10
0.0
 20
0.0
 30
0.0
 70
   128
  0
VERTEX
  5
D1
100
AcDbEntity
  8
1
  6
CONTINUOUS
 62
   212
 48
0.0008
100
AcDbVertex
100
AcDb2dVertex
 10
4.999084
 20
-2.714773
 30
0.0
 40
0.0
 41
0.0
  0
VERTEX
  5
D2
100
AcDbEntity
  8
1
  6
CONTINUOUS
 62
   212
 48
0.0008
100
AcDbVertex
100
AcDb2dVertex
 10
4.999084
 20
-3.415507
 30
0.0
 40
0.0
 41
0.0
  0
SEQEND
  5
D3
100
AcDbEntity
  8
0
  0
POLYLINE
  5
D4
100
AcDbEntity
  8
1
  6
CONTINUOUS
 62
   212
 48
0.0008
100
AcDb2dPolyline
 66
     1
 10
0.0
 20
0.0
 30
0.0
 70
   128
  0
VERTEX
  5
D5
100
AcDbEntity
  8
1
  6
CONTINUOUS
 62
   212
 48
0.0008
100
AcDbVertex
100
AcDb2dVertex
 10
4.499084
 20
-2.714773
 30
0.0
 40
0.0
 41
0.0
  0
VERTEX
  5
D6
100
AcDbEntity
  8
1
  6
CONTINUOUS
 62
   212
 48
0.0008
100
AcDbVertex
100
AcDb2dVertex
 10
4.499084
 20
-3.288936
 30
0.0
 40
0.0
 41
0.0
  0
SEQEND
  5
D7
100
AcDbEntity
  8
0
  0
POLYLINE
  5
D8
100
AcDbEntity
  8
1
  6
CONTINUOUS
 62
   212
 48
0.0008
100
AcDb2dPolyline
 66
     1
 10
0.0
 20
0.0
 30
0.0
 70
   128
  0
VERTEX
  5
D9
100
AcDbEntity
  8
1
  6
CONTINUOUS
 62
   212
 48
0.0008
100
AcDbVertex
100
AcDb2dVertex
 10
3.999084
 20
-2.714773
 30
0.0
 40
0.0
 41
0.0
  0
VERTEX
  5
DA
100
AcDbEntity
  8
1
  6
CONTINUOUS
 62
   212
 48
0.0008
100
AcDbVertex
100
AcDb2dVertex
 10
3.999084
 20
-3.135102
 30
0.0
 40
0.0
 41
0.0
  0
SEQEND
  5
DB
100
AcDbEntity
  8
0
  0
POLYLINE
  5
DC
100
AcDbEntity
  8
1
  6
CONTINUOUS
 62
   212
 48
0.0008
100
AcDb2dPolyline
 66
     1
 10
0.0
 20
0.0
 30
0.0
 70
   128
  0
VERTEX
  5
DD
100
AcDbEntity
  8
1
  6
CONTINUOUS
 62
   212
 48
0.0008
100
AcDbVertex
100
AcDb2dVertex
 10
3.499084
 20
-2.714773
 30
0.0
 40
0.0
 41
0.0
  0
VERTEX
  5
DE
100
AcDbEntity
  8
1
  6
CONTINUOUS
 62
   212
 48
0.0008
100
AcDbVertex
100
AcDb2dVertex
 10
3.499084
 20
-2.950948
 30
0.0
 40
0.0
 41
0.0
  0
SEQEND
  5
DF
100
AcDbEntity
  8
0
  0
POLYLINE
  5
E0
100
AcDbEntity
  8
1
  6
CONTINUOUS
 62
   212
 48
0.0008
100
AcDb2dPolyline
 66
     1
 10
0.0
 20
0.0
 30
0.0
 70
   128
  0
VERTEX
  5
E1
100
AcDbEntity
  8
1
  6
CONTINUOUS
 62
   212
 48
0.0008
100
AcDbVertex
100
AcDb2dVertex
 10
12.999083
 20
-2.71477
 30
0.0
 40
0.0
 41
0.0
  0
VERTEX
  5
E2
100
AcDbEntity
  8
1
  6
CONTINUOUS
 62
   212
 48
0.0008
100
AcDbVertex
100
AcDb2dVertex
 10
12.873883
 20
-2.71477
 30
0.0
 40
0.0
 41
0.0
  0
VERTEX
  5
E3
100
AcDbEntity
  8
1
  6
CONTINUOUS
 62
   212
 48
0.0008
100
AcDbVertex
100
AcDb2dVertex
 10
12.749083
 20
-2.71477
 30
0.0
 40
0.0
 41
0.0
  0
VERTEX
  5
E4
100
AcDbEntity
  8
1
  6
CONTINUOUS
 62
   212
 48
0.0008
100
AcDbVertex
100
AcDb2dVertex
 10
12.499083
 20
-2.71477
 30
0.0
 40
0.0
 41
0.0
  0
VERTEX
  5
E5
100
AcDbEntity
  8
1
  6
CONTINUOUS
 62
   212
 48
0.0008
100
AcDbVertex
100
AcDb2dVertex
 10
12.249083
 20
-2.71477
 30
0.0
 40
0.0
 41
0.0
  0
VERTEX
  5
E6
100
AcDbEntity
  8
1
  6
CONTINUOUS
 62
   212
 48
0.0008
100
AcDbVertex
100
AcDb2dVertex
 10
11.999083
 20
-2.71477
 30
0.0
 40
0.0
 41
0.0
  0
VERTEX
  5
E7
100
AcDbEntity
  8
1
  6
CONTINUOUS
 62
   212
 48
0.0008
100
AcDbVertex
100
AcDb2dVertex
 10
11.499083
 20
-2.714771
 30
0.0
 40
0.0
 41
0.0
  0
VERTEX
  5
E8
100
AcDbEntity
  8
1
  6
CONTINUOUS
 62
   212
 48
0.0008
100
AcDbVertex
100
AcDb2dVertex
 10
10.999083
 20
-2.714771
 30
0.0
 40
0.0
 41
0.0
  0
VERTEX
  5
E9
100
AcDbEntity
  8
1
  6
CONTINUOUS
 62
   212
 48
0.0008
100
AcDbVertex
100
AcDb2dVertex
 10
10.499083
 20
-2.714771
 30
0.0
 40
0.0
 41
0.0
  0
VERTEX
  5
EA
100
AcDbEntity
  8
1
  6
CONTINUOUS
 62
   212
 48
0.0008
100
AcDbVertex
100
AcDb2dVertex
 10
9.999083
 20
-2.714771
 30
0.0
 40
0.0
 41
0.0
  0
VERTEX
  5
EB
100
AcDbEntity
  8
1
  6
CONTINUOUS
 62
   212
 48
0.0008
100
AcDbVertex
100
AcDb2dVertex
 10
9.499083
 20
-2.714771
 30
0.0
 40
0.0
 41
0.0
  0
VERTEX
  5
EC
100
AcDbEntity
  8
1
  6
CONTINUOUS
 62
   212
 48
0.0008
100
AcDbVertex
100
AcDb2dVertex
 10
8.999083
 20
-2.714771
 30
0.0
 40
0.0
 41
0.0
  0
VERTEX
  5
ED
100
AcDbEntity
  8
1
  6
CONTINUOUS
 62
   212
 48
0.0008
100
AcDbVertex
100
AcDb2dVertex
 10
8.499083
 20
-2.714771
 30
0.0
 40
0.0
 41
0.0
  0
VERTEX
  5
EE
100
AcDbEntity
  8
1
  6
CONTINUOUS
 62
   212
 48
0.0008
100
AcDbVertex
100
AcDb2dVertex
 10
7.999083
 20
-2.714772
 30
0.0
 40
0.0
 41
0.0
  0
VERTEX
  5
EF
100
AcDbEntity
  8
1
  6
CONTINUOUS
 62
   212
 48
0.0008
100
AcDbVertex
100
AcDb2dVertex
 10
7.499084
 20
-2.714772
 30
0.0
 40
0.0
 41
0.0
  0
VERTEX
  5
F0
100
AcDbEntity
  8
1
  6
CONTINUOUS
 62
   212
 48
0.0008
100
AcDbVertex
100
AcDb2dVertex
 10
6.999084
 20
-2.714772
 30
0.0
 40
0.0
 41
0.0
  0
VERTEX
  5
F1
100
AcDbEntity
  8
1
  6
CONTINUOUS
 62
   212
 48
0.0008
100
AcDbVertex
100
AcDb2dVertex
 10
6.499084
 20
-2.714772
 30
0.0
 40
0.0
 41
0.0
  0
VERTEX
  5
F2
100
AcDbEntity
  8
1
  6
CONTINUOUS
 62
   212
 48
0.0008
100
AcDbVertex
100
AcDb2dVertex
 10
5.999084
 20
-2.714772
 30
0.0
 40
0.0
 41
0.0
  0
VERTEX
  5
F3
100
AcDbEntity
  8
1
  6
CONTINUOUS
 62
   212
 48
0.0008
100
AcDbVertex
100
AcDb2dVertex
 10
5.499084
 20
-2.714772
 30
0.0
 40
0.0
 41
0.0
  0
VERTEX
  5
F4
100
AcDbEntity
  8
1
  6
CONTINUOUS
 62
   212
 48
0.0008
100
AcDbVertex
100
AcDb2dVertex
 10
4.999084
 20
-2.714773
 30
0.0
 40
0.0
 41
0.0
  0
VERTEX
  5
F5
100
AcDbEntity
  8
1
  6
CONTINUOUS
 62
   212
 48
0.0008
100
AcDbVertex
100
AcDb2dVertex
 10
4.499084
 20
-2.714773
 30
0.0
 40
0.0
 41
0.0
  0
VERTEX
  5
F6
100
AcDbEntity
  8
1
  6
CONTINUOUS
 62
   212
 48
0.0008
100
AcDbVertex
100
AcDb2dVertex
 10
3.999084
 20
-2.714773
 30
0.0
 40
0.0
 41
0.0
  0
VERTEX
  5
F7
100
AcDbEntity
  8
1
  6
CONTINUOUS
 62
   212
 48
0.0008
100
AcDbVertex
100
AcDb2dVertex
 10
3.499084
 20
-2.714773
 30
0.0
 40
0.0
 41
0.0
  0
VERTEX
  5
F8
100
AcDbEntity
  8
1
  6
CONTINUOUS
 62
   212
 48
0.0008
100
AcDbVertex
100
AcDb2dVertex
 10
2.999084
 20
-2.714773
 30
0.0
 40
0.0
 41
0.0
  0
SEQEND
  5
F9
100
AcDbEntity
  8
0
  0
POLYLINE
  5
FA
100
AcDbEntity
  8
1
  6
CONTINUOUS
 62
   212
 48
0.0008
100
AcDb2dPolyline
 66
     1
 10
0.0
 20
0.0
 30
0.0
 70
   128
  0
VERTEX
  5
FB
100
AcDbEntity
  8
1
  6
CONTINUOUS
 62
   212
 48
0.0008
100
AcDbVertex
100
AcDb2dVertex
 10
12.999083
 20
-2.71477
 30
0.0
 40
0.0
 41
0.0
  0
VERTEX
  5
FC
100
AcDbEntity
  8
1
  6
CONTINUOUS
 62
   212
 48
0.0008
100
AcDbVertex
100
AcDb2dVertex
 10
2.999084
 20
-2.714773
 30
0.0
 40
0.0
 41
0.0
  0
SEQEND
  5
FD
100
AcDbEntity
  8
0
  0
POLYLINE
  5
FE
100
AcDbEntity
  8
1
  6
CONTINUOUS
 62
   212
 48
0.0008
100
AcDb2dPolyline
 66
     1
 10
0.0
 20
0.0
 30
0.0
 70
   128
  0
VERTEX
  5
FF
100
AcDbEntity
  8
1
  6
CONTINUOUS
 62
   212
 48
0.0008
100
AcDbVertex
100
AcDb2dVertex
 10
12.999083
 20
-2.71477
 30
0.0
 40
0.0
 41
0.0
  0
VERTEX
  5
100
100
AcDbEntity
  8
1
  6
CONTINUOUS
 62
   212
 48
0.0008
100
AcDbVertex
100
AcDb2dVertex
 10
12.999083
 20
-2.71477
 30
0.0
 40
0.0
 41
0.0
  0
SEQEND
  5
101
100
AcDbEntity
  8
0
  0
SPLINE
  5
102
100
AcDbEntity
  8
1
  6
CONTINUOUS
 62
   212
 48
0.0008
100
AcDbSpline
210
0.0
220
0.0
230
1.0
 70
     0
 71
     3
 72
     0
 73
     0
 74
    27
 44
0.0
 11
12.999024566351673
 21
-2.7147894994427735
 31
0.0
 11
12.981312370342614
 21
-2.779512235825953
 31
0.0
 11
12.954022026104333
 21
-2.8342429225125674
 31
0.0
 11
12.917847251934411
 21
-2.8872070248904409
 31
0.0
 11
12.874056434673669
 21
-2.9348761496112847
 31
0.0
 11
12.749083137554528
 21
-3.0299477798563541
 31
0.0
 11
12.499083137554528
 21
-3.1459486190968993
 31
0.0
 11
12.249083137554528
 21
-3.2341319235308172
 31
0.0
 11
11.999083137554528
 21
-3.3064592119015392
 31
0.0
 11
11.499083137554528
 21
-3.4155051368549616
 31
0.0
 11
10.999083137554528
 21
-3.5075824080231786
 31
0.0
 11
10.499083137554528
 21
-3.5804652193767064
 31
0.0
 11
9.9990831375545284
 21
-3.6327639675803312
 31
0.0
 11
9.4990831375545284
 21
-3.6680930008278185
 31
0.0
 11
8.9990831375545284
 21
-3.6920155077292147
 31
0.0
 11
8.4990831375545284
 21
-3.7089857532708184
 31
0.0
 11
7.9990831375545284
 21
-3.7162181637566105
 31
0.0
 11
7.4990836143916866
 21
-3.7100978604073616
 31
0.0
 11
6.9990836143916866
 21
-3.6886786557341189
 31
0.0
 11
6.4990836143916866
 21
-3.6508457896730113
 31
0.0
 11
5.9990836143916866
 21
-3.5943763744146167
 31
0.0
 11
5.4990836143916866
 21
-3.5167641895107176
 31
0.0
 11
4.9990836143916866
 21
-3.4155069939040921
 31
0.0
 11
4.4990836143916866
 21
-3.2889358310117269
 31
0.0
 11
3.9990836143916866
 21
-3.135101595124608
 31
0.0
 11
3.4990838528102657
 21
-2.9509478486663725
 31
0.0
 11
2.9994128343501485
 21
-2.7148255242969603
 31
0.0
  0
TEXT
  5
103
100
AcDbEntity
  8
1
 62
   212
 48
0.0
100
AcDbText
 10
6.084635
 20
-2.867598
 30
0.0
 40
0.333815
  1
NACA - 16  Section
 72
     5
 11
9.675636
 21
-2.867598
 31
0.0
210
0.0
220
0.0
230
1.0
100
AcDbText
  0
TEXT
  5
104
100
AcDbEntity
  8
1
 62
   212
 48
0.0
100
AcDbText
 10
7.181885
 20
-3.137766
 30
0.0
 40
0.111272
  1
Çemberci  Denizcilik
 72
     5
 11
8.413886
 21
-3.137766
 31
0.0
210
0.0
220
0.0
230
1.0
100
AcDbText
  0
SPLINE
  5
105
100
AcDbEntity
  8
1
  6
CONTINUOUS
 62
   212
 48
0.0008
100
AcDbSpline
210
0.0
220
0.0
230
1.0
 70
     0
 71
     3
 72
     0
 73
     0
 74
    27
 44
0.0
 11
12.999175400166109
 21
-2.7146386656318309
 31
0.0
 11
12.982230186462402
 21
-2.6542480062469505
 31
0.0
 11
12.954939842224121
 21
-2.5995181154385349
 31
0.0
 11
12.918763160705566
 21
-2.5465534824751956
 31
0.0
 11
12.874972343444824
 21
-2.4988851536325507
 31
0.0
 11
12.750000953674316
 21
-2.4038135233874813
 31
0.0
 11
12.500000953674316
 21
-2.2878124188542031
 31
0.0
 11
12.250000953674316
 21
-2.1996291144202851
 31
0.0
 11
12.000000953674316
 21
-2.1273020913422962
 31
0.0
 11
11.500000953674316
 21
-2.0182559010961407
 31
0.0
 11
11.000000953674316
 21
-1.9261786299279233
 31
0.0
 11
10.500000953674316
 21
-1.8532960838671291
 31
0.0
 11
10.000000953674316
 21
-1.8009970703707712
 31
0.0
 11
9.5000009536743164
 21
-1.7656683024160165
 31
0.0
 11
9.0000009536743164
 21
-1.7417455302218876
 31
0.0
 11
8.5000009536743164
 21
-1.7247768764366822
 31
0.0
 11
8.0
 21
-1.7175442006581565
 31
0.0
 11
7.4999995231628418
 21
-1.7236642387146728
 31
0.0
 11
6.9999995231628418
 21
-1.7450831780951819
 31
0.0
 11
6.4999995231628418
 21
-1.7829157788635568
 31
0.0
 11
5.9999995231628418
 21
-1.8393865205856166
 31
0.0
 11
5.4999995231628418
 21
-1.9169979096113163
 31
0.0
 11
4.9999995231628418
 21
-2.0182559010961407
 31
0.0
 11
4.4999995231628418
 21
-2.1448281251594379
 31
0.0
 11
3.9999995231628418
 21
-2.2986612998756248
 31
0.0
 11
3.4999995231628418
 21
-2.4828158422120592
 31
0.0
 11
2.9992619359862753
 21
-2.7146746259249004
 31
0.0
  0
TEXT
  5
106
100
AcDbEntity
  8
1
 62
   212
 48
0.0
100
AcDbText
 10
5.592412
 20
-2.345066
 30
0.0
 40
0.05
  1
Boy = 10
 72
     5
 11
5.820065
 21
-2.345066
 31
0.0
210
0.0
220
0.0
230
1.0
100
AcDbText
  0
TEXT
  5
107
100
AcDbEntity
  8
1
 62
   212
 48
0.0
100
AcDbText
 10
5.592412
 20
-2.445066
 30
0.0
 40
0.05
  1
Kalinlik = 2
 72
     5
 11
5.870903
 21
-2.445066
 31
0.0
210
0.0
220
0.0
230
1.0
100
AcDbText
  0
ENDSEC
  0
SECTION
  2
OBJECTS
  0
DICTIONARY
  5
19
100
AcDbDictionary
  3
ACAD_GROUP
350
1A
  3
ACAD_MLINESTYLE
350
1B
  0
DICTIONARY
  5
1A
102
{ACAD_REACTORS
330
19
102
}
100
AcDbDictionary
  0
DICTIONARY
  5
1B
102
{ACAD_REACTORS
330
19
102
}
100
AcDbDictionary
  3
STANDARD
350
1C
  0
MLINESTYLE
  5
1C
102
{ACAD_REACTORS
330
1B
102
}
100
AcDbMlineStyle
  2
STANDARD
 70
     0
  3

 62
     0
 51
90.0
 52
90.0
 71
     2
 49
0.5
 62
   256
  6
BYLAYER
 49
-0.5
 62
   256
  6
BYLAYER
  0
ENDSEC
  0
EOF
