  0
SECTION
  2
HEADER
  9
$ACADVER
  1
AC1014
  9
$ACADMAINTVER
 70
     0
  9
$DWGCODEPAGE
  3
ANSI_1252
  9
$INSBASE
 10
0.0
 20
0.0
 30
0.0
  9
$EXTMIN
 10
1.999987
 20
1.111682
 30
0.0
  9
$EXTMAX
 10
3.0
 20
1.311682
 30
0.0
  9
$LIMMIN
 10
0.0
 20
0.0
  9
$LIMMAX
 10
0.0
 20
0.0
  9
$ORTHOMODE
 70
     0
  9
$REGENMODE
 70
     1
  9
$FILLMODE
 70
     1
  9
$QTEXTMODE
 70
     0
  9
$MIRRTEXT
 70
     1
  9
$DRAGMODE
 70
     2
  9
$LTSCALE
 40
1.0
  9
$OSMODE
 70
     0
  9
$ATTMODE
 70
     1
  9
$TEXTSIZE
 40
0.2
  9
$TRACEWID
 40
0.05
  9
$TEXTSTYLE
  7
STANDARD
  9
$CLAYER
  8
0
  9
$CELTYPE
  6
CONTINUOUS
  9
$CECOLOR
 62
   256
  9
$CELTSCALE
 40
1.0
  9
$DELOBJ
 70
     1
  9
$DISPSILH
 70
     0
  9
$DIMSCALE
 40
1.0
  9
$DIMASZ
 40
0.18
  9
$DIMEXO
 40
0.0625
  9
$DIMDLI
 40
0.38
  9
$DIMRND
 40
0.0
  9
$DIMDLE
 40
0.0
  9
$DIMEXE
 40
0.18
  9
$DIMTP
 40
0.0
  9
$DIMTM
 40
0.0
  9
$DIMTXT
 40
0.18
  9
$DIMCEN
 40
0.09
  9
$DIMTSZ
 40
0.0
  9
$DIMTOL
 70
     0
  9
$DIMLIM
 70
     0
  9
$DIMTIH
 70
     1
  9
$DIMTOH
 70
     1
  9
$DIMSE1
 70
     0
  9
$DIMSE2
 70
     0
  9
$DIMTAD
 70
     0
  9
$DIMZIN
 70
     0
  9
$DIMBLK
  1

  9
$DIMASO
 70
     1
  9
$DIMSHO
 70
     1
  9
$DIMPOST
  1

  9
$DIMAPOST
  1

  9
$DIMALT
 70
     0
  9
$DIMALTD
 70
     2
  9
$DIMALTF
 40
25.4
  9
$DIMLFAC
 40
1.0
  9
$DIMTOFL
 70
     0
  9
$DIMTVP
 40
0.0
  9
$DIMTIX
 70
     0
  9
$DIMSOXD
 70
     0
  9
$DIMSAH
 70
     0
  9
$DIMBLK1
  1

  9
$DIMBLK2
  1

  9
$DIMSTYLE
  2
STANDARD
  9
$DIMCLRD
 70
     0
  9
$DIMCLRE
 70
     0
  9
$DIMCLRT
 70
     0
  9
$DIMTFAC
 40
1.0
  9
$DIMGAP
 40
0.09
  9
$DIMJUST
 70
     0
  9
$DIMSD1
 70
     0
  9
$DIMSD2
 70
     0
  9
$DIMTOLJ
 70
     1
  9
$DIMTZIN
 70
     0
  9
$DIMALTZ
 70
     0
  9
$DIMALTTZ
 70
     0
  9
$DIMFIT
 70
     3
  9
$DIMUPT
 70
     0
  9
$DIMUNIT
 70
     2
  9
$DIMDEC
 70
     4
  9
$DIMTDEC
 70
     4
  9
$DIMALTU
 70
     2
  9
$DIMALTTD
 70
     2
  9
$DIMTXSTY
  7
STANDARD
  9
$DIMAUNIT
 70
     0
  9
$LUNITS
 70
     2
  9
$LUPREC
 70
     4
  9
$SKETCHINC
 40
0.1
  9
$FILLETRAD
 40
0.0
  9
$AUNITS
 70
     0
  9
$AUPREC
 70
     0
  9
$MENU
  1
acad
  9
$ELEVATION
 40
0.0
  9
$PELEVATION
 40
0.0
  9
$THICKNESS
 40
0.0
  9
$LIMCHECK
 70
     0
  9
$BLIPMODE
 70
     1
  9
$CHAMFERA
 40
0.0
  9
$CHAMFERB
 40
0.0
  9
$CHAMFERC
 40
0.0
  9
$CHAMFERD
 40
0.0
  9
$SKPOLY
 70
     0
  9
$TDCREATE
 40
0.000000000
  9
$TDUPDATE
 40
0.000000000
  9
$TDINDWG
 40
0.0000000000
  9
$TDUSRTIMER
 40
0.0000000000
  9
$USRTIMER
 70
     1
  9
$ANGBASE
 50
0.0
  9
$ANGDIR
 70
     0
  9
$PDMODE
 70
     0
  9
$PDSIZE
 40
0.0
  9
$PLINEWID
 40
0.0
  9
$COORDS
 70
     0
  9
$SPLFRAME
 70
     0
  9
$SPLINETYPE
 70
     6
  9
$SPLINESEGS
 70
     8
  9
$ATTDIA
 70
     0
  9
$ATTREQ
 70
     1
  9
$HANDLING
 70
     1
  9
$HANDSEED
  5
E8
  9
$SURFTAB1
 70
     6
  9
$SURFTAB2
 70
     6
  9
$SURFTYPE
 70
     6
  9
$SURFU
 70
     6
  9
$SURFV
 70
     6
  9
$UCSNAME
  2

  9
$UCSORG
 10
0.0
 20
0.0
 30
0.0
  9
$UCSXDIR
 10
1.0
 20
0.0
 30
0.0
  9
$UCSYDIR
 10
0.0
 20
1.0
 30
0.0
  9
$PUCSNAME
  2

  9
$PUCSORG
 10
0.0
 20
0.0
 30
0.0
  9
$PUCSXDIR
 10
1.0
 20
0.0
 30
0.0
  9
$PUCSYDIR
 10
0.0
 20
1.0
 30
0.0
  9
$USERI1
 70
     0
  9
$USERI2
 70
     0
  9
$USERI3
 70
     0
  9
$USERI4
 70
     0
  9
$USERI5
 70
     0
  9
$USERR1
 40
0.0
  9
$USERR2
 40
0.0
  9
$USERR3
 40
0.0
  9
$USERR4
 40
0.0
  9
$USERR5
 40
0.0
  9
$WORLDVIEW
 70
     1
  9
$SHADEDGE
 70
     3
  9
$SHADEDIF
 70
    70
  9
$TILEMODE
 70
     1
  9
$MAXACTVP
 70
    16
  9
$PINSBASE
 10
0.0
 20
0.0
 30
0.0
  9
$PLIMCHECK
 70
     0
  9
$PEXTMIN
 10
1.000000E+20
 20
1.000000E+20
 30
1.000000E+20
  9
$PEXTMAX
 10
-1.000000E+20
 20
-1.000000E+20
 30
-1.000000E+20
  9
$PLIMMIN
 10
0.0
 20
0.0
  9
$PLIMMAX
 10
12.0
 20
9.0
  9
$UNITMODE
 70
     0
  9
$VISRETAIN
 70
     0
  9
$PLINEGEN
 70
     0
  9
$PSLTSCALE
 70
     0
  9
$TREEDEPTH
 70
  3020
  9
$PICKSTYLE
 70
     1
  9
$CMLSTYLE
  2
STANDARD
  9
$CMLJUST
 70
     0
  9
$CMLSCALE
 40
1.0
  9
$PROXYGRAPHICS
 70
     0
  9
$MEASUREMENT
 70
     0
  0
ENDSEC
  0
SECTION
  2
CLASSES
  0
CLASS
  1
LWPOLYLINE
  2
AcDbPolyline
  3
"AutoCAD"
 90
        0
280
     0
281
     1
  0
CLASS
  1
IMAGE
  2
AcDbRasterImage
  3
ISM
 90
      127
280
     0
281
     1
  0
CLASS
  1
OLE2FRAME
  2
AcDbOle2Frame
  3
""
 90
        0
280
     0
281
     1
  0
CLASS
  1
HATCH
  2
AcDbHatch
  3
"ACAD_SEDONA"
 90
        0
280
     0
281
     1
  0
CLASS
  1
DICTIONARYVAR
  2
AcDbDictionaryVar
  3
"AutoCAD"
 90
        0
280
     0
281
     0
  0
CLASS
  1
RASTERVARIABLES
  2
AcDbRasterVariables
  3
ISM
 90
        0
280
     0
281
     0
  0
CLASS
  1
IMAGEDEF
  2
AcDbRasterImageDef
  3
ISM
 90
        0
280
     0
281
     0
  0
CLASS
  1
IMAGEDEF_REACTOR
  2
AcDbRasterImageDefReactor
  3
ISM
 90
        1
280
     0
281
     0
  0
CLASS
  1
IDBUFFER
  2
AcDbIdBuffer
  3
"Acad"
 90
        0
280
     0
281
     0
  0
CLASS
  1
SPATIAL_FILTER
  2
AcDbSpatialFilter
  3
"Acad"
 90
        0
280
     0
281
     0
  0
CLASS
  1
XRECORD
  2
AcDbXrecord
  3
"<Built In>"
 90
        0
280
     0
281
     0
  0
CLASS
  1
SORTENTSTABLE
  2
AcDbSortentsTable
  3
"AutoCAD"
 90
        0
280
     0
281
     0
  0
CLASS
  1
LAYER_INDEX
  2
AcDbLayerIndex
  3
"Acad"
 90
        0
280
     0
281
     0
  0
CLASS
  1
SPATIAL_INDEX
  2
AcDbSpatialIndex
  3
"Acad"
 90
        0
280
     0
281
     0
  0
CLASS
  1
OBJECT_PTR
  2
CAseDLPNTableRecord
  3
"ASE-LPNTableRecord"
 90
        1
280
     0
281
     0
  0
CLASS
  1
LAYOUT
  2
AcDbLayout
  3
"AutoCAD 2000"
 90
        1
280
     0
281
     0
  0
CLASS
  1
PLOTSETTINGS
  2
AcDbPlotSettings
  3
"AutoCAD 2000"
 90
        1
280
     0
281
     0
  0
CLASS
  1
ACDBDICTIONARYWDFLT
  2
AcDbDictionaryWithDefault
  3
"AutoCAD 2000"
 90
        1
280
     0
281
     0
  0
CLASS
  1
ACDBPLACEHOLDER
  2
AcDbPlaceHolder
  3
"AutoCAD 2000"
 90
        1
280
     0
281
     0
  0
CLASS
  1
VBA_PROJECT
  2
AcDbVbaProject
  3
"acadvba"
 90
        1
280
     0
281
     0
  0
CLASS
  1
WIPEOUT
  2
AcDbWipeout
  3
WipeOut|AutoCAD Express Tool|expresstools@autodesk.com
 90
      127
280
     0
281
     1
  0
CLASS
  1
WIPEOUTVARIABLES
  2
AcDbWipeoutVariables
  3
WipeOut|AutoCAD Express Tool|expresstools@autodesk.com
 90
        0
280
     0
281
     0
  0
CLASS
  1
RTEXT
  2
RText
  3
RText|AutoCAD Express Tool|expresstools@autodesk.com
 90
        0
280
     0
281
     1
  0
CLASS
  1
ARCALIGNEDTEXT
  2
AcDbArcAlignedText
  3
ATEXT|AutoCAD Express Tool|expresstools@autodesk.com
 90
        0
280
     0
281
     1
  0
ENDSEC
  0
SECTION
  2
TABLES
  0
TABLE
  2
VPORT
  5
7
100
AcDbSymbolTable
 70
     2
  0
VPORT
  5
15
100
AcDbSymbolTableRecord
100
AcDbViewportTableRecord
  2
*ACTIVE
 70
     0
 10
0.0
 20
0.0
 11
1.0
 21
1.0
 12
6.591288
 22
4.579184
 13
0.0
 23
0.0
 14
1.0
 24
1.0
 15
0.0
 25
0.0
 16
0.0
 26
0.0
 36
1.0
 17
0.0
 27
0.0
 37
0.0
 40
9.158369
 41
0.688564
 42
50.0
 43
0.0
 44
0.0
 50
0.0
 51
0.0
 71
     0
 72
   100
 73
     1
 74
     1
 75
     0
 76
     0
 77
     0
 78
     0
  0
VPORT
  5
2B
100
AcDbSymbolTableRecord
100
AcDbViewportTableRecord
  2
DCADVPORT
 70
     0
 10
1.999987
 20
1.111682
 11
3.0
 21
1.311682
 12
6.21
 22
9.02
 13
0.0
 23
0.0
 14
1.0
 24
1.0
 15
0.0
 25
0.0
 16
0.0
 26
0.0
 36
1.0
 17
0.0
 27
0.0
 37
0.0
 40
18.04
 41
0.688564
 42
50.0
 43
1.0
 44
1.0
 50
0.0
 51
0.0
 71
     0
 72
   100
 73
     1
 74
     1
 75
     0
 76
     0
 77
     0
 78
     0
  0
ENDTAB
  0
TABLE
  2
LTYPE
  5
4
100
AcDbSymbolTable
 70
    15
  0
LTYPE
  5
11
100
AcDbSymbolTableRecord
100
AcDbLinetypeTableRecord
  2
BYBLOCK
 70
    64
  3

 72
    65
 73
     0
 40
0.0
  0
LTYPE
  5
12
100
AcDbSymbolTableRecord
100
AcDbLinetypeTableRecord
  2
BYLAYER
 70
    64
  3

 72
    65
 73
     0
 40
0.0
  0
LTYPE
  5
13
100
AcDbSymbolTableRecord
100
AcDbLinetypeTableRecord
  2
CONTINUOUS
 70
    64
  3
Solid line
 72
    65
 73
     0
 40
0.0
  0
LTYPE
  5
1E
100
AcDbSymbolTableRecord
100
AcDbLinetypeTableRecord
  2
CONTINUOUS
 70
     0
  3
Solid line
 72
    65
 73
     0
 40
0.0
  0
LTYPE
  5
1F
100
AcDbSymbolTableRecord
100
AcDbLinetypeTableRecord
  2
BORDER
 70
    64
  3
__ __ . __ __ . __ __ . __ __ . __ __ . __ __ .
 72
    65
 73
     6
 40
1.75
 49
0.5
 74
     0
 49
-0.25
 74
     0
 49
0.5
 74
     0
 49
-0.25
 74
     0
 49
0.0
 74
     0
 49
-0.25
 74
     0
  0
LTYPE
  5
20
100
AcDbSymbolTableRecord
100
AcDbLinetypeTableRecord
  2
BORDER2
 70
    64
  3
__.__.__.__.__.__.__.__.__.__.__.__.__.__.__.__
 72
    65
 73
     6
 40
0.875
 49
0.25
 74
     0
 49
-0.125
 74
     0
 49
0.25
 74
     0
 49
-0.125
 74
     0
 49
0.0
 74
     0
 49
-0.125
 74
     0
  0
LTYPE
  5
21
100
AcDbSymbolTableRecord
100
AcDbLinetypeTableRecord
  2
CENTER
 70
    64
  3
____ _ ____ _ ____ _ ____ _ ____ _ ____ _ ____ 
 72
    65
 73
     4
 40
2.0
 49
1.25
 74
     0
 49
-0.25
 74
     0
 49
0.25
 74
     0
 49
-0.25
 74
     0
  0
LTYPE
  5
22
100
AcDbSymbolTableRecord
100
AcDbLinetypeTableRecord
  2
DASHDOT
 70
    64
  3
__ . __ . __ . __ . __ . __ . __ . __ . __ . __
 72
    65
 73
     4
 40
1.0
 49
0.5
 74
     0
 49
-0.25
 74
     0
 49
0.0
 74
     0
 49
-0.25
 74
     0
  0
LTYPE
  5
23
100
AcDbSymbolTableRecord
100
AcDbLinetypeTableRecord
  2
DASHDOT2
 70
    64
  3
_._._._._._._._._._._._._._._._._._._._._._._._
 72
    65
 73
     4
 40
0.5
 49
0.25
 74
     0
 49
-0.125
 74
     0
 49
0.0
 74
     0
 49
-0.125
 74
     0
  0
LTYPE
  5
24
100
AcDbSymbolTableRecord
100
AcDbLinetypeTableRecord
  2
DASHED
 70
    64
  3
__ __ __ __ __ __ __ __ __ __ __ __ __ __ __ __
 72
    65
 73
     2
 40
0.75
 49
0.5
 74
     0
 49
-0.25
 74
     0
  0
LTYPE
  5
25
100
AcDbSymbolTableRecord
100
AcDbLinetypeTableRecord
  2
DIVIDE
 70
    64
  3
____ . . ____ . . ____ . . ____ . . ____ . . __
 72
    65
 73
     6
 40
1.25
 49
0.5
 74
     0
 49
-0.25
 74
     0
 49
0.0
 74
     0
 49
-0.25
 74
     0
 49
0.0
 74
     0
 49
-0.25
 74
     0
  0
LTYPE
  5
26
100
AcDbSymbolTableRecord
100
AcDbLinetypeTableRecord
  2
DIVIDE2
 70
    64
  3
__..__..__..__..__..__..__..__..__..__..__..__.
 72
    65
 73
     6
 40
0.625
 49
0.25
 74
     0
 49
-0.125
 74
     0
 49
0.0
 74
     0
 49
-0.125
 74
     0
 49
0.0
 74
     0
 49
-0.125
 74
     0
  0
LTYPE
  5
27
100
AcDbSymbolTableRecord
100
AcDbLinetypeTableRecord
  2
DOT
 70
    64
  3
. . . . . . . . . . . . . . . . . . . . . . . .
 72
    65
 73
     2
 40
0.25
 49
0.0
 74
     0
 49
-0.25
 74
     0
  0
LTYPE
  5
28
100
AcDbSymbolTableRecord
100
AcDbLinetypeTableRecord
  2
HIDDEN
 70
    64
  3
__ __ __ __ __ __ __ __ __ __ __ __ __ __ __ __
 72
    65
 73
     2
 40
0.375
 49
0.25
 74
     0
 49
-0.125
 74
     0
  0
LTYPE
  5
29
100
AcDbSymbolTableRecord
100
AcDbLinetypeTableRecord
  2
PHANTOM
 70
    64
  3
______  __  __  ______  __  __  ______  __  __ 
 72
    65
 73
     6
 40
2.5
 49
1.25
 74
     0
 49
-0.25
 74
     0
 49
0.25
 74
     0
 49
-0.25
 74
     0
 49
0.25
 74
     0
 49
-0.25
 74
     0
  0
ENDTAB
  0
TABLE
  2
LAYER
  5
2
100
AcDbSymbolTable
 70
     2
  0
LAYER
  5
14
100
AcDbSymbolTableRecord
100
AcDbLayerTableRecord
  2
0
 70
     0
 62
     7
  6
CONTINUOUS
  0
LAYER
  5
2A
100
AcDbSymbolTableRecord
100
AcDbLayerTableRecord
  2
1
 70
     0
 62
     7
  6
CONTINUOUS
  0
ENDTAB
  0
TABLE
  2
STYLE
  5
3
100
AcDbSymbolTable
 70
     2
  0
STYLE
  5
17
100
AcDbSymbolTableRecord
100
AcDbTextStyleTableRecord
  2
STANDARD
 70
     0
 40
0.0
 41
1.0
 50
0.0
 71
     0
 42
0.0
  3
txt
  4

  0
STYLE
  5
1D
100
AcDbSymbolTableRecord
100
AcDbTextStyleTableRecord
  2
BIGFONT
 70
    64
 40
3.0
 41
1.0
 50
0.0
 71
     0
 42
0.2
  3

  4
BIGFONT
  0
ENDTAB
  0
TABLE
  2
VIEW
  5
5
100
AcDbSymbolTable
 70
     0
  0
ENDTAB
  0
TABLE
  2
UCS
  5
6
100
AcDbSymbolTable
 70
     0
  0
ENDTAB
  0
TABLE
  2
APPID
  5
8
100
AcDbSymbolTable
 70
     1
  0
APPID
  5
16
100
AcDbSymbolTableRecord
100
AcDbRegAppTableRecord
  2
ACAD
 70
     0
  0
ENDTAB
  0
TABLE
  2
DIMSTYLE
  5
9
100
AcDbSymbolTable
 70
     1
  0
DIMSTYLE
105
18
100
AcDbSymbolTableRecord
100
AcDbDimStyleTableRecord
  2
STANDARD
 70
     0
  3

  4

  5

  6

  7

 40
1.0
 41
0.18
 42
0.0625
 43
0.38
 44
0.18
 45
0.0
 46
0.0
 47
0.0
 48
0.0
 71
     0
 72
     0
 73
     1
 74
     1
 75
     0
 76
     0
 77
     0
 78
     0
140
0.18
141
0.09
142
0.0
143
25.4
144
1.0
145
0.0
146
1.0
147
0.09
170
     0
171
     2
172
     0
173
     0
174
     0
175
     0
176
     0
177
     0
178
     0
270
     2
271
     4
272
     4
273
     2
274
     2
275
     0
280
     0
281
     0
282
     0
283
     1
284
     0
285
     0
286
     0
287
     0
288
     0
340
17
  0
ENDTAB
  0
TABLE
  2
BLOCK_RECORD
  5
1
100
AcDbSymbolTable
 70
     0
  0
BLOCK_RECORD
  5
A
100
AcDbSymbolTableRecord
100
AcDbBlockTableRecord
  2
*MODEL_SPACE
  0
BLOCK_RECORD
  5
B
100
AcDbSymbolTableRecord
100
AcDbBlockTableRecord
  2
*PAPER_SPACE
  0
ENDTAB
  0
ENDSEC
  0
SECTION
  2
BLOCKS
  0
BLOCK
  5
D
100
AcDbEntity
  8
0
100
AcDbBlockBegin
  2
*MODEL_SPACE
 70
     0
 10
0.0
 20
0.0
 30
0.0
  3
*MODEL_SPACE
  1

  0
ENDBLK
  5
E
100
AcDbEntity
  8
0
100
AcDbBlockEnd
  0
BLOCK
  5
F
100
AcDbEntity
 67
     1
  8
0
100
AcDbBlockBegin
  2
*PAPER_SPACE
 70
     0
 10
0.0
 20
0.0
 30
0.0
  3
*PAPER_SPACE
  1

  0
ENDBLK
  5
10
100
AcDbEntity
 67
     1
  8
0
100
AcDbBlockEnd
  0
ENDSEC
  0
SECTION
  2
ENTITIES
  0
POLYLINE
  5
2C
100
AcDbEntity
  8
1
  6
CONTINUOUS
 62
   212
 48
0.0008
100
AcDb2dPolyline
 66
     1
 10
0.0
 20
0.0
 30
0.0
 70
   128
  0
VERTEX
  5
2D
100
AcDbEntity
  8
1
  6
CONTINUOUS
 62
   212
 48
0.0008
100
AcDbVertex
100
AcDb2dVertex
 10
2.987487
 20
1.211682
 30
0.0
 40
0.0
 41
0.0
  0
VERTEX
  5
2E
100
AcDbEntity
  8
1
  6
CONTINUOUS
 62
   212
 48
0.0008
100
AcDbVertex
100
AcDb2dVertex
 10
2.987487
 20
1.243282
 30
0.0
 40
0.0
 41
0.0
  0
SEQEND
  5
2F
100
AcDbEntity
  8
0
  0
POLYLINE
  5
30
100
AcDbEntity
  8
1
  6
CONTINUOUS
 62
   212
 48
0.0008
100
AcDb2dPolyline
 66
     1
 10
0.0
 20
0.0
 30
0.0
 70
   128
  0
VERTEX
  5
31
100
AcDbEntity
  8
1
  6
CONTINUOUS
 62
   212
 48
0.0008
100
AcDbVertex
100
AcDb2dVertex
 10
2.974987
 20
1.211682
 30
0.0
 40
0.0
 41
0.0
  0
VERTEX
  5
32
100
AcDbEntity
  8
1
  6
CONTINUOUS
 62
   212
 48
0.0008
100
AcDbVertex
100
AcDb2dVertex
 10
2.974987
 20
1.255282
 30
0.0
 40
0.0
 41
0.0
  0
SEQEND
  5
33
100
AcDbEntity
  8
0
  0
POLYLINE
  5
34
100
AcDbEntity
  8
1
  6
CONTINUOUS
 62
   212
 48
0.0008
100
AcDb2dPolyline
 66
     1
 10
0.0
 20
0.0
 30
0.0
 70
   128
  0
VERTEX
  5
35
100
AcDbEntity
  8
1
  6
CONTINUOUS
 62
   212
 48
0.0008
100
AcDbVertex
100
AcDb2dVertex
 10
2.949987
 20
1.211682
 30
0.0
 40
0.0
 41
0.0
  0
VERTEX
  5
36
100
AcDbEntity
  8
1
  6
CONTINUOUS
 62
   212
 48
0.0008
100
AcDbVertex
100
AcDb2dVertex
 10
2.949987
 20
1.270882
 30
0.0
 40
0.0
 41
0.0
  0
SEQEND
  5
37
100
AcDbEntity
  8
0
  0
POLYLINE
  5
38
100
AcDbEntity
  8
1
  6
CONTINUOUS
 62
   212
 48
0.0008
100
AcDb2dPolyline
 66
     1
 10
0.0
 20
0.0
 30
0.0
 70
   128
  0
VERTEX
  5
39
100
AcDbEntity
  8
1
  6
CONTINUOUS
 62
   212
 48
0.0008
100
AcDbVertex
100
AcDb2dVertex
 10
2.899987
 20
1.211682
 30
0.0
 40
0.0
 41
0.0
  0
VERTEX
  5
3A
100
AcDbEntity
  8
1
  6
CONTINUOUS
 62
   212
 48
0.0008
100
AcDbVertex
100
AcDb2dVertex
 10
2.899987
 20
1.289682
 30
0.0
 40
0.0
 41
0.0
  0
SEQEND
  5
3B
100
AcDbEntity
  8
0
  0
POLYLINE
  5
3C
100
AcDbEntity
  8
1
  6
CONTINUOUS
 62
   212
 48
0.0008
100
AcDb2dPolyline
 66
     1
 10
0.0
 20
0.0
 30
0.0
 70
   128
  0
VERTEX
  5
3D
100
AcDbEntity
  8
1
  6
CONTINUOUS
 62
   212
 48
0.0008
100
AcDbVertex
100
AcDb2dVertex
 10
2.849987
 20
1.211682
 30
0.0
 40
0.0
 41
0.0
  0
VERTEX
  5
3E
100
AcDbEntity
  8
1
  6
CONTINUOUS
 62
   212
 48
0.0008
100
AcDbVertex
100
AcDb2dVertex
 10
2.849987
 20
1.300782
 30
0.0
 40
0.0
 41
0.0
  0
SEQEND
  5
3F
100
AcDbEntity
  8
0
  0
POLYLINE
  5
40
100
AcDbEntity
  8
1
  6
CONTINUOUS
 62
   212
 48
0.0008
100
AcDb2dPolyline
 66
     1
 10
0.0
 20
0.0
 30
0.0
 70
   128
  0
VERTEX
  5
41
100
AcDbEntity
  8
1
  6
CONTINUOUS
 62
   212
 48
0.0008
100
AcDbVertex
100
AcDb2dVertex
 10
2.799987
 20
1.211682
 30
0.0
 40
0.0
 41
0.0
  0
VERTEX
  5
42
100
AcDbEntity
  8
1
  6
CONTINUOUS
 62
   212
 48
0.0008
100
AcDbVertex
100
AcDb2dVertex
 10
2.799987
 20
1.307282
 30
0.0
 40
0.0
 41
0.0
  0
SEQEND
  5
43
100
AcDbEntity
  8
0
  0
POLYLINE
  5
44
100
AcDbEntity
  8
1
  6
CONTINUOUS
 62
   212
 48
0.0008
100
AcDb2dPolyline
 66
     1
 10
0.0
 20
0.0
 30
0.0
 70
   128
  0
VERTEX
  5
45
100
AcDbEntity
  8
1
  6
CONTINUOUS
 62
   212
 48
0.0008
100
AcDbVertex
100
AcDb2dVertex
 10
2.749987
 20
1.211682
 30
0.0
 40
0.0
 41
0.0
  0
VERTEX
  5
46
100
AcDbEntity
  8
1
  6
CONTINUOUS
 62
   212
 48
0.0008
100
AcDbVertex
100
AcDb2dVertex
 10
2.749987
 20
1.310682
 30
0.0
 40
0.0
 41
0.0
  0
SEQEND
  5
47
100
AcDbEntity
  8
0
  0
POLYLINE
  5
48
100
AcDbEntity
  8
1
  6
CONTINUOUS
 62
   212
 48
0.0008
100
AcDb2dPolyline
 66
     1
 10
0.0
 20
0.0
 30
0.0
 70
   128
  0
VERTEX
  5
49
100
AcDbEntity
  8
1
  6
CONTINUOUS
 62
   212
 48
0.0008
100
AcDbVertex
100
AcDb2dVertex
 10
2.699987
 20
1.211682
 30
0.0
 40
0.0
 41
0.0
  0
VERTEX
  5
4A
100
AcDbEntity
  8
1
  6
CONTINUOUS
 62
   212
 48
0.0008
100
AcDbVertex
100
AcDb2dVertex
 10
2.699987
 20
1.311682
 30
0.0
 40
0.0
 41
0.0
  0
SEQEND
  5
4B
100
AcDbEntity
  8
0
  0
POLYLINE
  5
4C
100
AcDbEntity
  8
1
  6
CONTINUOUS
 62
   212
 48
0.0008
100
AcDb2dPolyline
 66
     1
 10
0.0
 20
0.0
 30
0.0
 70
   128
  0
VERTEX
  5
4D
100
AcDbEntity
  8
1
  6
CONTINUOUS
 62
   212
 48
0.0008
100
AcDbVertex
100
AcDb2dVertex
 10
2.599987
 20
1.211682
 30
0.0
 40
0.0
 41
0.0
  0
VERTEX
  5
4E
100
AcDbEntity
  8
1
  6
CONTINUOUS
 62
   212
 48
0.0008
100
AcDbVertex
100
AcDb2dVertex
 10
2.599987
 20
1.308382
 30
0.0
 40
0.0
 41
0.0
  0
SEQEND
  5
4F
100
AcDbEntity
  8
0
  0
POLYLINE
  5
50
100
AcDbEntity
  8
1
  6
CONTINUOUS
 62
   212
 48
0.0008
100
AcDb2dPolyline
 66
     1
 10
0.0
 20
0.0
 30
0.0
 70
   128
  0
VERTEX
  5
51
100
AcDbEntity
  8
1
  6
CONTINUOUS
 62
   212
 48
0.0008
100
AcDbVertex
100
AcDb2dVertex
 10
2.549987
 20
1.211682
 30
0.0
 40
0.0
 41
0.0
  0
VERTEX
  5
52
100
AcDbEntity
  8
1
  6
CONTINUOUS
 62
   212
 48
0.0008
100
AcDbVertex
100
AcDb2dVertex
 10
2.549987
 20
1.304682
 30
0.0
 40
0.0
 41
0.0
  0
SEQEND
  5
53
100
AcDbEntity
  8
0
  0
POLYLINE
  5
54
100
AcDbEntity
  8
1
  6
CONTINUOUS
 62
   212
 48
0.0008
100
AcDb2dPolyline
 66
     1
 10
0.0
 20
0.0
 30
0.0
 70
   128
  0
VERTEX
  5
55
100
AcDbEntity
  8
1
  6
CONTINUOUS
 62
   212
 48
0.0008
100
AcDbVertex
100
AcDb2dVertex
 10
2.499987
 20
1.211682
 30
0.0
 40
0.0
 41
0.0
  0
VERTEX
  5
56
100
AcDbEntity
  8
1
  6
CONTINUOUS
 62
   212
 48
0.0008
100
AcDbVertex
100
AcDb2dVertex
 10
2.499987
 20
1.299882
 30
0.0
 40
0.0
 41
0.0
  0
SEQEND
  5
57
100
AcDbEntity
  8
0
  0
POLYLINE
  5
58
100
AcDbEntity
  8
1
  6
CONTINUOUS
 62
   212
 48
0.0008
100
AcDb2dPolyline
 66
     1
 10
0.0
 20
0.0
 30
0.0
 70
   128
  0
VERTEX
  5
59
100
AcDbEntity
  8
1
  6
CONTINUOUS
 62
   212
 48
0.0008
100
AcDbVertex
100
AcDb2dVertex
 10
2.399987
 20
1.211682
 30
0.0
 40
0.0
 41
0.0
  0
VERTEX
  5
5A
100
AcDbEntity
  8
1
  6
CONTINUOUS
 62
   212
 48
0.0008
100
AcDbVertex
100
AcDb2dVertex
 10
2.399987
 20
1.287782
 30
0.0
 40
0.0
 41
0.0
  0
SEQEND
  5
5B
100
AcDbEntity
  8
0
  0
POLYLINE
  5
5C
100
AcDbEntity
  8
1
  6
CONTINUOUS
 62
   212
 48
0.0008
100
AcDb2dPolyline
 66
     1
 10
0.0
 20
0.0
 30
0.0
 70
   128
  0
VERTEX
  5
5D
100
AcDbEntity
  8
1
  6
CONTINUOUS
 62
   212
 48
0.0008
100
AcDbVertex
100
AcDb2dVertex
 10
2.299987
 20
1.211682
 30
0.0
 40
0.0
 41
0.0
  0
VERTEX
  5
5E
100
AcDbEntity
  8
1
  6
CONTINUOUS
 62
   212
 48
0.0008
100
AcDbVertex
100
AcDb2dVertex
 10
2.299987
 20
1.272782
 30
0.0
 40
0.0
 41
0.0
  0
SEQEND
  5
5F
100
AcDbEntity
  8
0
  0
POLYLINE
  5
60
100
AcDbEntity
  8
1
  6
CONTINUOUS
 62
   212
 48
0.0008
100
AcDb2dPolyline
 66
     1
 10
0.0
 20
0.0
 30
0.0
 70
   128
  0
VERTEX
  5
61
100
AcDbEntity
  8
1
  6
CONTINUOUS
 62
   212
 48
0.0008
100
AcDbVertex
100
AcDb2dVertex
 10
2.199987
 20
1.211682
 30
0.0
 40
0.0
 41
0.0
  0
VERTEX
  5
62
100
AcDbEntity
  8
1
  6
CONTINUOUS
 62
   212
 48
0.0008
100
AcDbVertex
100
AcDb2dVertex
 10
2.199987
 20
1.255382
 30
0.0
 40
0.0
 41
0.0
  0
SEQEND
  5
63
100
AcDbEntity
  8
0
  0
POLYLINE
  5
64
100
AcDbEntity
  8
1
  6
CONTINUOUS
 62
   212
 48
0.0008
100
AcDb2dPolyline
 66
     1
 10
0.0
 20
0.0
 30
0.0
 70
   128
  0
VERTEX
  5
65
100
AcDbEntity
  8
1
  6
CONTINUOUS
 62
   212
 48
0.0008
100
AcDbVertex
100
AcDb2dVertex
 10
2.099987
 20
1.211682
 30
0.0
 40
0.0
 41
0.0
  0
VERTEX
  5
66
100
AcDbEntity
  8
1
  6
CONTINUOUS
 62
   212
 48
0.0008
100
AcDbVertex
100
AcDb2dVertex
 10
2.099987
 20
1.235782
 30
0.0
 40
0.0
 41
0.0
  0
SEQEND
  5
67
100
AcDbEntity
  8
0
  0
POLYLINE
  5
68
100
AcDbEntity
  8
1
  6
CONTINUOUS
 62
   212
 48
0.0008
100
AcDb2dPolyline
 66
     1
 10
0.0
 20
0.0
 30
0.0
 70
   128
  0
VERTEX
  5
69
100
AcDbEntity
  8
1
  6
CONTINUOUS
 62
   212
 48
0.0008
100
AcDbVertex
100
AcDb2dVertex
 10
1.999987
 20
1.211682
 30
0.0
 40
0.0
 41
0.0
  0
VERTEX
  5
6A
100
AcDbEntity
  8
1
  6
CONTINUOUS
 62
   212
 48
0.0008
100
AcDbVertex
100
AcDb2dVertex
 10
1.999987
 20
1.213782
 30
0.0
 40
0.0
 41
0.0
  0
SEQEND
  5
6B
100
AcDbEntity
  8
0
  0
POLYLINE
  5
6C
100
AcDbEntity
  8
1
  6
CONTINUOUS
 62
   212
 48
0.0008
100
AcDb2dPolyline
 66
     1
 10
0.0
 20
0.0
 30
0.0
 70
   128
  0
VERTEX
  5
6D
100
AcDbEntity
  8
1
  6
CONTINUOUS
 62
   212
 48
0.0008
100
AcDbVertex
100
AcDb2dVertex
 10
2.999987
 20
1.211682
 30
0.0
 40
0.0
 41
0.0
  0
VERTEX
  5
6E
100
AcDbEntity
  8
1
  6
CONTINUOUS
 62
   212
 48
0.0008
100
AcDbVertex
100
AcDb2dVertex
 10
2.987487
 20
1.211682
 30
0.0
 40
0.0
 41
0.0
  0
VERTEX
  5
6F
100
AcDbEntity
  8
1
  6
CONTINUOUS
 62
   212
 48
0.0008
100
AcDbVertex
100
AcDb2dVertex
 10
2.974987
 20
1.211682
 30
0.0
 40
0.0
 41
0.0
  0
VERTEX
  5
70
100
AcDbEntity
  8
1
  6
CONTINUOUS
 62
   212
 48
0.0008
100
AcDbVertex
100
AcDb2dVertex
 10
2.949987
 20
1.211682
 30
0.0
 40
0.0
 41
0.0
  0
VERTEX
  5
71
100
AcDbEntity
  8
1
  6
CONTINUOUS
 62
   212
 48
0.0008
100
AcDbVertex
100
AcDb2dVertex
 10
2.899987
 20
1.211682
 30
0.0
 40
0.0
 41
0.0
  0
VERTEX
  5
72
100
AcDbEntity
  8
1
  6
CONTINUOUS
 62
   212
 48
0.0008
100
AcDbVertex
100
AcDb2dVertex
 10
2.849987
 20
1.211682
 30
0.0
 40
0.0
 41
0.0
  0
VERTEX
  5
73
100
AcDbEntity
  8
1
  6
CONTINUOUS
 62
   212
 48
0.0008
100
AcDbVertex
100
AcDb2dVertex
 10
2.799987
 20
1.211682
 30
0.0
 40
0.0
 41
0.0
  0
VERTEX
  5
74
100
AcDbEntity
  8
1
  6
CONTINUOUS
 62
   212
 48
0.0008
100
AcDbVertex
100
AcDb2dVertex
 10
2.749987
 20
1.211682
 30
0.0
 40
0.0
 41
0.0
  0
VERTEX
  5
75
100
AcDbEntity
  8
1
  6
CONTINUOUS
 62
   212
 48
0.0008
100
AcDbVertex
100
AcDb2dVertex
 10
2.699987
 20
1.211682
 30
0.0
 40
0.0
 41
0.0
  0
VERTEX
  5
76
100
AcDbEntity
  8
1
  6
CONTINUOUS
 62
   212
 48
0.0008
100
AcDbVertex
100
AcDb2dVertex
 10
2.599987
 20
1.211682
 30
0.0
 40
0.0
 41
0.0
  0
VERTEX
  5
77
100
AcDbEntity
  8
1
  6
CONTINUOUS
 62
   212
 48
0.0008
100
AcDbVertex
100
AcDb2dVertex
 10
2.549987
 20
1.211682
 30
0.0
 40
0.0
 41
0.0
  0
VERTEX
  5
78
100
AcDbEntity
  8
1
  6
CONTINUOUS
 62
   212
 48
0.0008
100
AcDbVertex
100
AcDb2dVertex
 10
2.499987
 20
1.211682
 30
0.0
 40
0.0
 41
0.0
  0
VERTEX
  5
79
100
AcDbEntity
  8
1
  6
CONTINUOUS
 62
   212
 48
0.0008
100
AcDbVertex
100
AcDb2dVertex
 10
2.399987
 20
1.211682
 30
0.0
 40
0.0
 41
0.0
  0
VERTEX
  5
7A
100
AcDbEntity
  8
1
  6
CONTINUOUS
 62
   212
 48
0.0008
100
AcDbVertex
100
AcDb2dVertex
 10
2.299987
 20
1.211682
 30
0.0
 40
0.0
 41
0.0
  0
VERTEX
  5
7B
100
AcDbEntity
  8
1
  6
CONTINUOUS
 62
   212
 48
0.0008
100
AcDbVertex
100
AcDb2dVertex
 10
2.199987
 20
1.211682
 30
0.0
 40
0.0
 41
0.0
  0
VERTEX
  5
7C
100
AcDbEntity
  8
1
  6
CONTINUOUS
 62
   212
 48
0.0008
100
AcDbVertex
100
AcDb2dVertex
 10
2.099987
 20
1.211682
 30
0.0
 40
0.0
 41
0.0
  0
VERTEX
  5
7D
100
AcDbEntity
  8
1
  6
CONTINUOUS
 62
   212
 48
0.0008
100
AcDbVertex
100
AcDb2dVertex
 10
1.999987
 20
1.211682
 30
0.0
 40
0.0
 41
0.0
  0
SEQEND
  5
7E
100
AcDbEntity
  8
0
  0
POLYLINE
  5
7F
100
AcDbEntity
  8
1
  6
CONTINUOUS
 62
   212
 48
0.0008
100
AcDb2dPolyline
 66
     1
 10
0.0
 20
0.0
 30
0.0
 70
   128
  0
VERTEX
  5
80
100
AcDbEntity
  8
1
  6
CONTINUOUS
 62
   212
 48
0.0008
100
AcDbVertex
100
AcDb2dVertex
 10
2.999987
 20
1.211682
 30
0.0
 40
0.0
 41
0.0
  0
VERTEX
  5
81
100
AcDbEntity
  8
1
  6
CONTINUOUS
 62
   212
 48
0.0008
100
AcDbVertex
100
AcDb2dVertex
 10
1.999987
 20
1.211682
 30
0.0
 40
0.0
 41
0.0
  0
SEQEND
  5
82
100
AcDbEntity
  8
0
  0
POLYLINE
  5
83
100
AcDbEntity
  8
1
  6
CONTINUOUS
 62
   212
 48
0.0008
100
AcDb2dPolyline
 66
     1
 10
0.0
 20
0.0
 30
0.0
 70
   128
  0
VERTEX
  5
84
100
AcDbEntity
  8
1
  6
CONTINUOUS
 62
   212
 48
0.0008
100
AcDbVertex
100
AcDb2dVertex
 10
2.999987
 20
1.211682
 30
0.0
 40
0.0
 41
0.0
  0
VERTEX
  5
85
100
AcDbEntity
  8
1
  6
CONTINUOUS
 62
   212
 48
0.0008
100
AcDbVertex
100
AcDb2dVertex
 10
2.999987
 20
1.211682
 30
0.0
 40
0.0
 41
0.0
  0
SEQEND
  5
86
100
AcDbEntity
  8
0
  0
POLYLINE
  5
87
100
AcDbEntity
  8
1
  6
CONTINUOUS
 62
   212
 48
0.0008
100
AcDb2dPolyline
 66
     1
 10
0.0
 20
0.0
 30
0.0
 70
   128
  0
VERTEX
  5
88
100
AcDbEntity
  8
1
  6
CONTINUOUS
 62
   212
 48
0.0008
100
AcDbVertex
100
AcDb2dVertex
 10
2.9875
 20
1.211682
 30
0.0
 40
0.0
 41
0.0
  0
VERTEX
  5
89
100
AcDbEntity
  8
1
  6
CONTINUOUS
 62
   212
 48
0.0008
100
AcDbVertex
100
AcDb2dVertex
 10
2.9875
 20
1.180082
 30
0.0
 40
0.0
 41
0.0
  0
SEQEND
  5
8A
100
AcDbEntity
  8
0
  0
POLYLINE
  5
8B
100
AcDbEntity
  8
1
  6
CONTINUOUS
 62
   212
 48
0.0008
100
AcDb2dPolyline
 66
     1
 10
0.0
 20
0.0
 30
0.0
 70
   128
  0
VERTEX
  5
8C
100
AcDbEntity
  8
1
  6
CONTINUOUS
 62
   212
 48
0.0008
100
AcDbVertex
100
AcDb2dVertex
 10
2.975
 20
1.211682
 30
0.0
 40
0.0
 41
0.0
  0
VERTEX
  5
8D
100
AcDbEntity
  8
1
  6
CONTINUOUS
 62
   212
 48
0.0008
100
AcDbVertex
100
AcDb2dVertex
 10
2.975
 20
1.168082
 30
0.0
 40
0.0
 41
0.0
  0
SEQEND
  5
8E
100
AcDbEntity
  8
0
  0
POLYLINE
  5
8F
100
AcDbEntity
  8
1
  6
CONTINUOUS
 62
   212
 48
0.0008
100
AcDb2dPolyline
 66
     1
 10
0.0
 20
0.0
 30
0.0
 70
   128
  0
VERTEX
  5
90
100
AcDbEntity
  8
1
  6
CONTINUOUS
 62
   212
 48
0.0008
100
AcDbVertex
100
AcDb2dVertex
 10
2.95
 20
1.211682
 30
0.0
 40
0.0
 41
0.0
  0
VERTEX
  5
91
100
AcDbEntity
  8
1
  6
CONTINUOUS
 62
   212
 48
0.0008
100
AcDbVertex
100
AcDb2dVertex
 10
2.95
 20
1.152482
 30
0.0
 40
0.0
 41
0.0
  0
SEQEND
  5
92
100
AcDbEntity
  8
0
  0
POLYLINE
  5
93
100
AcDbEntity
  8
1
  6
CONTINUOUS
 62
   212
 48
0.0008
100
AcDb2dPolyline
 66
     1
 10
0.0
 20
0.0
 30
0.0
 70
   128
  0
VERTEX
  5
94
100
AcDbEntity
  8
1
  6
CONTINUOUS
 62
   212
 48
0.0008
100
AcDbVertex
100
AcDb2dVertex
 10
2.9
 20
1.211682
 30
0.0
 40
0.0
 41
0.0
  0
VERTEX
  5
95
100
AcDbEntity
  8
1
  6
CONTINUOUS
 62
   212
 48
0.0008
100
AcDbVertex
100
AcDb2dVertex
 10
2.9
 20
1.133682
 30
0.0
 40
0.0
 41
0.0
  0
SEQEND
  5
96
100
AcDbEntity
  8
0
  0
POLYLINE
  5
97
100
AcDbEntity
  8
1
  6
CONTINUOUS
 62
   212
 48
0.0008
100
AcDb2dPolyline
 66
     1
 10
0.0
 20
0.0
 30
0.0
 70
   128
  0
VERTEX
  5
98
100
AcDbEntity
  8
1
  6
CONTINUOUS
 62
   212
 48
0.0008
100
AcDbVertex
100
AcDb2dVertex
 10
2.85
 20
1.211682
 30
0.0
 40
0.0
 41
0.0
  0
VERTEX
  5
99
100
AcDbEntity
  8
1
  6
CONTINUOUS
 62
   212
 48
0.0008
100
AcDbVertex
100
AcDb2dVertex
 10
2.85
 20
1.122582
 30
0.0
 40
0.0
 41
0.0
  0
SEQEND
  5
9A
100
AcDbEntity
  8
0
  0
POLYLINE
  5
9B
100
AcDbEntity
  8
1
  6
CONTINUOUS
 62
   212
 48
0.0008
100
AcDb2dPolyline
 66
     1
 10
0.0
 20
0.0
 30
0.0
 70
   128
  0
VERTEX
  5
9C
100
AcDbEntity
  8
1
  6
CONTINUOUS
 62
   212
 48
0.0008
100
AcDbVertex
100
AcDb2dVertex
 10
2.8
 20
1.211682
 30
0.0
 40
0.0
 41
0.0
  0
VERTEX
  5
9D
100
AcDbEntity
  8
1
  6
CONTINUOUS
 62
   212
 48
0.0008
100
AcDbVertex
100
AcDb2dVertex
 10
2.8
 20
1.116082
 30
0.0
 40
0.0
 41
0.0
  0
SEQEND
  5
9E
100
AcDbEntity
  8
0
  0
POLYLINE
  5
9F
100
AcDbEntity
  8
1
  6
CONTINUOUS
 62
   212
 48
0.0008
100
AcDb2dPolyline
 66
     1
 10
0.0
 20
0.0
 30
0.0
 70
   128
  0
VERTEX
  5
A0
100
AcDbEntity
  8
1
  6
CONTINUOUS
 62
   212
 48
0.0008
100
AcDbVertex
100
AcDb2dVertex
 10
2.75
 20
1.211682
 30
0.0
 40
0.0
 41
0.0
  0
VERTEX
  5
A1
100
AcDbEntity
  8
1
  6
CONTINUOUS
 62
   212
 48
0.0008
100
AcDbVertex
100
AcDb2dVertex
 10
2.75
 20
1.112682
 30
0.0
 40
0.0
 41
0.0
  0
SEQEND
  5
A2
100
AcDbEntity
  8
0
  0
POLYLINE
  5
A3
100
AcDbEntity
  8
1
  6
CONTINUOUS
 62
   212
 48
0.0008
100
AcDb2dPolyline
 66
     1
 10
0.0
 20
0.0
 30
0.0
 70
   128
  0
VERTEX
  5
A4
100
AcDbEntity
  8
1
  6
CONTINUOUS
 62
   212
 48
0.0008
100
AcDbVertex
100
AcDb2dVertex
 10
2.7
 20
1.211682
 30
0.0
 40
0.0
 41
0.0
  0
VERTEX
  5
A5
100
AcDbEntity
  8
1
  6
CONTINUOUS
 62
   212
 48
0.0008
100
AcDbVertex
100
AcDb2dVertex
 10
2.7
 20
1.111682
 30
0.0
 40
0.0
 41
0.0
  0
SEQEND
  5
A6
100
AcDbEntity
  8
0
  0
POLYLINE
  5
A7
100
AcDbEntity
  8
1
  6
CONTINUOUS
 62
   212
 48
0.0008
100
AcDb2dPolyline
 66
     1
 10
0.0
 20
0.0
 30
0.0
 70
   128
  0
VERTEX
  5
A8
100
AcDbEntity
  8
1
  6
CONTINUOUS
 62
   212
 48
0.0008
100
AcDbVertex
100
AcDb2dVertex
 10
2.6
 20
1.211682
 30
0.0
 40
0.0
 41
0.0
  0
VERTEX
  5
A9
100
AcDbEntity
  8
1
  6
CONTINUOUS
 62
   212
 48
0.0008
100
AcDbVertex
100
AcDb2dVertex
 10
2.6
 20
1.114982
 30
0.0
 40
0.0
 41
0.0
  0
SEQEND
  5
AA
100
AcDbEntity
  8
0
  0
POLYLINE
  5
AB
100
AcDbEntity
  8
1
  6
CONTINUOUS
 62
   212
 48
0.0008
100
AcDb2dPolyline
 66
     1
 10
0.0
 20
0.0
 30
0.0
 70
   128
  0
VERTEX
  5
AC
100
AcDbEntity
  8
1
  6
CONTINUOUS
 62
   212
 48
0.0008
100
AcDbVertex
100
AcDb2dVertex
 10
2.55
 20
1.211682
 30
0.0
 40
0.0
 41
0.0
  0
VERTEX
  5
AD
100
AcDbEntity
  8
1
  6
CONTINUOUS
 62
   212
 48
0.0008
100
AcDbVertex
100
AcDb2dVertex
 10
2.55
 20
1.118682
 30
0.0
 40
0.0
 41
0.0
  0
SEQEND
  5
AE
100
AcDbEntity
  8
0
  0
POLYLINE
  5
AF
100
AcDbEntity
  8
1
  6
CONTINUOUS
 62
   212
 48
0.0008
100
AcDb2dPolyline
 66
     1
 10
0.0
 20
0.0
 30
0.0
 70
   128
  0
VERTEX
  5
B0
100
AcDbEntity
  8
1
  6
CONTINUOUS
 62
   212
 48
0.0008
100
AcDbVertex
100
AcDb2dVertex
 10
2.5
 20
1.211682
 30
0.0
 40
0.0
 41
0.0
  0
VERTEX
  5
B1
100
AcDbEntity
  8
1
  6
CONTINUOUS
 62
   212
 48
0.0008
100
AcDbVertex
100
AcDb2dVertex
 10
2.5
 20
1.123482
 30
0.0
 40
0.0
 41
0.0
  0
SEQEND
  5
B2
100
AcDbEntity
  8
0
  0
POLYLINE
  5
B3
100
AcDbEntity
  8
1
  6
CONTINUOUS
 62
   212
 48
0.0008
100
AcDb2dPolyline
 66
     1
 10
0.0
 20
0.0
 30
0.0
 70
   128
  0
VERTEX
  5
B4
100
AcDbEntity
  8
1
  6
CONTINUOUS
 62
   212
 48
0.0008
100
AcDbVertex
100
AcDb2dVertex
 10
2.4
 20
1.211682
 30
0.0
 40
0.0
 41
0.0
  0
VERTEX
  5
B5
100
AcDbEntity
  8
1
  6
CONTINUOUS
 62
   212
 48
0.0008
100
AcDbVertex
100
AcDb2dVertex
 10
2.4
 20
1.135582
 30
0.0
 40
0.0
 41
0.0
  0
SEQEND
  5
B6
100
AcDbEntity
  8
0
  0
POLYLINE
  5
B7
100
AcDbEntity
  8
1
  6
CONTINUOUS
 62
   212
 48
0.0008
100
AcDb2dPolyline
 66
     1
 10
0.0
 20
0.0
 30
0.0
 70
   128
  0
VERTEX
  5
B8
100
AcDbEntity
  8
1
  6
CONTINUOUS
 62
   212
 48
0.0008
100
AcDbVertex
100
AcDb2dVertex
 10
2.3
 20
1.211682
 30
0.0
 40
0.0
 41
0.0
  0
VERTEX
  5
B9
100
AcDbEntity
  8
1
  6
CONTINUOUS
 62
   212
 48
0.0008
100
AcDbVertex
100
AcDb2dVertex
 10
2.3
 20
1.150582
 30
0.0
 40
0.0
 41
0.0
  0
SEQEND
  5
BA
100
AcDbEntity
  8
0
  0
POLYLINE
  5
BB
100
AcDbEntity
  8
1
  6
CONTINUOUS
 62
   212
 48
0.0008
100
AcDb2dPolyline
 66
     1
 10
0.0
 20
0.0
 30
0.0
 70
   128
  0
VERTEX
  5
BC
100
AcDbEntity
  8
1
  6
CONTINUOUS
 62
   212
 48
0.0008
100
AcDbVertex
100
AcDb2dVertex
 10
2.2
 20
1.211682
 30
0.0
 40
0.0
 41
0.0
  0
VERTEX
  5
BD
100
AcDbEntity
  8
1
  6
CONTINUOUS
 62
   212
 48
0.0008
100
AcDbVertex
100
AcDb2dVertex
 10
2.2
 20
1.167982
 30
0.0
 40
0.0
 41
0.0
  0
SEQEND
  5
BE
100
AcDbEntity
  8
0
  0
POLYLINE
  5
BF
100
AcDbEntity
  8
1
  6
CONTINUOUS
 62
   212
 48
0.0008
100
AcDb2dPolyline
 66
     1
 10
0.0
 20
0.0
 30
0.0
 70
   128
  0
VERTEX
  5
C0
100
AcDbEntity
  8
1
  6
CONTINUOUS
 62
   212
 48
0.0008
100
AcDbVertex
100
AcDb2dVertex
 10
2.1
 20
1.211682
 30
0.0
 40
0.0
 41
0.0
  0
VERTEX
  5
C1
100
AcDbEntity
  8
1
  6
CONTINUOUS
 62
   212
 48
0.0008
100
AcDbVertex
100
AcDb2dVertex
 10
2.1
 20
1.187582
 30
0.0
 40
0.0
 41
0.0
  0
SEQEND
  5
C2
100
AcDbEntity
  8
0
  0
POLYLINE
  5
C3
100
AcDbEntity
  8
1
  6
CONTINUOUS
 62
   212
 48
0.0008
100
AcDb2dPolyline
 66
     1
 10
0.0
 20
0.0
 30
0.0
 70
   128
  0
VERTEX
  5
C4
100
AcDbEntity
  8
1
  6
CONTINUOUS
 62
   212
 48
0.0008
100
AcDbVertex
100
AcDb2dVertex
 10
2.0
 20
1.211682
 30
0.0
 40
0.0
 41
0.0
  0
VERTEX
  5
C5
100
AcDbEntity
  8
1
  6
CONTINUOUS
 62
   212
 48
0.0008
100
AcDbVertex
100
AcDb2dVertex
 10
2.0
 20
1.209582
 30
0.0
 40
0.0
 41
0.0
  0
SEQEND
  5
C6
100
AcDbEntity
  8
0
  0
SPLINE
  5
C7
100
AcDbEntity
  8
1
  6
CONTINUOUS
 62
   212
 48
0.0008
100
AcDbSpline
210
0.0
220
0.0
230
1.0
 70
     0
 71
     3
 72
     0
 73
     0
 74
    19
 44
0.0
 11
3.0
 21
1.2116818428039551
 31
0.0
 11
2.9973046779632568
 21
1.2022466659545898
 31
0.0
 11
2.9934535026550293
 21
1.1906933784484863
 31
0.0
 11
2.9874999523162842
 21
1.180081844329834
 31
0.0
 11
2.9749999046325684
 21
1.1680818796157837
 31
0.0
 11
2.9500000476837158
 21
1.1524817943572998
 31
0.0
 11
2.9000000953674316
 21
1.1336818933486938
 31
0.0
 11
2.8499999046325684
 21
1.1225818395614624
 31
0.0
 11
2.7999999523162842
 21
1.1160818338394165
 31
0.0
 11
2.75
 21
1.1126818656921387
 31
0.0
 11
2.7000000476837158
 21
1.1116818189620972
 31
0.0
 11
2.5999999046325684
 21
1.1149818897247314
 31
0.0
 11
2.5499999523162842
 21
1.118681788444519
 31
0.0
 11
2.5
 21
1.1234818696975708
 31
0.0
 11
2.4000000953674316
 21
1.1355818510055542
 31
0.0
 11
2.2999999523162842
 21
1.1505818367004395
 31
0.0
 11
2.2000000476837158
 21
1.1679818630218506
 31
0.0
 11
2.0999999046325684
 21
1.1875818967819214
 31
0.0
 11
2.0
 21
1.2095818519592285
 31
0.0
  0
POLYLINE
  5
C8
100
AcDbEntity
  8
1
  6
CONTINUOUS
 62
   212
 48
0.0008
100
AcDb2dPolyline
 66
     1
 10
0.0
 20
0.0
 30
0.0
 70
   128
  0
VERTEX
  5
C9
100
AcDbEntity
  8
1
  6
CONTINUOUS
 62
   212
 48
0.0008
100
AcDbVertex
100
AcDb2dVertex
 10
3.0
 20
1.211682
 30
0.0
 40
0.0
 41
0.0
  0
VERTEX
  5
CA
100
AcDbEntity
  8
1
  6
CONTINUOUS
 62
   212
 48
0.0008
100
AcDbVertex
100
AcDb2dVertex
 10
2.9875
 20
1.211682
 30
0.0
 40
0.0
 41
0.0
  0
VERTEX
  5
CB
100
AcDbEntity
  8
1
  6
CONTINUOUS
 62
   212
 48
0.0008
100
AcDbVertex
100
AcDb2dVertex
 10
2.975
 20
1.211682
 30
0.0
 40
0.0
 41
0.0
  0
VERTEX
  5
CC
100
AcDbEntity
  8
1
  6
CONTINUOUS
 62
   212
 48
0.0008
100
AcDbVertex
100
AcDb2dVertex
 10
2.95
 20
1.211682
 30
0.0
 40
0.0
 41
0.0
  0
VERTEX
  5
CD
100
AcDbEntity
  8
1
  6
CONTINUOUS
 62
   212
 48
0.0008
100
AcDbVertex
100
AcDb2dVertex
 10
2.9
 20
1.211682
 30
0.0
 40
0.0
 41
0.0
  0
VERTEX
  5
CE
100
AcDbEntity
  8
1
  6
CONTINUOUS
 62
   212
 48
0.0008
100
AcDbVertex
100
AcDb2dVertex
 10
2.85
 20
1.211682
 30
0.0
 40
0.0
 41
0.0
  0
VERTEX
  5
CF
100
AcDbEntity
  8
1
  6
CONTINUOUS
 62
   212
 48
0.0008
100
AcDbVertex
100
AcDb2dVertex
 10
2.8
 20
1.211682
 30
0.0
 40
0.0
 41
0.0
  0
VERTEX
  5
D0
100
AcDbEntity
  8
1
  6
CONTINUOUS
 62
   212
 48
0.0008
100
AcDbVertex
100
AcDb2dVertex
 10
2.75
 20
1.211682
 30
0.0
 40
0.0
 41
0.0
  0
VERTEX
  5
D1
100
AcDbEntity
  8
1
  6
CONTINUOUS
 62
   212
 48
0.0008
100
AcDbVertex
100
AcDb2dVertex
 10
2.7
 20
1.211682
 30
0.0
 40
0.0
 41
0.0
  0
VERTEX
  5
D2
100
AcDbEntity
  8
1
  6
CONTINUOUS
 62
   212
 48
0.0008
100
AcDbVertex
100
AcDb2dVertex
 10
2.6
 20
1.211682
 30
0.0
 40
0.0
 41
0.0
  0
VERTEX
  5
D3
100
AcDbEntity
  8
1
  6
CONTINUOUS
 62
   212
 48
0.0008
100
AcDbVertex
100
AcDb2dVertex
 10
2.55
 20
1.211682
 30
0.0
 40
0.0
 41
0.0
  0
VERTEX
  5
D4
100
AcDbEntity
  8
1
  6
CONTINUOUS
 62
   212
 48
0.0008
100
AcDbVertex
100
AcDb2dVertex
 10
2.5
 20
1.211682
 30
0.0
 40
0.0
 41
0.0
  0
VERTEX
  5
D5
100
AcDbEntity
  8
1
  6
CONTINUOUS
 62
   212
 48
0.0008
100
AcDbVertex
100
AcDb2dVertex
 10
2.4
 20
1.211682
 30
0.0
 40
0.0
 41
0.0
  0
VERTEX
  5
D6
100
AcDbEntity
  8
1
  6
CONTINUOUS
 62
   212
 48
0.0008
100
AcDbVertex
100
AcDb2dVertex
 10
2.3
 20
1.211682
 30
0.0
 40
0.0
 41
0.0
  0
VERTEX
  5
D7
100
AcDbEntity
  8
1
  6
CONTINUOUS
 62
   212
 48
0.0008
100
AcDbVertex
100
AcDb2dVertex
 10
2.2
 20
1.211682
 30
0.0
 40
0.0
 41
0.0
  0
VERTEX
  5
D8
100
AcDbEntity
  8
1
  6
CONTINUOUS
 62
   212
 48
0.0008
100
AcDbVertex
100
AcDb2dVertex
 10
2.1
 20
1.211682
 30
0.0
 40
0.0
 41
0.0
  0
VERTEX
  5
D9
100
AcDbEntity
  8
1
  6
CONTINUOUS
 62
   212
 48
0.0008
100
AcDbVertex
100
AcDb2dVertex
 10
2.0
 20
1.211682
 30
0.0
 40
0.0
 41
0.0
  0
SEQEND
  5
DA
100
AcDbEntity
  8
0
  0
POLYLINE
  5
DB
100
AcDbEntity
  8
1
  6
CONTINUOUS
 62
   212
 48
0.0008
100
AcDb2dPolyline
 66
     1
 10
0.0
 20
0.0
 30
0.0
 70
   128
  0
VERTEX
  5
DC
100
AcDbEntity
  8
1
  6
CONTINUOUS
 62
   212
 48
0.0008
100
AcDbVertex
100
AcDb2dVertex
 10
3.0
 20
1.211682
 30
0.0
 40
0.0
 41
0.0
  0
VERTEX
  5
DD
100
AcDbEntity
  8
1
  6
CONTINUOUS
 62
   212
 48
0.0008
100
AcDbVertex
100
AcDb2dVertex
 10
2.0
 20
1.211682
 30
0.0
 40
0.0
 41
0.0
  0
SEQEND
  5
DE
100
AcDbEntity
  8
0
  0
POLYLINE
  5
DF
100
AcDbEntity
  8
1
  6
CONTINUOUS
 62
   212
 48
0.0008
100
AcDb2dPolyline
 66
     1
 10
0.0
 20
0.0
 30
0.0
 70
   128
  0
VERTEX
  5
E0
100
AcDbEntity
  8
1
  6
CONTINUOUS
 62
   212
 48
0.0008
100
AcDbVertex
100
AcDb2dVertex
 10
3.0
 20
1.211682
 30
0.0
 40
0.0
 41
0.0
  0
VERTEX
  5
E1
100
AcDbEntity
  8
1
  6
CONTINUOUS
 62
   212
 48
0.0008
100
AcDbVertex
100
AcDb2dVertex
 10
3.0
 20
1.211682
 30
0.0
 40
0.0
 41
0.0
  0
SEQEND
  5
E2
100
AcDbEntity
  8
0
  0
TEXT
  5
E3
100
AcDbEntity
  8
1
 62
   212
 48
0.0
100
AcDbText
 10
2.408849
 20
1.222593
 30
0.0
 40
0.03
  1
NACA -  PROFIL  20
 72
     5
 11
2.795249
 21
1.222593
 31
0.0
210
0.0
220
0.0
230
1.0
100
AcDbText
  0
TEXT
  5
E4
100
AcDbEntity
  8
1
 62
   212
 48
0.0
100
AcDbText
 10
2.474998
 20
1.181515
 30
0.0
 40
0.02
  1
Çemberci  Denizcilik
 72
     5
 11
2.721398
 21
1.181515
 31
0.0
210
0.0
220
0.0
230
1.0
100
AcDbText
  0
SPLINE
  5
E5
100
AcDbEntity
  8
1
  6
CONTINUOUS
 62
   212
 48
0.0008
100
AcDbSpline
210
0.0
220
0.0
230
1.0
 70
     0
 71
     3
 72
     0
 73
     0
 74
    19
 44
0.0
 11
2.9999873638153076
 21
1.2116818428039551
 31
0.0
 11
2.9972920417785645
 21
1.2211170196533203
 31
0.0
 11
2.9934408664703369
 21
1.2326703071594238
 31
0.0
 11
2.9874873161315918
 21
1.2432818412780762
 31
0.0
 11
2.974987268447876
 21
1.2552818059921265
 31
0.0
 11
2.9499874114990234
 21
1.2708818912506104
 31
0.0
 11
2.8999874591827393
 21
1.2896817922592163
 31
0.0
 11
2.849987268447876
 21
1.3007818460464478
 31
0.0
 11
2.7999873161315918
 21
1.3072818517684937
 31
0.0
 11
2.7499873638153076
 21
1.3106818199157715
 31
0.0
 11
2.6999874114990234
 21
1.311681866645813
 31
0.0
 11
2.599987268447876
 21
1.3083817958831787
 31
0.0
 11
2.5499873161315918
 21
1.3046818971633911
 31
0.0
 11
2.4999873638153076
 21
1.2998818159103394
 31
0.0
 11
2.3999874591827393
 21
1.287781834602356
 31
0.0
 11
2.2999873161315918
 21
1.2727818489074707
 31
0.0
 11
2.1999874114990234
 21
1.2553818225860596
 31
0.0
 11
2.099987268447876
 21
1.2357817888259888
 31
0.0
 11
1.9999873638153076
 21
1.2137818336486816
 31
0.0
  0
TEXT
  5
E6
100
AcDbEntity
  8
1
 62
   212
 48
0.0
100
AcDbText
 10
2.316993
 20
1.248605
 30
0.0
 40
0.01
  1
Boy = 1
 72
     5
 11
2.356155
 21
1.248605
 31
0.0
210
0.0
220
0.0
230
1.0
100
AcDbText
  0
TEXT
  5
E7
100
AcDbEntity
  8
1
 62
   212
 48
0.0
100
AcDbText
 10
2.316993
 20
1.228605
 30
0.0
 40
0.01
  1
Kalinlik = 0.2
 72
     5
 11
2.382244
 21
1.228605
 31
0.0
210
0.0
220
0.0
230
1.0
100
AcDbText
  0
ENDSEC
  0
SECTION
  2
OBJECTS
  0
DICTIONARY
  5
19
100
AcDbDictionary
  3
ACAD_GROUP
350
1A
  3
ACAD_MLINESTYLE
350
1B
  0
DICTIONARY
  5
1A
102
{ACAD_REACTORS
330
19
102
}
100
AcDbDictionary
  0
DICTIONARY
  5
1B
102
{ACAD_REACTORS
330
19
102
}
100
AcDbDictionary
  3
STANDARD
350
1C
  0
MLINESTYLE
  5
1C
102
{ACAD_REACTORS
330
1B
102
}
100
AcDbMlineStyle
  2
STANDARD
 70
     0
  3

 62
     0
 51
90.0
 52
90.0
 71
     2
 49
0.5
 62
   256
  6
BYLAYER
 49
-0.5
 62
   256
  6
BYLAYER
  0
ENDSEC
  0
EOF
