  0
SECTION
  2
HEADER
  9
$ACADVER
  1
AC1014
  9
$ACADMAINTVER
 70
     0
  9
$DWGCODEPAGE
  3
ANSI_1252
  9
$INSBASE
 10
0.0
 20
0.0
 30
0.0
  9
$EXTMIN
 10
4.0
 20
-1.0649
 30
0.0
  9
$EXTMAX
 10
14.0
 20
0.9351
 30
0.0
  9
$LIMMIN
 10
0.0
 20
0.0
  9
$LIMMAX
 10
0.0
 20
0.0
  9
$ORTHOMODE
 70
     0
  9
$REGENMODE
 70
     1
  9
$FILLMODE
 70
     1
  9
$QTEXTMODE
 70
     0
  9
$MIRRTEXT
 70
     1
  9
$DRAGMODE
 70
     2
  9
$LTSCALE
 40
1.0
  9
$OSMODE
 70
     0
  9
$ATTMODE
 70
     1
  9
$TEXTSIZE
 40
0.2
  9
$TRACEWID
 40
0.05
  9
$TEXTSTYLE
  7
STANDARD
  9
$CLAYER
  8
0
  9
$CELTYPE
  6
CONTINUOUS
  9
$CECOLOR
 62
   256
  9
$CELTSCALE
 40
1.0
  9
$DELOBJ
 70
     1
  9
$DISPSILH
 70
     0
  9
$DIMSCALE
 40
1.0
  9
$DIMASZ
 40
0.18
  9
$DIMEXO
 40
0.0625
  9
$DIMDLI
 40
0.38
  9
$DIMRND
 40
0.0
  9
$DIMDLE
 40
0.0
  9
$DIMEXE
 40
0.18
  9
$DIMTP
 40
0.0
  9
$DIMTM
 40
0.0
  9
$DIMTXT
 40
0.18
  9
$DIMCEN
 40
0.09
  9
$DIMTSZ
 40
0.0
  9
$DIMTOL
 70
     0
  9
$DIMLIM
 70
     0
  9
$DIMTIH
 70
     1
  9
$DIMTOH
 70
     1
  9
$DIMSE1
 70
     0
  9
$DIMSE2
 70
     0
  9
$DIMTAD
 70
     0
  9
$DIMZIN
 70
     0
  9
$DIMBLK
  1

  9
$DIMASO
 70
     1
  9
$DIMSHO
 70
     1
  9
$DIMPOST
  1

  9
$DIMAPOST
  1

  9
$DIMALT
 70
     0
  9
$DIMALTD
 70
     2
  9
$DIMALTF
 40
25.4
  9
$DIMLFAC
 40
1.0
  9
$DIMTOFL
 70
     0
  9
$DIMTVP
 40
0.0
  9
$DIMTIX
 70
     0
  9
$DIMSOXD
 70
     0
  9
$DIMSAH
 70
     0
  9
$DIMBLK1
  1

  9
$DIMBLK2
  1

  9
$DIMSTYLE
  2
STANDARD
  9
$DIMCLRD
 70
     0
  9
$DIMCLRE
 70
     0
  9
$DIMCLRT
 70
     0
  9
$DIMTFAC
 40
1.0
  9
$DIMGAP
 40
0.09
  9
$DIMJUST
 70
     0
  9
$DIMSD1
 70
     0
  9
$DIMSD2
 70
     0
  9
$DIMTOLJ
 70
     1
  9
$DIMTZIN
 70
     0
  9
$DIMALTZ
 70
     0
  9
$DIMALTTZ
 70
     0
  9
$DIMFIT
 70
     3
  9
$DIMUPT
 70
     0
  9
$DIMUNIT
 70
     2
  9
$DIMDEC
 70
     4
  9
$DIMTDEC
 70
     4
  9
$DIMALTU
 70
     2
  9
$DIMALTTD
 70
     2
  9
$DIMTXSTY
  7
STANDARD
  9
$DIMAUNIT
 70
     0
  9
$LUNITS
 70
     2
  9
$LUPREC
 70
     4
  9
$SKETCHINC
 40
0.1
  9
$FILLETRAD
 40
0.0
  9
$AUNITS
 70
     0
  9
$AUPREC
 70
     0
  9
$MENU
  1
acad
  9
$ELEVATION
 40
0.0
  9
$PELEVATION
 40
0.0
  9
$THICKNESS
 40
0.0
  9
$LIMCHECK
 70
     0
  9
$BLIPMODE
 70
     1
  9
$CHAMFERA
 40
0.0
  9
$CHAMFERB
 40
0.0
  9
$CHAMFERC
 40
0.0
  9
$CHAMFERD
 40
0.0
  9
$SKPOLY
 70
     0
  9
$TDCREATE
 40
0.000000000
  9
$TDUPDATE
 40
0.000000000
  9
$TDINDWG
 40
0.0000000000
  9
$TDUSRTIMER
 40
0.0000000000
  9
$USRTIMER
 70
     1
  9
$ANGBASE
 50
0.0
  9
$ANGDIR
 70
     0
  9
$PDMODE
 70
     0
  9
$PDSIZE
 40
0.0
  9
$PLINEWID
 40
0.0
  9
$COORDS
 70
     0
  9
$SPLFRAME
 70
     0
  9
$SPLINETYPE
 70
     6
  9
$SPLINESEGS
 70
     8
  9
$ATTDIA
 70
     0
  9
$ATTREQ
 70
     1
  9
$HANDLING
 70
     1
  9
$HANDSEED
  5
2B5
  9
$SURFTAB1
 70
     6
  9
$SURFTAB2
 70
     6
  9
$SURFTYPE
 70
     6
  9
$SURFU
 70
     6
  9
$SURFV
 70
     6
  9
$UCSNAME
  2

  9
$UCSORG
 10
0.0
 20
0.0
 30
0.0
  9
$UCSXDIR
 10
1.0
 20
0.0
 30
0.0
  9
$UCSYDIR
 10
0.0
 20
1.0
 30
0.0
  9
$PUCSNAME
  2

  9
$PUCSORG
 10
0.0
 20
0.0
 30
0.0
  9
$PUCSXDIR
 10
1.0
 20
0.0
 30
0.0
  9
$PUCSYDIR
 10
0.0
 20
1.0
 30
0.0
  9
$USERI1
 70
     0
  9
$USERI2
 70
     0
  9
$USERI3
 70
     0
  9
$USERI4
 70
     0
  9
$USERI5
 70
     0
  9
$USERR1
 40
0.0
  9
$USERR2
 40
0.0
  9
$USERR3
 40
0.0
  9
$USERR4
 40
0.0
  9
$USERR5
 40
0.0
  9
$WORLDVIEW
 70
     1
  9
$SHADEDGE
 70
     3
  9
$SHADEDIF
 70
    70
  9
$TILEMODE
 70
     1
  9
$MAXACTVP
 70
    16
  9
$PINSBASE
 10
0.0
 20
0.0
 30
0.0
  9
$PLIMCHECK
 70
     0
  9
$PEXTMIN
 10
1.000000E+20
 20
1.000000E+20
 30
1.000000E+20
  9
$PEXTMAX
 10
-1.000000E+20
 20
-1.000000E+20
 30
-1.000000E+20
  9
$PLIMMIN
 10
0.0
 20
0.0
  9
$PLIMMAX
 10
12.0
 20
9.0
  9
$UNITMODE
 70
     0
  9
$VISRETAIN
 70
     0
  9
$PLINEGEN
 70
     0
  9
$PSLTSCALE
 70
     0
  9
$TREEDEPTH
 70
  3020
  9
$PICKSTYLE
 70
     1
  9
$CMLSTYLE
  2
STANDARD
  9
$CMLJUST
 70
     0
  9
$CMLSCALE
 40
1.0
  9
$PROXYGRAPHICS
 70
     0
  9
$MEASUREMENT
 70
     0
  0
ENDSEC
  0
SECTION
  2
CLASSES
  0
CLASS
  1
LWPOLYLINE
  2
AcDbPolyline
  3
"AutoCAD"
 90
        0
280
     0
281
     1
  0
CLASS
  1
IMAGE
  2
AcDbRasterImage
  3
ISM
 90
      127
280
     0
281
     1
  0
CLASS
  1
OLE2FRAME
  2
AcDbOle2Frame
  3
""
 90
        0
280
     0
281
     1
  0
CLASS
  1
HATCH
  2
AcDbHatch
  3
"ACAD_SEDONA"
 90
        0
280
     0
281
     1
  0
CLASS
  1
DICTIONARYVAR
  2
AcDbDictionaryVar
  3
"AutoCAD"
 90
        0
280
     0
281
     0
  0
CLASS
  1
RASTERVARIABLES
  2
AcDbRasterVariables
  3
ISM
 90
        0
280
     0
281
     0
  0
CLASS
  1
IMAGEDEF
  2
AcDbRasterImageDef
  3
ISM
 90
        0
280
     0
281
     0
  0
CLASS
  1
IMAGEDEF_REACTOR
  2
AcDbRasterImageDefReactor
  3
ISM
 90
        1
280
     0
281
     0
  0
CLASS
  1
IDBUFFER
  2
AcDbIdBuffer
  3
"Acad"
 90
        0
280
     0
281
     0
  0
CLASS
  1
SPATIAL_FILTER
  2
AcDbSpatialFilter
  3
"Acad"
 90
        0
280
     0
281
     0
  0
CLASS
  1
XRECORD
  2
AcDbXrecord
  3
"<Built In>"
 90
        0
280
     0
281
     0
  0
CLASS
  1
SORTENTSTABLE
  2
AcDbSortentsTable
  3
"AutoCAD"
 90
        0
280
     0
281
     0
  0
CLASS
  1
LAYER_INDEX
  2
AcDbLayerIndex
  3
"Acad"
 90
        0
280
     0
281
     0
  0
CLASS
  1
SPATIAL_INDEX
  2
AcDbSpatialIndex
  3
"Acad"
 90
        0
280
     0
281
     0
  0
CLASS
  1
OBJECT_PTR
  2
CAseDLPNTableRecord
  3
"ASE-LPNTableRecord"
 90
        1
280
     0
281
     0
  0
CLASS
  1
LAYOUT
  2
AcDbLayout
  3
"AutoCAD 2000"
 90
        1
280
     0
281
     0
  0
CLASS
  1
PLOTSETTINGS
  2
AcDbPlotSettings
  3
"AutoCAD 2000"
 90
        1
280
     0
281
     0
  0
CLASS
  1
ACDBDICTIONARYWDFLT
  2
AcDbDictionaryWithDefault
  3
"AutoCAD 2000"
 90
        1
280
     0
281
     0
  0
CLASS
  1
ACDBPLACEHOLDER
  2
AcDbPlaceHolder
  3
"AutoCAD 2000"
 90
        1
280
     0
281
     0
  0
CLASS
  1
VBA_PROJECT
  2
AcDbVbaProject
  3
"acadvba"
 90
        1
280
     0
281
     0
  0
CLASS
  1
WIPEOUT
  2
AcDbWipeout
  3
WipeOut|AutoCAD Express Tool|expresstools@autodesk.com
 90
      127
280
     0
281
     1
  0
CLASS
  1
WIPEOUTVARIABLES
  2
AcDbWipeoutVariables
  3
WipeOut|AutoCAD Express Tool|expresstools@autodesk.com
 90
        0
280
     0
281
     0
  0
CLASS
  1
RTEXT
  2
RText
  3
RText|AutoCAD Express Tool|expresstools@autodesk.com
 90
        0
280
     0
281
     1
  0
CLASS
  1
ARCALIGNEDTEXT
  2
AcDbArcAlignedText
  3
ATEXT|AutoCAD Express Tool|expresstools@autodesk.com
 90
        0
280
     0
281
     1
  0
ENDSEC
  0
SECTION
  2
TABLES
  0
TABLE
  2
VPORT
  5
7
100
AcDbSymbolTable
 70
     2
  0
VPORT
  5
15
100
AcDbSymbolTableRecord
100
AcDbViewportTableRecord
  2
*ACTIVE
 70
     0
 10
0.0
 20
0.0
 11
1.0
 21
1.0
 12
6.591288
 22
4.579184
 13
0.0
 23
0.0
 14
1.0
 24
1.0
 15
0.0
 25
0.0
 16
0.0
 26
0.0
 36
1.0
 17
0.0
 27
0.0
 37
0.0
 40
9.158369
 41
0.688564
 42
50.0
 43
0.0
 44
0.0
 50
0.0
 51
0.0
 71
     0
 72
   100
 73
     1
 74
     1
 75
     0
 76
     0
 77
     0
 78
     0
  0
VPORT
  5
2B
100
AcDbSymbolTableRecord
100
AcDbViewportTableRecord
  2
DCADVPORT
 70
     0
 10
4.0
 20
-1.0649
 11
14.0
 21
0.9351
 12
6.21
 22
9.02
 13
0.0
 23
0.0
 14
1.0
 24
1.0
 15
0.0
 25
0.0
 16
0.0
 26
0.0
 36
1.0
 17
0.0
 27
0.0
 37
0.0
 40
18.04
 41
0.688564
 42
50.0
 43
1.0
 44
1.0
 50
0.0
 51
0.0
 71
     0
 72
   100
 73
     1
 74
     1
 75
     0
 76
     0
 77
     0
 78
     0
  0
ENDTAB
  0
TABLE
  2
LTYPE
  5
4
100
AcDbSymbolTable
 70
    15
  0
LTYPE
  5
11
100
AcDbSymbolTableRecord
100
AcDbLinetypeTableRecord
  2
BYBLOCK
 70
    64
  3

 72
    65
 73
     0
 40
0.0
  0
LTYPE
  5
12
100
AcDbSymbolTableRecord
100
AcDbLinetypeTableRecord
  2
BYLAYER
 70
    64
  3

 72
    65
 73
     0
 40
0.0
  0
LTYPE
  5
13
100
AcDbSymbolTableRecord
100
AcDbLinetypeTableRecord
  2
CONTINUOUS
 70
    64
  3
Solid line
 72
    65
 73
     0
 40
0.0
  0
LTYPE
  5
1E
100
AcDbSymbolTableRecord
100
AcDbLinetypeTableRecord
  2
CONTINUOUS
 70
     0
  3
Solid line
 72
    65
 73
     0
 40
0.0
  0
LTYPE
  5
1F
100
AcDbSymbolTableRecord
100
AcDbLinetypeTableRecord
  2
BORDER
 70
    64
  3
__ __ . __ __ . __ __ . __ __ . __ __ . __ __ .
 72
    65
 73
     6
 40
1.75
 49
0.5
 74
     0
 49
-0.25
 74
     0
 49
0.5
 74
     0
 49
-0.25
 74
     0
 49
0.0
 74
     0
 49
-0.25
 74
     0
  0
LTYPE
  5
20
100
AcDbSymbolTableRecord
100
AcDbLinetypeTableRecord
  2
BORDER2
 70
    64
  3
__.__.__.__.__.__.__.__.__.__.__.__.__.__.__.__
 72
    65
 73
     6
 40
0.875
 49
0.25
 74
     0
 49
-0.125
 74
     0
 49
0.25
 74
     0
 49
-0.125
 74
     0
 49
0.0
 74
     0
 49
-0.125
 74
     0
  0
LTYPE
  5
21
100
AcDbSymbolTableRecord
100
AcDbLinetypeTableRecord
  2
CENTER
 70
    64
  3
____ _ ____ _ ____ _ ____ _ ____ _ ____ _ ____ 
 72
    65
 73
     4
 40
2.0
 49
1.25
 74
     0
 49
-0.25
 74
     0
 49
0.25
 74
     0
 49
-0.25
 74
     0
  0
LTYPE
  5
22
100
AcDbSymbolTableRecord
100
AcDbLinetypeTableRecord
  2
DASHDOT
 70
    64
  3
__ . __ . __ . __ . __ . __ . __ . __ . __ . __
 72
    65
 73
     4
 40
1.0
 49
0.5
 74
     0
 49
-0.25
 74
     0
 49
0.0
 74
     0
 49
-0.25
 74
     0
  0
LTYPE
  5
23
100
AcDbSymbolTableRecord
100
AcDbLinetypeTableRecord
  2
DASHDOT2
 70
    64
  3
_._._._._._._._._._._._._._._._._._._._._._._._
 72
    65
 73
     4
 40
0.5
 49
0.25
 74
     0
 49
-0.125
 74
     0
 49
0.0
 74
     0
 49
-0.125
 74
     0
  0
LTYPE
  5
24
100
AcDbSymbolTableRecord
100
AcDbLinetypeTableRecord
  2
DASHED
 70
    64
  3
__ __ __ __ __ __ __ __ __ __ __ __ __ __ __ __
 72
    65
 73
     2
 40
0.75
 49
0.5
 74
     0
 49
-0.25
 74
     0
  0
LTYPE
  5
25
100
AcDbSymbolTableRecord
100
AcDbLinetypeTableRecord
  2
DIVIDE
 70
    64
  3
____ . . ____ . . ____ . . ____ . . ____ . . __
 72
    65
 73
     6
 40
1.25
 49
0.5
 74
     0
 49
-0.25
 74
     0
 49
0.0
 74
     0
 49
-0.25
 74
     0
 49
0.0
 74
     0
 49
-0.25
 74
     0
  0
LTYPE
  5
26
100
AcDbSymbolTableRecord
100
AcDbLinetypeTableRecord
  2
DIVIDE2
 70
    64
  3
__..__..__..__..__..__..__..__..__..__..__..__.
 72
    65
 73
     6
 40
0.625
 49
0.25
 74
     0
 49
-0.125
 74
     0
 49
0.0
 74
     0
 49
-0.125
 74
     0
 49
0.0
 74
     0
 49
-0.125
 74
     0
  0
LTYPE
  5
27
100
AcDbSymbolTableRecord
100
AcDbLinetypeTableRecord
  2
DOT
 70
    64
  3
. . . . . . . . . . . . . . . . . . . . . . . .
 72
    65
 73
     2
 40
0.25
 49
0.0
 74
     0
 49
-0.25
 74
     0
  0
LTYPE
  5
28
100
AcDbSymbolTableRecord
100
AcDbLinetypeTableRecord
  2
HIDDEN
 70
    64
  3
__ __ __ __ __ __ __ __ __ __ __ __ __ __ __ __
 72
    65
 73
     2
 40
0.375
 49
0.25
 74
     0
 49
-0.125
 74
     0
  0
LTYPE
  5
29
100
AcDbSymbolTableRecord
100
AcDbLinetypeTableRecord
  2
PHANTOM
 70
    64
  3
______  __  __  ______  __  __  ______  __  __ 
 72
    65
 73
     6
 40
2.5
 49
1.25
 74
     0
 49
-0.25
 74
     0
 49
0.25
 74
     0
 49
-0.25
 74
     0
 49
0.25
 74
     0
 49
-0.25
 74
     0
  0
ENDTAB
  0
TABLE
  2
LAYER
  5
2
100
AcDbSymbolTable
 70
     2
  0
LAYER
  5
14
100
AcDbSymbolTableRecord
100
AcDbLayerTableRecord
  2
0
 70
     0
 62
     7
  6
CONTINUOUS
  0
LAYER
  5
2A
100
AcDbSymbolTableRecord
100
AcDbLayerTableRecord
  2
0
 70
     0
 62
     7
  6
CONTINUOUS
  0
ENDTAB
  0
TABLE
  2
STYLE
  5
3
100
AcDbSymbolTable
 70
     2
  0
STYLE
  5
17
100
AcDbSymbolTableRecord
100
AcDbTextStyleTableRecord
  2
STANDARD
 70
     0
 40
0.0
 41
1.0
 50
0.0
 71
     0
 42
0.0
  3
txt
  4

  0
STYLE
  5
1D
100
AcDbSymbolTableRecord
100
AcDbTextStyleTableRecord
  2
BIGFONT
 70
    64
 40
3.0
 41
1.0
 50
0.0
 71
     0
 42
0.2
  3

  4
BIGFONT
  0
ENDTAB
  0
TABLE
  2
VIEW
  5
5
100
AcDbSymbolTable
 70
     0
  0
ENDTAB
  0
TABLE
  2
UCS
  5
6
100
AcDbSymbolTable
 70
     0
  0
ENDTAB
  0
TABLE
  2
APPID
  5
8
100
AcDbSymbolTable
 70
     1
  0
APPID
  5
16
100
AcDbSymbolTableRecord
100
AcDbRegAppTableRecord
  2
ACAD
 70
     0
  0
ENDTAB
  0
TABLE
  2
DIMSTYLE
  5
9
100
AcDbSymbolTable
 70
     1
  0
DIMSTYLE
105
18
100
AcDbSymbolTableRecord
100
AcDbDimStyleTableRecord
  2
STANDARD
 70
     0
  3

  4

  5

  6

  7

 40
1.0
 41
0.18
 42
0.0625
 43
0.38
 44
0.18
 45
0.0
 46
0.0
 47
0.0
 48
0.0
 71
     0
 72
     0
 73
     1
 74
     1
 75
     0
 76
     0
 77
     0
 78
     0
140
0.18
141
0.09
142
0.0
143
25.4
144
1.0
145
0.0
146
1.0
147
0.09
170
     0
171
     2
172
     0
173
     0
174
     0
175
     0
176
     0
177
     0
178
     0
270
     2
271
     4
272
     4
273
     2
274
     2
275
     0
280
     0
281
     0
282
     0
283
     1
284
     0
285
     0
286
     0
287
     0
288
     0
340
17
  0
ENDTAB
  0
TABLE
  2
BLOCK_RECORD
  5
1
100
AcDbSymbolTable
 70
     0
  0
BLOCK_RECORD
  5
A
100
AcDbSymbolTableRecord
100
AcDbBlockTableRecord
  2
*MODEL_SPACE
  0
BLOCK_RECORD
  5
B
100
AcDbSymbolTableRecord
100
AcDbBlockTableRecord
  2
*PAPER_SPACE
  0
ENDTAB
  0
ENDSEC
  0
SECTION
  2
BLOCKS
  0
BLOCK
  5
D
100
AcDbEntity
  8
0
100
AcDbBlockBegin
  2
*MODEL_SPACE
 70
     0
 10
0.0
 20
0.0
 30
0.0
  3
*MODEL_SPACE
  1

  0
ENDBLK
  5
E
100
AcDbEntity
  8
0
100
AcDbBlockEnd
  0
BLOCK
  5
F
100
AcDbEntity
 67
     1
  8
0
100
AcDbBlockBegin
  2
*PAPER_SPACE
 70
     0
 10
0.0
 20
0.0
 30
0.0
  3
*PAPER_SPACE
  1

  0
ENDBLK
  5
10
100
AcDbEntity
 67
     1
  8
0
100
AcDbBlockEnd
  0
ENDSEC
  0
SECTION
  2
ENTITIES
  0
POLYLINE
  5
2C
100
AcDbEntity
  8
0
  6
CONTINUOUS
 62
   212
100
AcDb2dPolyline
 66
     1
 10
0.0
 20
0.0
 30
0.0
 70
   128
  0
VERTEX
  5
2D
100
AcDbEntity
  8
0
  6
CONTINUOUS
 62
   212
100
AcDbVertex
100
AcDb2dVertex
 10
13.95
 20
-0.0649
 30
0.0
 40
0.0
 41
0.0
  0
VERTEX
  5
2E
100
AcDbEntity
  8
0
  6
CONTINUOUS
 62
   212
100
AcDbVertex
100
AcDb2dVertex
 10
13.95
 20
0.0681
 30
0.0
 40
0.0
 41
0.0
  0
SEQEND
  5
2F
100
AcDbEntity
  8
0
  0
POLYLINE
  5
30
100
AcDbEntity
  8
0
  6
CONTINUOUS
 62
   212
100
AcDb2dPolyline
 66
     1
 10
0.0
 20
0.0
 30
0.0
 70
   128
  0
VERTEX
  5
31
100
AcDbEntity
  8
0
  6
CONTINUOUS
 62
   212
100
AcDbVertex
100
AcDb2dVertex
 10
13.925
 20
-0.0649
 30
0.0
 40
0.0
 41
0.0
  0
VERTEX
  5
32
100
AcDbEntity
  8
0
  6
CONTINUOUS
 62
   212
100
AcDbVertex
100
AcDb2dVertex
 10
13.925
 20
0.0975
 30
0.0
 40
0.0
 41
0.0
  0
SEQEND
  5
33
100
AcDbEntity
  8
0
  0
POLYLINE
  5
34
100
AcDbEntity
  8
0
  6
CONTINUOUS
 62
   212
100
AcDb2dPolyline
 66
     1
 10
0.0
 20
0.0
 30
0.0
 70
   128
  0
VERTEX
  5
35
100
AcDbEntity
  8
0
  6
CONTINUOUS
 62
   212
100
AcDbVertex
100
AcDb2dVertex
 10
13.875
 20
-0.0649
 30
0.0
 40
0.0
 41
0.0
  0
VERTEX
  5
36
100
AcDbEntity
  8
0
  6
CONTINUOUS
 62
   212
100
AcDbVertex
100
AcDb2dVertex
 10
13.875
 20
0.1439
 30
0.0
 40
0.0
 41
0.0
  0
SEQEND
  5
37
100
AcDbEntity
  8
0
  0
POLYLINE
  5
38
100
AcDbEntity
  8
0
  6
CONTINUOUS
 62
   212
100
AcDb2dPolyline
 66
     1
 10
0.0
 20
0.0
 30
0.0
 70
   128
  0
VERTEX
  5
39
100
AcDbEntity
  8
0
  6
CONTINUOUS
 62
   212
100
AcDbVertex
100
AcDb2dVertex
 10
13.75
 20
-0.0649
 30
0.0
 40
0.0
 41
0.0
  0
VERTEX
  5
3A
100
AcDbEntity
  8
0
  6
CONTINUOUS
 62
   212
100
AcDbVertex
100
AcDb2dVertex
 10
13.75
 20
0.2283
 30
0.0
 40
0.0
 41
0.0
  0
SEQEND
  5
3B
100
AcDbEntity
  8
0
  0
POLYLINE
  5
3C
100
AcDbEntity
  8
0
  6
CONTINUOUS
 62
   212
100
AcDb2dPolyline
 66
     1
 10
0.0
 20
0.0
 30
0.0
 70
   128
  0
VERTEX
  5
3D
100
AcDbEntity
  8
0
  6
CONTINUOUS
 62
   212
100
AcDbVertex
100
AcDb2dVertex
 10
13.5
 20
-0.0649
 30
0.0
 40
0.0
 41
0.0
  0
VERTEX
  5
3E
100
AcDbEntity
  8
0
  6
CONTINUOUS
 62
   212
100
AcDbVertex
100
AcDb2dVertex
 10
13.5
 20
0.3483
 30
0.0
 40
0.0
 41
0.0
  0
SEQEND
  5
3F
100
AcDbEntity
  8
0
  0
POLYLINE
  5
40
100
AcDbEntity
  8
0
  6
CONTINUOUS
 62
   212
100
AcDb2dPolyline
 66
     1
 10
0.0
 20
0.0
 30
0.0
 70
   128
  0
VERTEX
  5
41
100
AcDbEntity
  8
0
  6
CONTINUOUS
 62
   212
100
AcDbVertex
100
AcDb2dVertex
 10
13.25
 20
-0.0649
 30
0.0
 40
0.0
 41
0.0
  0
VERTEX
  5
42
100
AcDbEntity
  8
0
  6
CONTINUOUS
 62
   212
100
AcDbVertex
100
AcDb2dVertex
 10
13.25
 20
0.4401
 30
0.0
 40
0.0
 41
0.0
  0
SEQEND
  5
43
100
AcDbEntity
  8
0
  0
POLYLINE
  5
44
100
AcDbEntity
  8
0
  6
CONTINUOUS
 62
   212
100
AcDb2dPolyline
 66
     1
 10
0.0
 20
0.0
 30
0.0
 70
   128
  0
VERTEX
  5
45
100
AcDbEntity
  8
0
  6
CONTINUOUS
 62
   212
100
AcDbVertex
100
AcDb2dVertex
 10
13.0
 20
-0.0649
 30
0.0
 40
0.0
 41
0.0
  0
VERTEX
  5
46
100
AcDbEntity
  8
0
  6
CONTINUOUS
 62
   212
100
AcDbVertex
100
AcDb2dVertex
 10
13.0
 20
0.5165
 30
0.0
 40
0.0
 41
0.0
  0
SEQEND
  5
47
100
AcDbEntity
  8
0
  0
POLYLINE
  5
48
100
AcDbEntity
  8
0
  6
CONTINUOUS
 62
   212
100
AcDb2dPolyline
 66
     1
 10
0.0
 20
0.0
 30
0.0
 70
   128
  0
VERTEX
  5
49
100
AcDbEntity
  8
0
  6
CONTINUOUS
 62
   212
100
AcDbVertex
100
AcDb2dVertex
 10
12.5
 20
-0.0649
 30
0.0
 40
0.0
 41
0.0
  0
VERTEX
  5
4A
100
AcDbEntity
  8
0
  6
CONTINUOUS
 62
   212
100
AcDbVertex
100
AcDb2dVertex
 10
12.5
 20
0.6393
 30
0.0
 40
0.0
 41
0.0
  0
SEQEND
  5
4B
100
AcDbEntity
  8
0
  0
POLYLINE
  5
4C
100
AcDbEntity
  8
0
  6
CONTINUOUS
 62
   212
100
AcDb2dPolyline
 66
     1
 10
0.0
 20
0.0
 30
0.0
 70
   128
  0
VERTEX
  5
4D
100
AcDbEntity
  8
0
  6
CONTINUOUS
 62
   212
100
AcDbVertex
100
AcDb2dVertex
 10
12.0
 20
-0.0649
 30
0.0
 40
0.0
 41
0.0
  0
VERTEX
  5
4E
100
AcDbEntity
  8
0
  6
CONTINUOUS
 62
   212
100
AcDbVertex
100
AcDb2dVertex
 10
12.0
 20
0.7351
 30
0.0
 40
0.0
 41
0.0
  0
SEQEND
  5
4F
100
AcDbEntity
  8
0
  0
POLYLINE
  5
50
100
AcDbEntity
  8
0
  6
CONTINUOUS
 62
   212
100
AcDb2dPolyline
 66
     1
 10
0.0
 20
0.0
 30
0.0
 70
   128
  0
VERTEX
  5
51
100
AcDbEntity
  8
0
  6
CONTINUOUS
 62
   212
100
AcDbVertex
100
AcDb2dVertex
 10
11.5
 20
-0.0649
 30
0.0
 40
0.0
 41
0.0
  0
VERTEX
  5
52
100
AcDbEntity
  8
0
  6
CONTINUOUS
 62
   212
100
AcDbVertex
100
AcDb2dVertex
 10
11.5
 20
0.8077
 30
0.0
 40
0.0
 41
0.0
  0
SEQEND
  5
53
100
AcDbEntity
  8
0
  0
POLYLINE
  5
54
100
AcDbEntity
  8
0
  6
CONTINUOUS
 62
   212
100
AcDb2dPolyline
 66
     1
 10
0.0
 20
0.0
 30
0.0
 70
   128
  0
VERTEX
  5
55
100
AcDbEntity
  8
0
  6
CONTINUOUS
 62
   212
100
AcDbVertex
100
AcDb2dVertex
 10
11.0
 20
-0.0649
 30
0.0
 40
0.0
 41
0.0
  0
VERTEX
  5
56
100
AcDbEntity
  8
0
  6
CONTINUOUS
 62
   212
100
AcDbVertex
100
AcDb2dVertex
 10
11.0
 20
0.8625
 30
0.0
 40
0.0
 41
0.0
  0
SEQEND
  5
57
100
AcDbEntity
  8
0
  0
POLYLINE
  5
58
100
AcDbEntity
  8
0
  6
CONTINUOUS
 62
   212
100
AcDb2dPolyline
 66
     1
 10
0.0
 20
0.0
 30
0.0
 70
   128
  0
VERTEX
  5
59
100
AcDbEntity
  8
0
  6
CONTINUOUS
 62
   212
100
AcDbVertex
100
AcDb2dVertex
 10
10.5
 20
-0.0649
 30
0.0
 40
0.0
 41
0.0
  0
VERTEX
  5
5A
100
AcDbEntity
  8
0
  6
CONTINUOUS
 62
   212
100
AcDbVertex
100
AcDb2dVertex
 10
10.5
 20
0.9015
 30
0.0
 40
0.0
 41
0.0
  0
SEQEND
  5
5B
100
AcDbEntity
  8
0
  0
POLYLINE
  5
5C
100
AcDbEntity
  8
0
  6
CONTINUOUS
 62
   212
100
AcDb2dPolyline
 66
     1
 10
0.0
 20
0.0
 30
0.0
 70
   128
  0
VERTEX
  5
5D
100
AcDbEntity
  8
0
  6
CONTINUOUS
 62
   212
100
AcDbVertex
100
AcDb2dVertex
 10
10.0
 20
-0.0649
 30
0.0
 40
0.0
 41
0.0
  0
VERTEX
  5
5E
100
AcDbEntity
  8
0
  6
CONTINUOUS
 62
   212
100
AcDbVertex
100
AcDb2dVertex
 10
10.0
 20
0.9255
 30
0.0
 40
0.0
 41
0.0
  0
SEQEND
  5
5F
100
AcDbEntity
  8
0
  0
POLYLINE
  5
60
100
AcDbEntity
  8
0
  6
CONTINUOUS
 62
   212
100
AcDb2dPolyline
 66
     1
 10
0.0
 20
0.0
 30
0.0
 70
   128
  0
VERTEX
  5
61
100
AcDbEntity
  8
0
  6
CONTINUOUS
 62
   212
100
AcDbVertex
100
AcDb2dVertex
 10
9.5
 20
-0.0649
 30
0.0
 40
0.0
 41
0.0
  0
VERTEX
  5
62
100
AcDbEntity
  8
0
  6
CONTINUOUS
 62
   212
100
AcDbVertex
100
AcDb2dVertex
 10
9.5
 20
0.9351
 30
0.0
 40
0.0
 41
0.0
  0
SEQEND
  5
63
100
AcDbEntity
  8
0
  0
POLYLINE
  5
64
100
AcDbEntity
  8
0
  6
CONTINUOUS
 62
   212
100
AcDb2dPolyline
 66
     1
 10
0.0
 20
0.0
 30
0.0
 70
   128
  0
VERTEX
  5
65
100
AcDbEntity
  8
0
  6
CONTINUOUS
 62
   212
100
AcDbVertex
100
AcDb2dVertex
 10
9.0
 20
-0.0649
 30
0.0
 40
0.0
 41
0.0
  0
VERTEX
  5
66
100
AcDbEntity
  8
0
  6
CONTINUOUS
 62
   212
100
AcDbVertex
100
AcDb2dVertex
 10
9.0
 20
0.9275
 30
0.0
 40
0.0
 41
0.0
  0
SEQEND
  5
67
100
AcDbEntity
  8
0
  0
POLYLINE
  5
68
100
AcDbEntity
  8
0
  6
CONTINUOUS
 62
   212
100
AcDb2dPolyline
 66
     1
 10
0.0
 20
0.0
 30
0.0
 70
   128
  0
VERTEX
  5
69
100
AcDbEntity
  8
0
  6
CONTINUOUS
 62
   212
100
AcDbVertex
100
AcDb2dVertex
 10
8.5
 20
-0.0649
 30
0.0
 40
0.0
 41
0.0
  0
VERTEX
  5
6A
100
AcDbEntity
  8
0
  6
CONTINUOUS
 62
   212
100
AcDbVertex
100
AcDb2dVertex
 10
8.5
 20
0.9043
 30
0.0
 40
0.0
 41
0.0
  0
SEQEND
  5
6B
100
AcDbEntity
  8
0
  0
POLYLINE
  5
6C
100
AcDbEntity
  8
0
  6
CONTINUOUS
 62
   212
100
AcDb2dPolyline
 66
     1
 10
0.0
 20
0.0
 30
0.0
 70
   128
  0
VERTEX
  5
6D
100
AcDbEntity
  8
0
  6
CONTINUOUS
 62
   212
100
AcDbVertex
100
AcDb2dVertex
 10
8.0
 20
-0.0649
 30
0.0
 40
0.0
 41
0.0
  0
VERTEX
  5
6E
100
AcDbEntity
  8
0
  6
CONTINUOUS
 62
   212
100
AcDbVertex
100
AcDb2dVertex
 10
8.0
 20
0.8657
 30
0.0
 40
0.0
 41
0.0
  0
SEQEND
  5
6F
100
AcDbEntity
  8
0
  0
POLYLINE
  5
70
100
AcDbEntity
  8
0
  6
CONTINUOUS
 62
   212
100
AcDb2dPolyline
 66
     1
 10
0.0
 20
0.0
 30
0.0
 70
   128
  0
VERTEX
  5
71
100
AcDbEntity
  8
0
  6
CONTINUOUS
 62
   212
100
AcDbVertex
100
AcDb2dVertex
 10
7.5
 20
-0.0649
 30
0.0
 40
0.0
 41
0.0
  0
VERTEX
  5
72
100
AcDbEntity
  8
0
  6
CONTINUOUS
 62
   212
100
AcDbVertex
100
AcDb2dVertex
 10
7.5
 20
0.8117
 30
0.0
 40
0.0
 41
0.0
  0
SEQEND
  5
73
100
AcDbEntity
  8
0
  0
POLYLINE
  5
74
100
AcDbEntity
  8
0
  6
CONTINUOUS
 62
   212
100
AcDb2dPolyline
 66
     1
 10
0.0
 20
0.0
 30
0.0
 70
   128
  0
VERTEX
  5
75
100
AcDbEntity
  8
0
  6
CONTINUOUS
 62
   212
100
AcDbVertex
100
AcDb2dVertex
 10
7.0
 20
-0.0649
 30
0.0
 40
0.0
 41
0.0
  0
VERTEX
  5
76
100
AcDbEntity
  8
0
  6
CONTINUOUS
 62
   212
100
AcDbVertex
100
AcDb2dVertex
 10
7.0
 20
0.7421
 30
0.0
 40
0.0
 41
0.0
  0
SEQEND
  5
77
100
AcDbEntity
  8
0
  0
POLYLINE
  5
78
100
AcDbEntity
  8
0
  6
CONTINUOUS
 62
   212
100
AcDb2dPolyline
 66
     1
 10
0.0
 20
0.0
 30
0.0
 70
   128
  0
VERTEX
  5
79
100
AcDbEntity
  8
0
  6
CONTINUOUS
 62
   212
100
AcDbVertex
100
AcDb2dVertex
 10
6.5
 20
-0.0649
 30
0.0
 40
0.0
 41
0.0
  0
VERTEX
  5
7A
100
AcDbEntity
  8
0
  6
CONTINUOUS
 62
   212
100
AcDbVertex
100
AcDb2dVertex
 10
6.5
 20
0.6575
 30
0.0
 40
0.0
 41
0.0
  0
SEQEND
  5
7B
100
AcDbEntity
  8
0
  0
POLYLINE
  5
7C
100
AcDbEntity
  8
0
  6
CONTINUOUS
 62
   212
100
AcDb2dPolyline
 66
     1
 10
0.0
 20
0.0
 30
0.0
 70
   128
  0
VERTEX
  5
7D
100
AcDbEntity
  8
0
  6
CONTINUOUS
 62
   212
100
AcDbVertex
100
AcDb2dVertex
 10
6.0
 20
-0.0649
 30
0.0
 40
0.0
 41
0.0
  0
VERTEX
  5
7E
100
AcDbEntity
  8
0
  6
CONTINUOUS
 62
   212
100
AcDbVertex
100
AcDb2dVertex
 10
6.0
 20
0.5571
 30
0.0
 40
0.0
 41
0.0
  0
SEQEND
  5
7F
100
AcDbEntity
  8
0
  0
POLYLINE
  5
80
100
AcDbEntity
  8
0
  6
CONTINUOUS
 62
   212
100
AcDb2dPolyline
 66
     1
 10
0.0
 20
0.0
 30
0.0
 70
   128
  0
VERTEX
  5
81
100
AcDbEntity
  8
0
  6
CONTINUOUS
 62
   212
100
AcDbVertex
100
AcDb2dVertex
 10
5.5
 20
-0.0649
 30
0.0
 40
0.0
 41
0.0
  0
VERTEX
  5
82
100
AcDbEntity
  8
0
  6
CONTINUOUS
 62
   212
100
AcDbVertex
100
AcDb2dVertex
 10
5.5
 20
0.4415
 30
0.0
 40
0.0
 41
0.0
  0
SEQEND
  5
83
100
AcDbEntity
  8
0
  0
POLYLINE
  5
84
100
AcDbEntity
  8
0
  6
CONTINUOUS
 62
   212
100
AcDb2dPolyline
 66
     1
 10
0.0
 20
0.0
 30
0.0
 70
   128
  0
VERTEX
  5
85
100
AcDbEntity
  8
0
  6
CONTINUOUS
 62
   212
100
AcDbVertex
100
AcDb2dVertex
 10
5.0
 20
-0.0649
 30
0.0
 40
0.0
 41
0.0
  0
VERTEX
  5
86
100
AcDbEntity
  8
0
  6
CONTINUOUS
 62
   212
100
AcDbVertex
100
AcDb2dVertex
 10
5.0
 20
0.3105
 30
0.0
 40
0.0
 41
0.0
  0
SEQEND
  5
87
100
AcDbEntity
  8
0
  0
POLYLINE
  5
88
100
AcDbEntity
  8
0
  6
CONTINUOUS
 62
   212
100
AcDb2dPolyline
 66
     1
 10
0.0
 20
0.0
 30
0.0
 70
   128
  0
VERTEX
  5
89
100
AcDbEntity
  8
0
  6
CONTINUOUS
 62
   212
100
AcDbVertex
100
AcDb2dVertex
 10
4.5
 20
-0.0649
 30
0.0
 40
0.0
 41
0.0
  0
VERTEX
  5
8A
100
AcDbEntity
  8
0
  6
CONTINUOUS
 62
   212
100
AcDbVertex
100
AcDb2dVertex
 10
4.5
 20
0.1637
 30
0.0
 40
0.0
 41
0.0
  0
SEQEND
  5
8B
100
AcDbEntity
  8
0
  0
POLYLINE
  5
8C
100
AcDbEntity
  8
0
  6
CONTINUOUS
 62
   212
100
AcDb2dPolyline
 66
     1
 10
0.0
 20
0.0
 30
0.0
 70
   128
  0
VERTEX
  5
8D
100
AcDbEntity
  8
0
  6
CONTINUOUS
 62
   212
100
AcDbVertex
100
AcDb2dVertex
 10
4.25
 20
-0.0649
 30
0.0
 40
0.0
 41
0.0
  0
VERTEX
  5
8E
100
AcDbEntity
  8
0
  6
CONTINUOUS
 62
   212
100
AcDbVertex
100
AcDb2dVertex
 10
4.25
 20
0.0847
 30
0.0
 40
0.0
 41
0.0
  0
SEQEND
  5
8F
100
AcDbEntity
  8
0
  0
POLYLINE
  5
90
100
AcDbEntity
  8
0
  6
CONTINUOUS
 62
   212
100
AcDb2dPolyline
 66
     1
 10
0.0
 20
0.0
 30
0.0
 70
   128
  0
VERTEX
  5
91
100
AcDbEntity
  8
0
  6
CONTINUOUS
 62
   212
100
AcDbVertex
100
AcDb2dVertex
 10
4.0
 20
-0.0649
 30
0.0
 40
0.0
 41
0.0
  0
VERTEX
  5
92
100
AcDbEntity
  8
0
  6
CONTINUOUS
 62
   212
100
AcDbVertex
100
AcDb2dVertex
 10
4.0
 20
0.0017
 30
0.0
 40
0.0
 41
0.0
  0
SEQEND
  5
93
100
AcDbEntity
  8
0
  0
POLYLINE
  5
94
100
AcDbEntity
  8
0
  6
CONTINUOUS
 62
   212
100
AcDb2dPolyline
 66
     1
 10
0.0
 20
0.0
 30
0.0
 70
   128
  0
VERTEX
  5
95
100
AcDbEntity
  8
0
  6
CONTINUOUS
 62
   212
100
AcDbVertex
100
AcDb2dVertex
 10
14.0
 20
-0.0649
 30
0.0
 40
0.0
 41
0.0
  0
VERTEX
  5
96
100
AcDbEntity
  8
0
  6
CONTINUOUS
 62
   212
100
AcDbVertex
100
AcDb2dVertex
 10
13.99398
 20
-0.04343
 30
0.0
 40
0.0
 41
0.0
  0
VERTEX
  5
97
100
AcDbEntity
  8
0
  6
CONTINUOUS
 62
   212
100
AcDbVertex
100
AcDb2dVertex
 10
13.987819
 20
-0.02227
 30
0.0
 40
0.0
 41
0.0
  0
VERTEX
  5
98
100
AcDbEntity
  8
0
  6
CONTINUOUS
 62
   212
100
AcDbVertex
100
AcDb2dVertex
 10
13.981378
 20
-0.001726
 30
0.0
 40
0.0
 41
0.0
  0
VERTEX
  5
99
100
AcDbEntity
  8
0
  6
CONTINUOUS
 62
   212
100
AcDbVertex
100
AcDb2dVertex
 10
13.974515
 20
0.01789
 30
0.0
 40
0.0
 41
0.0
  0
VERTEX
  5
9A
100
AcDbEntity
  8
0
  6
CONTINUOUS
 62
   212
100
AcDbVertex
100
AcDb2dVertex
 10
13.967092
 20
0.036274
 30
0.0
 40
0.0
 41
0.0
  0
VERTEX
  5
9B
100
AcDbEntity
  8
0
  6
CONTINUOUS
 62
   212
100
AcDbVertex
100
AcDb2dVertex
 10
13.958967
 20
0.053112
 30
0.0
 40
0.0
 41
0.0
  0
VERTEX
  5
9C
100
AcDbEntity
  8
0
  6
CONTINUOUS
 62
   212
100
AcDbVertex
100
AcDb2dVertex
 10
13.95
 20
0.0681
 30
0.0
 40
0.0
 41
0.0
  0
VERTEX
  5
9D
100
AcDbEntity
  8
0
  6
CONTINUOUS
 62
   212
100
AcDbVertex
100
AcDb2dVertex
 10
13.946654
 20
0.07284
 30
0.0
 40
0.0
 41
0.0
  0
VERTEX
  5
9E
100
AcDbEntity
  8
0
  6
CONTINUOUS
 62
   212
100
AcDbVertex
100
AcDb2dVertex
 10
13.943206
 20
0.077348
 30
0.0
 40
0.0
 41
0.0
  0
VERTEX
  5
9F
100
AcDbEntity
  8
0
  6
CONTINUOUS
 62
   212
100
AcDbVertex
100
AcDb2dVertex
 10
13.939671
 20
0.081656
 30
0.0
 40
0.0
 41
0.0
  0
VERTEX
  5
A0
100
AcDbEntity
  8
0
  6
CONTINUOUS
 62
   212
100
AcDbVertex
100
AcDb2dVertex
 10
13.936067
 20
0.085794
 30
0.0
 40
0.0
 41
0.0
  0
VERTEX
  5
A1
100
AcDbEntity
  8
0
  6
CONTINUOUS
 62
   212
100
AcDbVertex
100
AcDb2dVertex
 10
13.932409
 20
0.089792
 30
0.0
 40
0.0
 41
0.0
  0
VERTEX
  5
A2
100
AcDbEntity
  8
0
  6
CONTINUOUS
 62
   212
100
AcDbVertex
100
AcDb2dVertex
 10
13.928715
 20
0.093684
 30
0.0
 40
0.0
 41
0.0
  0
VERTEX
  5
A3
100
AcDbEntity
  8
0
  6
CONTINUOUS
 62
   212
100
AcDbVertex
100
AcDb2dVertex
 10
13.925
 20
0.0975
 30
0.0
 40
0.0
 41
0.0
  0
VERTEX
  5
A4
100
AcDbEntity
  8
0
  6
CONTINUOUS
 62
   212
100
AcDbVertex
100
AcDb2dVertex
 10
13.917924
 20
0.104616
 30
0.0
 40
0.0
 41
0.0
  0
VERTEX
  5
A5
100
AcDbEntity
  8
0
  6
CONTINUOUS
 62
   212
100
AcDbVertex
100
AcDb2dVertex
 10
13.910831
 20
0.11157
 30
0.0
 40
0.0
 41
0.0
  0
VERTEX
  5
A6
100
AcDbEntity
  8
0
  6
CONTINUOUS
 62
   212
100
AcDbVertex
100
AcDb2dVertex
 10
13.903718
 20
0.118358
 30
0.0
 40
0.0
 41
0.0
  0
VERTEX
  5
A7
100
AcDbEntity
  8
0
  6
CONTINUOUS
 62
   212
100
AcDbVertex
100
AcDb2dVertex
 10
13.896581
 20
0.124986
 30
0.0
 40
0.0
 41
0.0
  0
VERTEX
  5
A8
100
AcDbEntity
  8
0
  6
CONTINUOUS
 62
   212
100
AcDbVertex
100
AcDb2dVertex
 10
13.889419
 20
0.131452
 30
0.0
 40
0.0
 41
0.0
  0
VERTEX
  5
A9
100
AcDbEntity
  8
0
  6
CONTINUOUS
 62
   212
100
AcDbVertex
100
AcDb2dVertex
 10
13.882226
 20
0.137756
 30
0.0
 40
0.0
 41
0.0
  0
VERTEX
  5
AA
100
AcDbEntity
  8
0
  6
CONTINUOUS
 62
   212
100
AcDbVertex
100
AcDb2dVertex
 10
13.875
 20
0.1439
 30
0.0
 40
0.0
 41
0.0
  0
VERTEX
  5
AB
100
AcDbEntity
  8
0
  6
CONTINUOUS
 62
   212
100
AcDbVertex
100
AcDb2dVertex
 10
13.857562
 20
0.157972
 30
0.0
 40
0.0
 41
0.0
  0
VERTEX
  5
AC
100
AcDbEntity
  8
0
  6
CONTINUOUS
 62
   212
100
AcDbVertex
100
AcDb2dVertex
 10
13.839942
 20
0.17122
 30
0.0
 40
0.0
 41
0.0
  0
VERTEX
  5
AD
100
AcDbEntity
  8
0
  6
CONTINUOUS
 62
   212
100
AcDbVertex
100
AcDb2dVertex
 10
13.822164
 20
0.183734
 30
0.0
 40
0.0
 41
0.0
  0
VERTEX
  5
AE
100
AcDbEntity
  8
0
  6
CONTINUOUS
 62
   212
100
AcDbVertex
100
AcDb2dVertex
 10
13.804256
 20
0.195608
 30
0.0
 40
0.0
 41
0.0
  0
VERTEX
  5
AF
100
AcDbEntity
  8
0
  6
CONTINUOUS
 62
   212
100
AcDbVertex
100
AcDb2dVertex
 10
13.786241
 20
0.206934
 30
0.0
 40
0.0
 41
0.0
  0
VERTEX
  5
B0
100
AcDbEntity
  8
0
  6
CONTINUOUS
 62
   212
100
AcDbVertex
100
AcDb2dVertex
 10
13.768148
 20
0.2178
 30
0.0
 40
0.0
 41
0.0
  0
VERTEX
  5
B1
100
AcDbEntity
  8
0
  6
CONTINUOUS
 62
   212
100
AcDbVertex
100
AcDb2dVertex
 10
13.75
 20
0.2283
 30
0.0
 40
0.0
 41
0.0
  0
VERTEX
  5
B2
100
AcDbEntity
  8
0
  6
CONTINUOUS
 62
   212
100
AcDbVertex
100
AcDb2dVertex
 10
13.714547
 20
0.247954
 30
0.0
 40
0.0
 41
0.0
  0
VERTEX
  5
B3
100
AcDbEntity
  8
0
  6
CONTINUOUS
 62
   212
100
AcDbVertex
100
AcDb2dVertex
 10
13.678996
 20
0.266644
 30
0.0
 40
0.0
 41
0.0
  0
VERTEX
  5
B4
100
AcDbEntity
  8
0
  6
CONTINUOUS
 62
   212
100
AcDbVertex
100
AcDb2dVertex
 10
13.643352
 20
0.284442
 30
0.0
 40
0.0
 41
0.0
  0
VERTEX
  5
B5
100
AcDbEntity
  8
0
  6
CONTINUOUS
 62
   212
100
AcDbVertex
100
AcDb2dVertex
 10
13.607624
 20
0.30143
 30
0.0
 40
0.0
 41
0.0
  0
VERTEX
  5
B6
100
AcDbEntity
  8
0
  6
CONTINUOUS
 62
   212
100
AcDbVertex
100
AcDb2dVertex
 10
13.571817
 20
0.317684
 30
0.0
 40
0.0
 41
0.0
  0
VERTEX
  5
B7
100
AcDbEntity
  8
0
  6
CONTINUOUS
 62
   212
100
AcDbVertex
100
AcDb2dVertex
 10
13.53594
 20
0.333282
 30
0.0
 40
0.0
 41
0.0
  0
VERTEX
  5
B8
100
AcDbEntity
  8
0
  6
CONTINUOUS
 62
   212
100
AcDbVertex
100
AcDb2dVertex
 10
13.5
 20
0.3483
 30
0.0
 40
0.0
 41
0.0
  0
VERTEX
  5
B9
100
AcDbEntity
  8
0
  6
CONTINUOUS
 62
   212
100
AcDbVertex
100
AcDb2dVertex
 10
13.464412
 20
0.362648
 30
0.0
 40
0.0
 41
0.0
  0
VERTEX
  5
BA
100
AcDbEntity
  8
0
  6
CONTINUOUS
 62
   212
100
AcDbVertex
100
AcDb2dVertex
 10
13.428774
 20
0.376536
 30
0.0
 40
0.0
 41
0.0
  0
VERTEX
  5
BB
100
AcDbEntity
  8
0
  6
CONTINUOUS
 62
   212
100
AcDbVertex
100
AcDb2dVertex
 10
13.393091
 20
0.389992
 30
0.0
 40
0.0
 41
0.0
  0
VERTEX
  5
BC
100
AcDbEntity
  8
0
  6
CONTINUOUS
 62
   212
100
AcDbVertex
100
AcDb2dVertex
 10
13.357367
 20
0.403048
 30
0.0
 40
0.0
 41
0.0
  0
VERTEX
  5
BD
100
AcDbEntity
  8
0
  6
CONTINUOUS
 62
   212
100
AcDbVertex
100
AcDb2dVertex
 10
13.321607
 20
0.415732
 30
0.0
 40
0.0
 41
0.0
  0
VERTEX
  5
BE
100
AcDbEntity
  8
0
  6
CONTINUOUS
 62
   212
100
AcDbVertex
100
AcDb2dVertex
 10
13.285816
 20
0.428072
 30
0.0
 40
0.0
 41
0.0
  0
VERTEX
  5
BF
100
AcDbEntity
  8
0
  6
CONTINUOUS
 62
   212
100
AcDbVertex
100
AcDb2dVertex
 10
13.25
 20
0.4401
 30
0.0
 40
0.0
 41
0.0
  0
VERTEX
  5
C0
100
AcDbEntity
  8
0
  6
CONTINUOUS
 62
   212
100
AcDbVertex
100
AcDb2dVertex
 10
13.214342
 20
0.451782
 30
0.0
 40
0.0
 41
0.0
  0
VERTEX
  5
C1
100
AcDbEntity
  8
0
  6
CONTINUOUS
 62
   212
100
AcDbVertex
100
AcDb2dVertex
 10
13.178664
 20
0.463192
 30
0.0
 40
0.0
 41
0.0
  0
VERTEX
  5
C2
100
AcDbEntity
  8
0
  6
CONTINUOUS
 62
   212
100
AcDbVertex
100
AcDb2dVertex
 10
13.142966
 20
0.47434
 30
0.0
 40
0.0
 41
0.0
  0
VERTEX
  5
C3
100
AcDbEntity
  8
0
  6
CONTINUOUS
 62
   212
100
AcDbVertex
100
AcDb2dVertex
 10
13.10725
 20
0.485234
 30
0.0
 40
0.0
 41
0.0
  0
VERTEX
  5
C4
100
AcDbEntity
  8
0
  6
CONTINUOUS
 62
   212
100
AcDbVertex
100
AcDb2dVertex
 10
13.071517
 20
0.495888
 30
0.0
 40
0.0
 41
0.0
  0
VERTEX
  5
C5
100
AcDbEntity
  8
0
  6
CONTINUOUS
 62
   212
100
AcDbVertex
100
AcDb2dVertex
 10
13.035767
 20
0.506306
 30
0.0
 40
0.0
 41
0.0
  0
VERTEX
  5
C6
100
AcDbEntity
  8
0
  6
CONTINUOUS
 62
   212
100
AcDbVertex
100
AcDb2dVertex
 10
13.0
 20
0.5165
 30
0.0
 40
0.0
 41
0.0
  0
VERTEX
  5
C7
100
AcDbEntity
  8
0
  6
CONTINUOUS
 62
   212
100
AcDbVertex
100
AcDb2dVertex
 10
12.928712
 20
0.536172
 30
0.0
 40
0.0
 41
0.0
  0
VERTEX
  5
C8
100
AcDbEntity
  8
0
  6
CONTINUOUS
 62
   212
100
AcDbVertex
100
AcDb2dVertex
 10
12.857368
 20
0.555046
 30
0.0
 40
0.0
 41
0.0
  0
VERTEX
  5
C9
100
AcDbEntity
  8
0
  6
CONTINUOUS
 62
   212
100
AcDbVertex
100
AcDb2dVertex
 10
12.785974
 20
0.573176
 30
0.0
 40
0.0
 41
0.0
  0
VERTEX
  5
CA
100
AcDbEntity
  8
0
  6
CONTINUOUS
 62
   212
100
AcDbVertex
100
AcDb2dVertex
 10
12.714535
 20
0.590612
 30
0.0
 40
0.0
 41
0.0
  0
VERTEX
  5
CB
100
AcDbEntity
  8
0
  6
CONTINUOUS
 62
   212
100
AcDbVertex
100
AcDb2dVertex
 10
12.643056
 20
0.60741
 30
0.0
 40
0.0
 41
0.0
  0
VERTEX
  5
CC
100
AcDbEntity
  8
0
  6
CONTINUOUS
 62
   212
100
AcDbVertex
100
AcDb2dVertex
 10
12.571543
 20
0.623622
 30
0.0
 40
0.0
 41
0.0
  0
VERTEX
  5
CD
100
AcDbEntity
  8
0
  6
CONTINUOUS
 62
   212
100
AcDbVertex
100
AcDb2dVertex
 10
12.5
 20
0.6393
 30
0.0
 40
0.0
 41
0.0
  0
VERTEX
  5
CE
100
AcDbEntity
  8
0
  6
CONTINUOUS
 62
   212
100
AcDbVertex
100
AcDb2dVertex
 10
12.42864
 20
0.654446
 30
0.0
 40
0.0
 41
0.0
  0
VERTEX
  5
CF
100
AcDbEntity
  8
0
  6
CONTINUOUS
 62
   212
100
AcDbVertex
100
AcDb2dVertex
 10
12.357257
 20
0.669112
 30
0.0
 40
0.0
 41
0.0
  0
VERTEX
  5
D0
100
AcDbEntity
  8
0
  6
CONTINUOUS
 62
   212
100
AcDbVertex
100
AcDb2dVertex
 10
12.285851
 20
0.683292
 30
0.0
 40
0.0
 41
0.0
  0
VERTEX
  5
D1
100
AcDbEntity
  8
0
  6
CONTINUOUS
 62
   212
100
AcDbVertex
100
AcDb2dVertex
 10
12.214421
 20
0.696986
 30
0.0
 40
0.0
 41
0.0
  0
VERTEX
  5
D2
100
AcDbEntity
  8
0
  6
CONTINUOUS
 62
   212
100
AcDbVertex
100
AcDb2dVertex
 10
12.142969
 20
0.710186
 30
0.0
 40
0.0
 41
0.0
  0
VERTEX
  5
D3
100
AcDbEntity
  8
0
  6
CONTINUOUS
 62
   212
100
AcDbVertex
100
AcDb2dVertex
 10
12.071495
 20
0.722892
 30
0.0
 40
0.0
 41
0.0
  0
VERTEX
  5
D4
100
AcDbEntity
  8
0
  6
CONTINUOUS
 62
   212
100
AcDbVertex
100
AcDb2dVertex
 10
12.0
 20
0.7351
 30
0.0
 40
0.0
 41
0.0
  0
VERTEX
  5
D5
100
AcDbEntity
  8
0
  6
CONTINUOUS
 62
   212
100
AcDbVertex
100
AcDb2dVertex
 10
11.928622
 20
0.746788
 30
0.0
 40
0.0
 41
0.0
  0
VERTEX
  5
D6
100
AcDbEntity
  8
0
  6
CONTINUOUS
 62
   212
100
AcDbVertex
100
AcDb2dVertex
 10
11.857225
 20
0.757996
 30
0.0
 40
0.0
 41
0.0
  0
VERTEX
  5
D7
100
AcDbEntity
  8
0
  6
CONTINUOUS
 62
   212
100
AcDbVertex
100
AcDb2dVertex
 10
11.785809
 20
0.768752
 30
0.0
 40
0.0
 41
0.0
  0
VERTEX
  5
D8
100
AcDbEntity
  8
0
  6
CONTINUOUS
 62
   212
100
AcDbVertex
100
AcDb2dVertex
 10
11.714378
 20
0.779078
 30
0.0
 40
0.0
 41
0.0
  0
VERTEX
  5
D9
100
AcDbEntity
  8
0
  6
CONTINUOUS
 62
   212
100
AcDbVertex
100
AcDb2dVertex
 10
11.642931
 20
0.788994
 30
0.0
 40
0.0
 41
0.0
  0
VERTEX
  5
DA
100
AcDbEntity
  8
0
  6
CONTINUOUS
 62
   212
100
AcDbVertex
100
AcDb2dVertex
 10
11.571471
 20
0.798528
 30
0.0
 40
0.0
 41
0.0
  0
VERTEX
  5
DB
100
AcDbEntity
  8
0
  6
CONTINUOUS
 62
   212
100
AcDbVertex
100
AcDb2dVertex
 10
11.5
 20
0.8077
 30
0.0
 40
0.0
 41
0.0
  0
VERTEX
  5
DC
100
AcDbEntity
  8
0
  6
CONTINUOUS
 62
   212
100
AcDbVertex
100
AcDb2dVertex
 10
11.428599
 20
0.81652
 30
0.0
 40
0.0
 41
0.0
  0
VERTEX
  5
DD
100
AcDbEntity
  8
0
  6
CONTINUOUS
 62
   212
100
AcDbVertex
100
AcDb2dVertex
 10
11.357188
 20
0.825008
 30
0.0
 40
0.0
 41
0.0
  0
VERTEX
  5
DE
100
AcDbEntity
  8
0
  6
CONTINUOUS
 62
   212
100
AcDbVertex
100
AcDb2dVertex
 10
11.285768
 20
0.83316
 30
0.0
 40
0.0
 41
0.0
  0
VERTEX
  5
DF
100
AcDbEntity
  8
0
  6
CONTINUOUS
 62
   212
100
AcDbVertex
100
AcDb2dVertex
 10
11.214339
 20
0.840984
 30
0.0
 40
0.0
 41
0.0
  0
VERTEX
  5
E0
100
AcDbEntity
  8
0
  6
CONTINUOUS
 62
   212
100
AcDbVertex
100
AcDb2dVertex
 10
11.142901
 20
0.84848
 30
0.0
 40
0.0
 41
0.0
  0
VERTEX
  5
E1
100
AcDbEntity
  8
0
  6
CONTINUOUS
 62
   212
100
AcDbVertex
100
AcDb2dVertex
 10
11.071454
 20
0.855652
 30
0.0
 40
0.0
 41
0.0
  0
VERTEX
  5
E2
100
AcDbEntity
  8
0
  6
CONTINUOUS
 62
   212
100
AcDbVertex
100
AcDb2dVertex
 10
11.0
 20
0.8625
 30
0.0
 40
0.0
 41
0.0
  0
VERTEX
  5
E3
100
AcDbEntity
  8
0
  6
CONTINUOUS
 62
   212
100
AcDbVertex
100
AcDb2dVertex
 10
10.928591
 20
0.869022
 30
0.0
 40
0.0
 41
0.0
  0
VERTEX
  5
E4
100
AcDbEntity
  8
0
  6
CONTINUOUS
 62
   212
100
AcDbVertex
100
AcDb2dVertex
 10
10.857175
 20
0.875226
 30
0.0
 40
0.0
 41
0.0
  0
VERTEX
  5
E5
100
AcDbEntity
  8
0
  6
CONTINUOUS
 62
   212
100
AcDbVertex
100
AcDb2dVertex
 10
10.785752
 20
0.881112
 30
0.0
 40
0.0
 41
0.0
  0
VERTEX
  5
E6
100
AcDbEntity
  8
0
  6
CONTINUOUS
 62
   212
100
AcDbVertex
100
AcDb2dVertex
 10
10.714322
 20
0.886682
 30
0.0
 40
0.0
 41
0.0
  0
VERTEX
  5
E7
100
AcDbEntity
  8
0
  6
CONTINUOUS
 62
   212
100
AcDbVertex
100
AcDb2dVertex
 10
10.642887
 20
0.891934
 30
0.0
 40
0.0
 41
0.0
  0
VERTEX
  5
E8
100
AcDbEntity
  8
0
  6
CONTINUOUS
 62
   212
100
AcDbVertex
100
AcDb2dVertex
 10
10.571446
 20
0.896874
 30
0.0
 40
0.0
 41
0.0
  0
VERTEX
  5
E9
100
AcDbEntity
  8
0
  6
CONTINUOUS
 62
   212
100
AcDbVertex
100
AcDb2dVertex
 10
10.5
 20
0.9015
 30
0.0
 40
0.0
 41
0.0
  0
VERTEX
  5
EA
100
AcDbEntity
  8
0
  6
CONTINUOUS
 62
   212
100
AcDbVertex
100
AcDb2dVertex
 10
10.428583
 20
0.905812
 30
0.0
 40
0.0
 41
0.0
  0
VERTEX
  5
EB
100
AcDbEntity
  8
0
  6
CONTINUOUS
 62
   212
100
AcDbVertex
100
AcDb2dVertex
 10
10.357162
 20
0.90982
 30
0.0
 40
0.0
 41
0.0
  0
VERTEX
  5
EC
100
AcDbEntity
  8
0
  6
CONTINUOUS
 62
   212
100
AcDbVertex
100
AcDb2dVertex
 10
10.285736
 20
0.913528
 30
0.0
 40
0.0
 41
0.0
  0
VERTEX
  5
ED
100
AcDbEntity
  8
0
  6
CONTINUOUS
 62
   212
100
AcDbVertex
100
AcDb2dVertex
 10
10.214307
 20
0.916944
 30
0.0
 40
0.0
 41
0.0
  0
VERTEX
  5
EE
100
AcDbEntity
  8
0
  6
CONTINUOUS
 62
   212
100
AcDbVertex
100
AcDb2dVertex
 10
10.142874
 20
0.920074
 30
0.0
 40
0.0
 41
0.0
  0
VERTEX
  5
EF
100
AcDbEntity
  8
0
  6
CONTINUOUS
 62
   212
100
AcDbVertex
100
AcDb2dVertex
 10
10.071439
 20
0.922924
 30
0.0
 40
0.0
 41
0.0
  0
VERTEX
  5
F0
100
AcDbEntity
  8
0
  6
CONTINUOUS
 62
   212
100
AcDbVertex
100
AcDb2dVertex
 10
10.0
 20
0.9255
 30
0.0
 40
0.0
 41
0.0
  0
VERTEX
  5
F1
100
AcDbEntity
  8
0
  6
CONTINUOUS
 62
   212
100
AcDbVertex
100
AcDb2dVertex
 10
9.928576
 20
0.927806
 30
0.0
 40
0.0
 41
0.0
  0
VERTEX
  5
F2
100
AcDbEntity
  8
0
  6
CONTINUOUS
 62
   212
100
AcDbVertex
100
AcDb2dVertex
 10
9.85715
 20
0.929828
 30
0.0
 40
0.0
 41
0.0
  0
VERTEX
  5
F3
100
AcDbEntity
  8
0
  6
CONTINUOUS
 62
   212
100
AcDbVertex
100
AcDb2dVertex
 10
9.785723
 20
0.93155
 30
0.0
 40
0.0
 41
0.0
  0
VERTEX
  5
F4
100
AcDbEntity
  8
0
  6
CONTINUOUS
 62
   212
100
AcDbVertex
100
AcDb2dVertex
 10
9.714294
 20
0.932956
 30
0.0
 40
0.0
 41
0.0
  0
VERTEX
  5
F5
100
AcDbEntity
  8
0
  6
CONTINUOUS
 62
   212
100
AcDbVertex
100
AcDb2dVertex
 10
9.642863
 20
0.934026
 30
0.0
 40
0.0
 41
0.0
  0
VERTEX
  5
F6
100
AcDbEntity
  8
0
  6
CONTINUOUS
 62
   212
100
AcDbVertex
100
AcDb2dVertex
 10
9.571432
 20
0.934748
 30
0.0
 40
0.0
 41
0.0
  0
VERTEX
  5
F7
100
AcDbEntity
  8
0
  6
CONTINUOUS
 62
   212
100
AcDbVertex
100
AcDb2dVertex
 10
9.5
 20
0.9351
 30
0.0
 40
0.0
 41
0.0
  0
VERTEX
  5
F8
100
AcDbEntity
  8
0
  6
CONTINUOUS
 62
   212
100
AcDbVertex
100
AcDb2dVertex
 10
9.428569
 20
0.935074
 30
0.0
 40
0.0
 41
0.0
  0
VERTEX
  5
F9
100
AcDbEntity
  8
0
  6
CONTINUOUS
 62
   212
100
AcDbVertex
100
AcDb2dVertex
 10
9.357138
 20
0.934674
 30
0.0
 40
0.0
 41
0.0
  0
VERTEX
  5
FA
100
AcDbEntity
  8
0
  6
CONTINUOUS
 62
   212
100
AcDbVertex
100
AcDb2dVertex
 10
9.285708
 20
0.933914
 30
0.0
 40
0.0
 41
0.0
  0
VERTEX
  5
FB
100
AcDbEntity
  8
0
  6
CONTINUOUS
 62
   212
100
AcDbVertex
100
AcDb2dVertex
 10
9.214279
 20
0.932804
 30
0.0
 40
0.0
 41
0.0
  0
VERTEX
  5
FC
100
AcDbEntity
  8
0
  6
CONTINUOUS
 62
   212
100
AcDbVertex
100
AcDb2dVertex
 10
9.142851
 20
0.931358
 30
0.0
 40
0.0
 41
0.0
  0
VERTEX
  5
FD
100
AcDbEntity
  8
0
  6
CONTINUOUS
 62
   212
100
AcDbVertex
100
AcDb2dVertex
 10
9.071424
 20
0.929586
 30
0.0
 40
0.0
 41
0.0
  0
VERTEX
  5
FE
100
AcDbEntity
  8
0
  6
CONTINUOUS
 62
   212
100
AcDbVertex
100
AcDb2dVertex
 10
9.0
 20
0.9275
 30
0.0
 40
0.0
 41
0.0
  0
VERTEX
  5
FF
100
AcDbEntity
  8
0
  6
CONTINUOUS
 62
   212
100
AcDbVertex
100
AcDb2dVertex
 10
8.928561
 20
0.92511
 30
0.0
 40
0.0
 41
0.0
  0
VERTEX
  5
100
100
AcDbEntity
  8
0
  6
CONTINUOUS
 62
   212
100
AcDbVertex
100
AcDb2dVertex
 10
8.857125
 20
0.922416
 30
0.0
 40
0.0
 41
0.0
  0
VERTEX
  5
101
100
AcDbEntity
  8
0
  6
CONTINUOUS
 62
   212
100
AcDbVertex
100
AcDb2dVertex
 10
8.785692
 20
0.919414
 30
0.0
 40
0.0
 41
0.0
  0
VERTEX
  5
102
100
AcDbEntity
  8
0
  6
CONTINUOUS
 62
   212
100
AcDbVertex
100
AcDb2dVertex
 10
8.714263
 20
0.916104
 30
0.0
 40
0.0
 41
0.0
  0
VERTEX
  5
103
100
AcDbEntity
  8
0
  6
CONTINUOUS
 62
   212
100
AcDbVertex
100
AcDb2dVertex
 10
8.642838
 20
0.912484
 30
0.0
 40
0.0
 41
0.0
  0
VERTEX
  5
104
100
AcDbEntity
  8
0
  6
CONTINUOUS
 62
   212
100
AcDbVertex
100
AcDb2dVertex
 10
8.571417
 20
0.90855
 30
0.0
 40
0.0
 41
0.0
  0
VERTEX
  5
105
100
AcDbEntity
  8
0
  6
CONTINUOUS
 62
   212
100
AcDbVertex
100
AcDb2dVertex
 10
8.5
 20
0.9043
 30
0.0
 40
0.0
 41
0.0
  0
VERTEX
  5
106
100
AcDbEntity
  8
0
  6
CONTINUOUS
 62
   212
100
AcDbVertex
100
AcDb2dVertex
 10
8.428554
 20
0.89973
 30
0.0
 40
0.0
 41
0.0
  0
VERTEX
  5
107
100
AcDbEntity
  8
0
  6
CONTINUOUS
 62
   212
100
AcDbVertex
100
AcDb2dVertex
 10
8.357114
 20
0.894844
 30
0.0
 40
0.0
 41
0.0
  0
VERTEX
  5
108
100
AcDbEntity
  8
0
  6
CONTINUOUS
 62
   212
100
AcDbVertex
100
AcDb2dVertex
 10
8.285679
 20
0.889642
 30
0.0
 40
0.0
 41
0.0
  0
VERTEX
  5
109
100
AcDbEntity
  8
0
  6
CONTINUOUS
 62
   212
100
AcDbVertex
100
AcDb2dVertex
 10
8.214249
 20
0.884124
 30
0.0
 40
0.0
 41
0.0
  0
VERTEX
  5
10A
100
AcDbEntity
  8
0
  6
CONTINUOUS
 62
   212
100
AcDbVertex
100
AcDb2dVertex
 10
8.142826
 20
0.878294
 30
0.0
 40
0.0
 41
0.0
  0
VERTEX
  5
10B
100
AcDbEntity
  8
0
  6
CONTINUOUS
 62
   212
100
AcDbVertex
100
AcDb2dVertex
 10
8.07141
 20
0.872152
 30
0.0
 40
0.0
 41
0.0
  0
VERTEX
  5
10C
100
AcDbEntity
  8
0
  6
CONTINUOUS
 62
   212
100
AcDbVertex
100
AcDb2dVertex
 10
8.0
 20
0.8657
 30
0.0
 40
0.0
 41
0.0
  0
VERTEX
  5
10D
100
AcDbEntity
  8
0
  6
CONTINUOUS
 62
   212
100
AcDbVertex
100
AcDb2dVertex
 10
7.928547
 20
0.858932
 30
0.0
 40
0.0
 41
0.0
  0
VERTEX
  5
10E
100
AcDbEntity
  8
0
  6
CONTINUOUS
 62
   212
100
AcDbVertex
100
AcDb2dVertex
 10
7.857101
 20
0.851852
 30
0.0
 40
0.0
 41
0.0
  0
VERTEX
  5
10F
100
AcDbEntity
  8
0
  6
CONTINUOUS
 62
   212
100
AcDbVertex
100
AcDb2dVertex
 10
7.785663
 20
0.84446
 30
0.0
 40
0.0
 41
0.0
  0
VERTEX
  5
110
100
AcDbEntity
  8
0
  6
CONTINUOUS
 62
   212
100
AcDbVertex
100
AcDb2dVertex
 10
7.714234
 20
0.83675
 30
0.0
 40
0.0
 41
0.0
  0
VERTEX
  5
111
100
AcDbEntity
  8
0
  6
CONTINUOUS
 62
   212
100
AcDbVertex
100
AcDb2dVertex
 10
7.642813
 20
0.82872
 30
0.0
 40
0.0
 41
0.0
  0
VERTEX
  5
112
100
AcDbEntity
  8
0
  6
CONTINUOUS
 62
   212
100
AcDbVertex
100
AcDb2dVertex
 10
7.571402
 20
0.820372
 30
0.0
 40
0.0
 41
0.0
  0
VERTEX
  5
113
100
AcDbEntity
  8
0
  6
CONTINUOUS
 62
   212
100
AcDbVertex
100
AcDb2dVertex
 10
7.5
 20
0.8117
 30
0.0
 40
0.0
 41
0.0
  0
VERTEX
  5
114
100
AcDbEntity
  8
0
  6
CONTINUOUS
 62
   212
100
AcDbVertex
100
AcDb2dVertex
 10
7.42854
 20
0.802696
 30
0.0
 40
0.0
 41
0.0
  0
VERTEX
  5
115
100
AcDbEntity
  8
0
  6
CONTINUOUS
 62
   212
100
AcDbVertex
100
AcDb2dVertex
 10
7.35709
 20
0.79337
 30
0.0
 40
0.0
 41
0.0
  0
VERTEX
  5
116
100
AcDbEntity
  8
0
  6
CONTINUOUS
 62
   212
100
AcDbVertex
100
AcDb2dVertex
 10
7.28565
 20
0.78373
 30
0.0
 40
0.0
 41
0.0
  0
VERTEX
  5
117
100
AcDbEntity
  8
0
  6
CONTINUOUS
 62
   212
100
AcDbVertex
100
AcDb2dVertex
 10
7.214222
 20
0.773776
 30
0.0
 40
0.0
 41
0.0
  0
VERTEX
  5
118
100
AcDbEntity
  8
0
  6
CONTINUOUS
 62
   212
100
AcDbVertex
100
AcDb2dVertex
 10
7.142803
 20
0.763518
 30
0.0
 40
0.0
 41
0.0
  0
VERTEX
  5
119
100
AcDbEntity
  8
0
  6
CONTINUOUS
 62
   212
100
AcDbVertex
100
AcDb2dVertex
 10
7.071396
 20
0.752958
 30
0.0
 40
0.0
 41
0.0
  0
VERTEX
  5
11A
100
AcDbEntity
  8
0
  6
CONTINUOUS
 62
   212
100
AcDbVertex
100
AcDb2dVertex
 10
7.0
 20
0.7421
 30
0.0
 40
0.0
 41
0.0
  0
VERTEX
  5
11B
100
AcDbEntity
  8
0
  6
CONTINUOUS
 62
   212
100
AcDbVertex
100
AcDb2dVertex
 10
6.928533
 20
0.730936
 30
0.0
 40
0.0
 41
0.0
  0
VERTEX
  5
11C
100
AcDbEntity
  8
0
  6
CONTINUOUS
 62
   212
100
AcDbVertex
100
AcDb2dVertex
 10
6.857078
 20
0.719474
 30
0.0
 40
0.0
 41
0.0
  0
VERTEX
  5
11D
100
AcDbEntity
  8
0
  6
CONTINUOUS
 62
   212
100
AcDbVertex
100
AcDb2dVertex
 10
6.785635
 20
0.707708
 30
0.0
 40
0.0
 41
0.0
  0
VERTEX
  5
11E
100
AcDbEntity
  8
0
  6
CONTINUOUS
 62
   212
100
AcDbVertex
100
AcDb2dVertex
 10
6.714206
 20
0.695634
 30
0.0
 40
0.0
 41
0.0
  0
VERTEX
  5
11F
100
AcDbEntity
  8
0
  6
CONTINUOUS
 62
   212
100
AcDbVertex
100
AcDb2dVertex
 10
6.642789
 20
0.683244
 30
0.0
 40
0.0
 41
0.0
  0
VERTEX
  5
120
100
AcDbEntity
  8
0
  6
CONTINUOUS
 62
   212
100
AcDbVertex
100
AcDb2dVertex
 10
6.571387
 20
0.670534
 30
0.0
 40
0.0
 41
0.0
  0
VERTEX
  5
121
100
AcDbEntity
  8
0
  6
CONTINUOUS
 62
   212
100
AcDbVertex
100
AcDb2dVertex
 10
6.5
 20
0.6575
 30
0.0
 40
0.0
 41
0.0
  0
VERTEX
  5
122
100
AcDbEntity
  8
0
  6
CONTINUOUS
 62
   212
100
AcDbVertex
100
AcDb2dVertex
 10
6.428524
 20
0.644116
 30
0.0
 40
0.0
 41
0.0
  0
VERTEX
  5
123
100
AcDbEntity
  8
0
  6
CONTINUOUS
 62
   212
100
AcDbVertex
100
AcDb2dVertex
 10
6.357064
 20
0.630406
 30
0.0
 40
0.0
 41
0.0
  0
VERTEX
  5
124
100
AcDbEntity
  8
0
  6
CONTINUOUS
 62
   212
100
AcDbVertex
100
AcDb2dVertex
 10
6.28562
 20
0.616372
 30
0.0
 40
0.0
 41
0.0
  0
VERTEX
  5
125
100
AcDbEntity
  8
0
  6
CONTINUOUS
 62
   212
100
AcDbVertex
100
AcDb2dVertex
 10
6.214191
 20
0.60202
 30
0.0
 40
0.0
 41
0.0
  0
VERTEX
  5
126
100
AcDbEntity
  8
0
  6
CONTINUOUS
 62
   212
100
AcDbVertex
100
AcDb2dVertex
 10
6.142778
 20
0.587354
 30
0.0
 40
0.0
 41
0.0
  0
VERTEX
  5
127
100
AcDbEntity
  8
0
  6
CONTINUOUS
 62
   212
100
AcDbVertex
100
AcDb2dVertex
 10
6.071381
 20
0.57238
 30
0.0
 40
0.0
 41
0.0
  0
VERTEX
  5
128
100
AcDbEntity
  8
0
  6
CONTINUOUS
 62
   212
100
AcDbVertex
100
AcDb2dVertex
 10
6.0
 20
0.5571
 30
0.0
 40
0.0
 41
0.0
  0
VERTEX
  5
129
100
AcDbEntity
  8
0
  6
CONTINUOUS
 62
   212
100
AcDbVertex
100
AcDb2dVertex
 10
5.92852
 20
0.541494
 30
0.0
 40
0.0
 41
0.0
  0
VERTEX
  5
12A
100
AcDbEntity
  8
0
  6
CONTINUOUS
 62
   212
100
AcDbVertex
100
AcDb2dVertex
 10
5.857056
 20
0.525588
 30
0.0
 40
0.0
 41
0.0
  0
VERTEX
  5
12B
100
AcDbEntity
  8
0
  6
CONTINUOUS
 62
   212
100
AcDbVertex
100
AcDb2dVertex
 10
5.785609
 20
0.509378
 30
0.0
 40
0.0
 41
0.0
  0
VERTEX
  5
12C
100
AcDbEntity
  8
0
  6
CONTINUOUS
 62
   212
100
AcDbVertex
100
AcDb2dVertex
 10
5.71418
 20
0.492864
 30
0.0
 40
0.0
 41
0.0
  0
VERTEX
  5
12D
100
AcDbEntity
  8
0
  6
CONTINUOUS
 62
   212
100
AcDbVertex
100
AcDb2dVertex
 10
5.642769
 20
0.476048
 30
0.0
 40
0.0
 41
0.0
  0
VERTEX
  5
12E
100
AcDbEntity
  8
0
  6
CONTINUOUS
 62
   212
100
AcDbVertex
100
AcDb2dVertex
 10
5.571375
 20
0.458926
 30
0.0
 40
0.0
 41
0.0
  0
VERTEX
  5
12F
100
AcDbEntity
  8
0
  6
CONTINUOUS
 62
   212
100
AcDbVertex
100
AcDb2dVertex
 10
5.5
 20
0.4415
 30
0.0
 40
0.0
 41
0.0
  0
VERTEX
  5
130
100
AcDbEntity
  8
0
  6
CONTINUOUS
 62
   212
100
AcDbVertex
100
AcDb2dVertex
 10
5.42851
 20
0.423734
 30
0.0
 40
0.0
 41
0.0
  0
VERTEX
  5
131
100
AcDbEntity
  8
0
  6
CONTINUOUS
 62
   212
100
AcDbVertex
100
AcDb2dVertex
 10
5.35704
 20
0.405656
 30
0.0
 40
0.0
 41
0.0
  0
VERTEX
  5
132
100
AcDbEntity
  8
0
  6
CONTINUOUS
 62
   212
100
AcDbVertex
100
AcDb2dVertex
 10
5.285589
 20
0.387266
 30
0.0
 40
0.0
 41
0.0
  0
VERTEX
  5
133
100
AcDbEntity
  8
0
  6
CONTINUOUS
 62
   212
100
AcDbVertex
100
AcDb2dVertex
 10
5.21416
 20
0.368558
 30
0.0
 40
0.0
 41
0.0
  0
VERTEX
  5
134
100
AcDbEntity
  8
0
  6
CONTINUOUS
 62
   212
100
AcDbVertex
100
AcDb2dVertex
 10
5.142751
 20
0.34953
 30
0.0
 40
0.0
 41
0.0
  0
VERTEX
  5
135
100
AcDbEntity
  8
0
  6
CONTINUOUS
 62
   212
100
AcDbVertex
100
AcDb2dVertex
 10
5.071364
 20
0.330178
 30
0.0
 40
0.0
 41
0.0
  0
VERTEX
  5
136
100
AcDbEntity
  8
0
  6
CONTINUOUS
 62
   212
100
AcDbVertex
100
AcDb2dVertex
 10
5.0
 20
0.3105
 30
0.0
 40
0.0
 41
0.0
  0
VERTEX
  5
137
100
AcDbEntity
  8
0
  6
CONTINUOUS
 62
   212
100
AcDbVertex
100
AcDb2dVertex
 10
4.928505
 20
0.29045
 30
0.0
 40
0.0
 41
0.0
  0
VERTEX
  5
138
100
AcDbEntity
  8
0
  6
CONTINUOUS
 62
   212
100
AcDbVertex
100
AcDb2dVertex
 10
4.857032
 20
0.270078
 30
0.0
 40
0.0
 41
0.0
  0
VERTEX
  5
139
100
AcDbEntity
  8
0
  6
CONTINUOUS
 62
   212
100
AcDbVertex
100
AcDb2dVertex
 10
4.785582
 20
0.249392
 30
0.0
 40
0.0
 41
0.0
  0
VERTEX
  5
13A
100
AcDbEntity
  8
0
  6
CONTINUOUS
 62
   212
100
AcDbVertex
100
AcDb2dVertex
 10
4.714154
 20
0.228402
 30
0.0
 40
0.0
 41
0.0
  0
VERTEX
  5
13B
100
AcDbEntity
  8
0
  6
CONTINUOUS
 62
   212
100
AcDbVertex
100
AcDb2dVertex
 10
4.642748
 20
0.207118
 30
0.0
 40
0.0
 41
0.0
  0
VERTEX
  5
13C
100
AcDbEntity
  8
0
  6
CONTINUOUS
 62
   212
100
AcDbVertex
100
AcDb2dVertex
 10
4.571364
 20
0.185548
 30
0.0
 40
0.0
 41
0.0
  0
VERTEX
  5
13D
100
AcDbEntity
  8
0
  6
CONTINUOUS
 62
   212
100
AcDbVertex
100
AcDb2dVertex
 10
4.5
 20
0.1637
 30
0.0
 40
0.0
 41
0.0
  0
VERTEX
  5
13E
100
AcDbEntity
  8
0
  6
CONTINUOUS
 62
   212
100
AcDbVertex
100
AcDb2dVertex
 10
4.464267
 20
0.152656
 30
0.0
 40
0.0
 41
0.0
  0
VERTEX
  5
13F
100
AcDbEntity
  8
0
  6
CONTINUOUS
 62
   212
100
AcDbVertex
100
AcDb2dVertex
 10
4.428539
 20
0.14154
 30
0.0
 40
0.0
 41
0.0
  0
VERTEX
  5
140
100
AcDbEntity
  8
0
  6
CONTINUOUS
 62
   212
100
AcDbVertex
100
AcDb2dVertex
 10
4.392817
 20
0.130346
 30
0.0
 40
0.0
 41
0.0
  0
VERTEX
  5
141
100
AcDbEntity
  8
0
  6
CONTINUOUS
 62
   212
100
AcDbVertex
100
AcDb2dVertex
 10
4.357102
 20
0.11907
 30
0.0
 40
0.0
 41
0.0
  0
VERTEX
  5
142
100
AcDbEntity
  8
0
  6
CONTINUOUS
 62
   212
100
AcDbVertex
100
AcDb2dVertex
 10
4.321394
 20
0.107708
 30
0.0
 40
0.0
 41
0.0
  0
VERTEX
  5
143
100
AcDbEntity
  8
0
  6
CONTINUOUS
 62
   212
100
AcDbVertex
100
AcDb2dVertex
 10
4.285693
 20
0.096252
 30
0.0
 40
0.0
 41
0.0
  0
VERTEX
  5
144
100
AcDbEntity
  8
0
  6
CONTINUOUS
 62
   212
100
AcDbVertex
100
AcDb2dVertex
 10
4.25
 20
0.0847
 30
0.0
 40
0.0
 41
0.0
  0
VERTEX
  5
145
100
AcDbEntity
  8
0
  6
CONTINUOUS
 62
   212
100
AcDbVertex
100
AcDb2dVertex
 10
4.21427
 20
0.073034
 30
0.0
 40
0.0
 41
0.0
  0
VERTEX
  5
146
100
AcDbEntity
  8
0
  6
CONTINUOUS
 62
   212
100
AcDbVertex
100
AcDb2dVertex
 10
4.178548
 20
0.06128
 30
0.0
 40
0.0
 41
0.0
  0
VERTEX
  5
147
100
AcDbEntity
  8
0
  6
CONTINUOUS
 62
   212
100
AcDbVertex
100
AcDb2dVertex
 10
4.142831
 20
0.049452
 30
0.0
 40
0.0
 41
0.0
  0
VERTEX
  5
148
100
AcDbEntity
  8
0
  6
CONTINUOUS
 62
   212
100
AcDbVertex
100
AcDb2dVertex
 10
4.107119
 20
0.037564
 30
0.0
 40
0.0
 41
0.0
  0
VERTEX
  5
149
100
AcDbEntity
  8
0
  6
CONTINUOUS
 62
   212
100
AcDbVertex
100
AcDb2dVertex
 10
4.071411
 20
0.025634
 30
0.0
 40
0.0
 41
0.0
  0
VERTEX
  5
14A
100
AcDbEntity
  8
0
  6
CONTINUOUS
 62
   212
100
AcDbVertex
100
AcDb2dVertex
 10
4.035705
 20
0.013674
 30
0.0
 40
0.0
 41
0.0
  0
VERTEX
  5
14B
100
AcDbEntity
  8
0
  6
CONTINUOUS
 62
   212
100
AcDbVertex
100
AcDb2dVertex
 10
4.0
 20
0.0017
 30
0.0
 40
0.0
 41
0.0
  0
SEQEND
  5
14C
100
AcDbEntity
  8
0
  0
POLYLINE
  5
14D
100
AcDbEntity
  8
0
  6
CONTINUOUS
 62
   212
100
AcDb2dPolyline
 66
     1
 10
0.0
 20
0.0
 30
0.0
 70
   128
  0
VERTEX
  5
14E
100
AcDbEntity
  8
0
  6
CONTINUOUS
 62
   212
100
AcDbVertex
100
AcDb2dVertex
 10
14.0
 20
-0.0649
 30
0.0
 40
0.0
 41
0.0
  0
VERTEX
  5
14F
100
AcDbEntity
  8
0
  6
CONTINUOUS
 62
   212
100
AcDbVertex
100
AcDb2dVertex
 10
13.95
 20
-0.0649
 30
0.0
 40
0.0
 41
0.0
  0
VERTEX
  5
150
100
AcDbEntity
  8
0
  6
CONTINUOUS
 62
   212
100
AcDbVertex
100
AcDb2dVertex
 10
13.925
 20
-0.0649
 30
0.0
 40
0.0
 41
0.0
  0
VERTEX
  5
151
100
AcDbEntity
  8
0
  6
CONTINUOUS
 62
   212
100
AcDbVertex
100
AcDb2dVertex
 10
13.875
 20
-0.0649
 30
0.0
 40
0.0
 41
0.0
  0
VERTEX
  5
152
100
AcDbEntity
  8
0
  6
CONTINUOUS
 62
   212
100
AcDbVertex
100
AcDb2dVertex
 10
13.75
 20
-0.0649
 30
0.0
 40
0.0
 41
0.0
  0
VERTEX
  5
153
100
AcDbEntity
  8
0
  6
CONTINUOUS
 62
   212
100
AcDbVertex
100
AcDb2dVertex
 10
13.5
 20
-0.0649
 30
0.0
 40
0.0
 41
0.0
  0
VERTEX
  5
154
100
AcDbEntity
  8
0
  6
CONTINUOUS
 62
   212
100
AcDbVertex
100
AcDb2dVertex
 10
13.25
 20
-0.0649
 30
0.0
 40
0.0
 41
0.0
  0
VERTEX
  5
155
100
AcDbEntity
  8
0
  6
CONTINUOUS
 62
   212
100
AcDbVertex
100
AcDb2dVertex
 10
13.0
 20
-0.0649
 30
0.0
 40
0.0
 41
0.0
  0
VERTEX
  5
156
100
AcDbEntity
  8
0
  6
CONTINUOUS
 62
   212
100
AcDbVertex
100
AcDb2dVertex
 10
12.5
 20
-0.0649
 30
0.0
 40
0.0
 41
0.0
  0
VERTEX
  5
157
100
AcDbEntity
  8
0
  6
CONTINUOUS
 62
   212
100
AcDbVertex
100
AcDb2dVertex
 10
12.0
 20
-0.0649
 30
0.0
 40
0.0
 41
0.0
  0
VERTEX
  5
158
100
AcDbEntity
  8
0
  6
CONTINUOUS
 62
   212
100
AcDbVertex
100
AcDb2dVertex
 10
11.5
 20
-0.0649
 30
0.0
 40
0.0
 41
0.0
  0
VERTEX
  5
159
100
AcDbEntity
  8
0
  6
CONTINUOUS
 62
   212
100
AcDbVertex
100
AcDb2dVertex
 10
11.0
 20
-0.0649
 30
0.0
 40
0.0
 41
0.0
  0
VERTEX
  5
15A
100
AcDbEntity
  8
0
  6
CONTINUOUS
 62
   212
100
AcDbVertex
100
AcDb2dVertex
 10
10.5
 20
-0.0649
 30
0.0
 40
0.0
 41
0.0
  0
VERTEX
  5
15B
100
AcDbEntity
  8
0
  6
CONTINUOUS
 62
   212
100
AcDbVertex
100
AcDb2dVertex
 10
10.0
 20
-0.0649
 30
0.0
 40
0.0
 41
0.0
  0
VERTEX
  5
15C
100
AcDbEntity
  8
0
  6
CONTINUOUS
 62
   212
100
AcDbVertex
100
AcDb2dVertex
 10
9.5
 20
-0.0649
 30
0.0
 40
0.0
 41
0.0
  0
VERTEX
  5
15D
100
AcDbEntity
  8
0
  6
CONTINUOUS
 62
   212
100
AcDbVertex
100
AcDb2dVertex
 10
9.0
 20
-0.0649
 30
0.0
 40
0.0
 41
0.0
  0
VERTEX
  5
15E
100
AcDbEntity
  8
0
  6
CONTINUOUS
 62
   212
100
AcDbVertex
100
AcDb2dVertex
 10
8.5
 20
-0.0649
 30
0.0
 40
0.0
 41
0.0
  0
VERTEX
  5
15F
100
AcDbEntity
  8
0
  6
CONTINUOUS
 62
   212
100
AcDbVertex
100
AcDb2dVertex
 10
8.0
 20
-0.0649
 30
0.0
 40
0.0
 41
0.0
  0
VERTEX
  5
160
100
AcDbEntity
  8
0
  6
CONTINUOUS
 62
   212
100
AcDbVertex
100
AcDb2dVertex
 10
7.5
 20
-0.0649
 30
0.0
 40
0.0
 41
0.0
  0
VERTEX
  5
161
100
AcDbEntity
  8
0
  6
CONTINUOUS
 62
   212
100
AcDbVertex
100
AcDb2dVertex
 10
7.0
 20
-0.0649
 30
0.0
 40
0.0
 41
0.0
  0
VERTEX
  5
162
100
AcDbEntity
  8
0
  6
CONTINUOUS
 62
   212
100
AcDbVertex
100
AcDb2dVertex
 10
6.5
 20
-0.0649
 30
0.0
 40
0.0
 41
0.0
  0
VERTEX
  5
163
100
AcDbEntity
  8
0
  6
CONTINUOUS
 62
   212
100
AcDbVertex
100
AcDb2dVertex
 10
6.0
 20
-0.0649
 30
0.0
 40
0.0
 41
0.0
  0
VERTEX
  5
164
100
AcDbEntity
  8
0
  6
CONTINUOUS
 62
   212
100
AcDbVertex
100
AcDb2dVertex
 10
5.5
 20
-0.0649
 30
0.0
 40
0.0
 41
0.0
  0
VERTEX
  5
165
100
AcDbEntity
  8
0
  6
CONTINUOUS
 62
   212
100
AcDbVertex
100
AcDb2dVertex
 10
5.0
 20
-0.0649
 30
0.0
 40
0.0
 41
0.0
  0
VERTEX
  5
166
100
AcDbEntity
  8
0
  6
CONTINUOUS
 62
   212
100
AcDbVertex
100
AcDb2dVertex
 10
4.5
 20
-0.0649
 30
0.0
 40
0.0
 41
0.0
  0
VERTEX
  5
167
100
AcDbEntity
  8
0
  6
CONTINUOUS
 62
   212
100
AcDbVertex
100
AcDb2dVertex
 10
4.25
 20
-0.0649
 30
0.0
 40
0.0
 41
0.0
  0
VERTEX
  5
168
100
AcDbEntity
  8
0
  6
CONTINUOUS
 62
   212
100
AcDbVertex
100
AcDb2dVertex
 10
4.0
 20
-0.0649
 30
0.0
 40
0.0
 41
0.0
  0
SEQEND
  5
169
100
AcDbEntity
  8
0
  0
POLYLINE
  5
16A
100
AcDbEntity
  8
0
  6
CONTINUOUS
 62
   212
100
AcDb2dPolyline
 66
     1
 10
0.0
 20
0.0
 30
0.0
 70
   128
  0
VERTEX
  5
16B
100
AcDbEntity
  8
0
  6
CONTINUOUS
 62
   212
100
AcDbVertex
100
AcDb2dVertex
 10
14.0
 20
-0.0649
 30
0.0
 40
0.0
 41
0.0
  0
VERTEX
  5
16C
100
AcDbEntity
  8
0
  6
CONTINUOUS
 62
   212
100
AcDbVertex
100
AcDb2dVertex
 10
4.0
 20
-0.0649
 30
0.0
 40
0.0
 41
0.0
  0
SEQEND
  5
16D
100
AcDbEntity
  8
0
  0
POLYLINE
  5
16E
100
AcDbEntity
  8
0
  6
CONTINUOUS
 62
   212
100
AcDb2dPolyline
 66
     1
 10
0.0
 20
0.0
 30
0.0
 70
   128
  0
VERTEX
  5
16F
100
AcDbEntity
  8
0
  6
CONTINUOUS
 62
   212
100
AcDbVertex
100
AcDb2dVertex
 10
13.95
 20
-0.0649
 30
0.0
 40
0.0
 41
0.0
  0
VERTEX
  5
170
100
AcDbEntity
  8
0
  6
CONTINUOUS
 62
   212
100
AcDbVertex
100
AcDb2dVertex
 10
13.95
 20
-0.1979
 30
0.0
 40
0.0
 41
0.0
  0
SEQEND
  5
171
100
AcDbEntity
  8
0
  0
POLYLINE
  5
172
100
AcDbEntity
  8
0
  6
CONTINUOUS
 62
   212
100
AcDb2dPolyline
 66
     1
 10
0.0
 20
0.0
 30
0.0
 70
   128
  0
VERTEX
  5
173
100
AcDbEntity
  8
0
  6
CONTINUOUS
 62
   212
100
AcDbVertex
100
AcDb2dVertex
 10
13.925
 20
-0.0649
 30
0.0
 40
0.0
 41
0.0
  0
VERTEX
  5
174
100
AcDbEntity
  8
0
  6
CONTINUOUS
 62
   212
100
AcDbVertex
100
AcDb2dVertex
 10
13.925
 20
-0.2273
 30
0.0
 40
0.0
 41
0.0
  0
SEQEND
  5
175
100
AcDbEntity
  8
0
  0
POLYLINE
  5
176
100
AcDbEntity
  8
0
  6
CONTINUOUS
 62
   212
100
AcDb2dPolyline
 66
     1
 10
0.0
 20
0.0
 30
0.0
 70
   128
  0
VERTEX
  5
177
100
AcDbEntity
  8
0
  6
CONTINUOUS
 62
   212
100
AcDbVertex
100
AcDb2dVertex
 10
13.875
 20
-0.0649
 30
0.0
 40
0.0
 41
0.0
  0
VERTEX
  5
178
100
AcDbEntity
  8
0
  6
CONTINUOUS
 62
   212
100
AcDbVertex
100
AcDb2dVertex
 10
13.875
 20
-0.2737
 30
0.0
 40
0.0
 41
0.0
  0
SEQEND
  5
179
100
AcDbEntity
  8
0
  0
POLYLINE
  5
17A
100
AcDbEntity
  8
0
  6
CONTINUOUS
 62
   212
100
AcDb2dPolyline
 66
     1
 10
0.0
 20
0.0
 30
0.0
 70
   128
  0
VERTEX
  5
17B
100
AcDbEntity
  8
0
  6
CONTINUOUS
 62
   212
100
AcDbVertex
100
AcDb2dVertex
 10
13.75
 20
-0.0649
 30
0.0
 40
0.0
 41
0.0
  0
VERTEX
  5
17C
100
AcDbEntity
  8
0
  6
CONTINUOUS
 62
   212
100
AcDbVertex
100
AcDb2dVertex
 10
13.75
 20
-0.3581
 30
0.0
 40
0.0
 41
0.0
  0
SEQEND
  5
17D
100
AcDbEntity
  8
0
  0
POLYLINE
  5
17E
100
AcDbEntity
  8
0
  6
CONTINUOUS
 62
   212
100
AcDb2dPolyline
 66
     1
 10
0.0
 20
0.0
 30
0.0
 70
   128
  0
VERTEX
  5
17F
100
AcDbEntity
  8
0
  6
CONTINUOUS
 62
   212
100
AcDbVertex
100
AcDb2dVertex
 10
13.5
 20
-0.0649
 30
0.0
 40
0.0
 41
0.0
  0
VERTEX
  5
180
100
AcDbEntity
  8
0
  6
CONTINUOUS
 62
   212
100
AcDbVertex
100
AcDb2dVertex
 10
13.5
 20
-0.4781
 30
0.0
 40
0.0
 41
0.0
  0
SEQEND
  5
181
100
AcDbEntity
  8
0
  0
POLYLINE
  5
182
100
AcDbEntity
  8
0
  6
CONTINUOUS
 62
   212
100
AcDb2dPolyline
 66
     1
 10
0.0
 20
0.0
 30
0.0
 70
   128
  0
VERTEX
  5
183
100
AcDbEntity
  8
0
  6
CONTINUOUS
 62
   212
100
AcDbVertex
100
AcDb2dVertex
 10
13.25
 20
-0.0649
 30
0.0
 40
0.0
 41
0.0
  0
VERTEX
  5
184
100
AcDbEntity
  8
0
  6
CONTINUOUS
 62
   212
100
AcDbVertex
100
AcDb2dVertex
 10
13.25
 20
-0.5699
 30
0.0
 40
0.0
 41
0.0
  0
SEQEND
  5
185
100
AcDbEntity
  8
0
  0
POLYLINE
  5
186
100
AcDbEntity
  8
0
  6
CONTINUOUS
 62
   212
100
AcDb2dPolyline
 66
     1
 10
0.0
 20
0.0
 30
0.0
 70
   128
  0
VERTEX
  5
187
100
AcDbEntity
  8
0
  6
CONTINUOUS
 62
   212
100
AcDbVertex
100
AcDb2dVertex
 10
13.0
 20
-0.0649
 30
0.0
 40
0.0
 41
0.0
  0
VERTEX
  5
188
100
AcDbEntity
  8
0
  6
CONTINUOUS
 62
   212
100
AcDbVertex
100
AcDb2dVertex
 10
13.0
 20
-0.6463
 30
0.0
 40
0.0
 41
0.0
  0
SEQEND
  5
189
100
AcDbEntity
  8
0
  0
POLYLINE
  5
18A
100
AcDbEntity
  8
0
  6
CONTINUOUS
 62
   212
100
AcDb2dPolyline
 66
     1
 10
0.0
 20
0.0
 30
0.0
 70
   128
  0
VERTEX
  5
18B
100
AcDbEntity
  8
0
  6
CONTINUOUS
 62
   212
100
AcDbVertex
100
AcDb2dVertex
 10
12.5
 20
-0.0649
 30
0.0
 40
0.0
 41
0.0
  0
VERTEX
  5
18C
100
AcDbEntity
  8
0
  6
CONTINUOUS
 62
   212
100
AcDbVertex
100
AcDb2dVertex
 10
12.5
 20
-0.7691
 30
0.0
 40
0.0
 41
0.0
  0
SEQEND
  5
18D
100
AcDbEntity
  8
0
  0
POLYLINE
  5
18E
100
AcDbEntity
  8
0
  6
CONTINUOUS
 62
   212
100
AcDb2dPolyline
 66
     1
 10
0.0
 20
0.0
 30
0.0
 70
   128
  0
VERTEX
  5
18F
100
AcDbEntity
  8
0
  6
CONTINUOUS
 62
   212
100
AcDbVertex
100
AcDb2dVertex
 10
12.0
 20
-0.0649
 30
0.0
 40
0.0
 41
0.0
  0
VERTEX
  5
190
100
AcDbEntity
  8
0
  6
CONTINUOUS
 62
   212
100
AcDbVertex
100
AcDb2dVertex
 10
12.0
 20
-0.8649
 30
0.0
 40
0.0
 41
0.0
  0
SEQEND
  5
191
100
AcDbEntity
  8
0
  0
POLYLINE
  5
192
100
AcDbEntity
  8
0
  6
CONTINUOUS
 62
   212
100
AcDb2dPolyline
 66
     1
 10
0.0
 20
0.0
 30
0.0
 70
   128
  0
VERTEX
  5
193
100
AcDbEntity
  8
0
  6
CONTINUOUS
 62
   212
100
AcDbVertex
100
AcDb2dVertex
 10
11.5
 20
-0.0649
 30
0.0
 40
0.0
 41
0.0
  0
VERTEX
  5
194
100
AcDbEntity
  8
0
  6
CONTINUOUS
 62
   212
100
AcDbVertex
100
AcDb2dVertex
 10
11.5
 20
-0.9375
 30
0.0
 40
0.0
 41
0.0
  0
SEQEND
  5
195
100
AcDbEntity
  8
0
  0
POLYLINE
  5
196
100
AcDbEntity
  8
0
  6
CONTINUOUS
 62
   212
100
AcDb2dPolyline
 66
     1
 10
0.0
 20
0.0
 30
0.0
 70
   128
  0
VERTEX
  5
197
100
AcDbEntity
  8
0
  6
CONTINUOUS
 62
   212
100
AcDbVertex
100
AcDb2dVertex
 10
11.0
 20
-0.0649
 30
0.0
 40
0.0
 41
0.0
  0
VERTEX
  5
198
100
AcDbEntity
  8
0
  6
CONTINUOUS
 62
   212
100
AcDbVertex
100
AcDb2dVertex
 10
11.0
 20
-0.9923
 30
0.0
 40
0.0
 41
0.0
  0
SEQEND
  5
199
100
AcDbEntity
  8
0
  0
POLYLINE
  5
19A
100
AcDbEntity
  8
0
  6
CONTINUOUS
 62
   212
100
AcDb2dPolyline
 66
     1
 10
0.0
 20
0.0
 30
0.0
 70
   128
  0
VERTEX
  5
19B
100
AcDbEntity
  8
0
  6
CONTINUOUS
 62
   212
100
AcDbVertex
100
AcDb2dVertex
 10
10.5
 20
-0.0649
 30
0.0
 40
0.0
 41
0.0
  0
VERTEX
  5
19C
100
AcDbEntity
  8
0
  6
CONTINUOUS
 62
   212
100
AcDbVertex
100
AcDb2dVertex
 10
10.5
 20
-1.0313
 30
0.0
 40
0.0
 41
0.0
  0
SEQEND
  5
19D
100
AcDbEntity
  8
0
  0
POLYLINE
  5
19E
100
AcDbEntity
  8
0
  6
CONTINUOUS
 62
   212
100
AcDb2dPolyline
 66
     1
 10
0.0
 20
0.0
 30
0.0
 70
   128
  0
VERTEX
  5
19F
100
AcDbEntity
  8
0
  6
CONTINUOUS
 62
   212
100
AcDbVertex
100
AcDb2dVertex
 10
10.0
 20
-0.0649
 30
0.0
 40
0.0
 41
0.0
  0
VERTEX
  5
1A0
100
AcDbEntity
  8
0
  6
CONTINUOUS
 62
   212
100
AcDbVertex
100
AcDb2dVertex
 10
10.0
 20
-1.0553
 30
0.0
 40
0.0
 41
0.0
  0
SEQEND
  5
1A1
100
AcDbEntity
  8
0
  0
POLYLINE
  5
1A2
100
AcDbEntity
  8
0
  6
CONTINUOUS
 62
   212
100
AcDb2dPolyline
 66
     1
 10
0.0
 20
0.0
 30
0.0
 70
   128
  0
VERTEX
  5
1A3
100
AcDbEntity
  8
0
  6
CONTINUOUS
 62
   212
100
AcDbVertex
100
AcDb2dVertex
 10
9.5
 20
-0.0649
 30
0.0
 40
0.0
 41
0.0
  0
VERTEX
  5
1A4
100
AcDbEntity
  8
0
  6
CONTINUOUS
 62
   212
100
AcDbVertex
100
AcDb2dVertex
 10
9.5
 20
-1.0649
 30
0.0
 40
0.0
 41
0.0
  0
SEQEND
  5
1A5
100
AcDbEntity
  8
0
  0
POLYLINE
  5
1A6
100
AcDbEntity
  8
0
  6
CONTINUOUS
 62
   212
100
AcDb2dPolyline
 66
     1
 10
0.0
 20
0.0
 30
0.0
 70
   128
  0
VERTEX
  5
1A7
100
AcDbEntity
  8
0
  6
CONTINUOUS
 62
   212
100
AcDbVertex
100
AcDb2dVertex
 10
9.0
 20
-0.0649
 30
0.0
 40
0.0
 41
0.0
  0
VERTEX
  5
1A8
100
AcDbEntity
  8
0
  6
CONTINUOUS
 62
   212
100
AcDbVertex
100
AcDb2dVertex
 10
9.0
 20
-1.0573
 30
0.0
 40
0.0
 41
0.0
  0
SEQEND
  5
1A9
100
AcDbEntity
  8
0
  0
POLYLINE
  5
1AA
100
AcDbEntity
  8
0
  6
CONTINUOUS
 62
   212
100
AcDb2dPolyline
 66
     1
 10
0.0
 20
0.0
 30
0.0
 70
   128
  0
VERTEX
  5
1AB
100
AcDbEntity
  8
0
  6
CONTINUOUS
 62
   212
100
AcDbVertex
100
AcDb2dVertex
 10
8.5
 20
-0.0649
 30
0.0
 40
0.0
 41
0.0
  0
VERTEX
  5
1AC
100
AcDbEntity
  8
0
  6
CONTINUOUS
 62
   212
100
AcDbVertex
100
AcDb2dVertex
 10
8.5
 20
-1.0341
 30
0.0
 40
0.0
 41
0.0
  0
SEQEND
  5
1AD
100
AcDbEntity
  8
0
  0
POLYLINE
  5
1AE
100
AcDbEntity
  8
0
  6
CONTINUOUS
 62
   212
100
AcDb2dPolyline
 66
     1
 10
0.0
 20
0.0
 30
0.0
 70
   128
  0
VERTEX
  5
1AF
100
AcDbEntity
  8
0
  6
CONTINUOUS
 62
   212
100
AcDbVertex
100
AcDb2dVertex
 10
8.0
 20
-0.0649
 30
0.0
 40
0.0
 41
0.0
  0
VERTEX
  5
1B0
100
AcDbEntity
  8
0
  6
CONTINUOUS
 62
   212
100
AcDbVertex
100
AcDb2dVertex
 10
8.0
 20
-0.9955
 30
0.0
 40
0.0
 41
0.0
  0
SEQEND
  5
1B1
100
AcDbEntity
  8
0
  0
POLYLINE
  5
1B2
100
AcDbEntity
  8
0
  6
CONTINUOUS
 62
   212
100
AcDb2dPolyline
 66
     1
 10
0.0
 20
0.0
 30
0.0
 70
   128
  0
VERTEX
  5
1B3
100
AcDbEntity
  8
0
  6
CONTINUOUS
 62
   212
100
AcDbVertex
100
AcDb2dVertex
 10
7.5
 20
-0.0649
 30
0.0
 40
0.0
 41
0.0
  0
VERTEX
  5
1B4
100
AcDbEntity
  8
0
  6
CONTINUOUS
 62
   212
100
AcDbVertex
100
AcDb2dVertex
 10
7.5
 20
-0.9415
 30
0.0
 40
0.0
 41
0.0
  0
SEQEND
  5
1B5
100
AcDbEntity
  8
0
  0
POLYLINE
  5
1B6
100
AcDbEntity
  8
0
  6
CONTINUOUS
 62
   212
100
AcDb2dPolyline
 66
     1
 10
0.0
 20
0.0
 30
0.0
 70
   128
  0
VERTEX
  5
1B7
100
AcDbEntity
  8
0
  6
CONTINUOUS
 62
   212
100
AcDbVertex
100
AcDb2dVertex
 10
7.0
 20
-0.0649
 30
0.0
 40
0.0
 41
0.0
  0
VERTEX
  5
1B8
100
AcDbEntity
  8
0
  6
CONTINUOUS
 62
   212
100
AcDbVertex
100
AcDb2dVertex
 10
7.0
 20
-0.8719
 30
0.0
 40
0.0
 41
0.0
  0
SEQEND
  5
1B9
100
AcDbEntity
  8
0
  0
POLYLINE
  5
1BA
100
AcDbEntity
  8
0
  6
CONTINUOUS
 62
   212
100
AcDb2dPolyline
 66
     1
 10
0.0
 20
0.0
 30
0.0
 70
   128
  0
VERTEX
  5
1BB
100
AcDbEntity
  8
0
  6
CONTINUOUS
 62
   212
100
AcDbVertex
100
AcDb2dVertex
 10
6.5
 20
-0.0649
 30
0.0
 40
0.0
 41
0.0
  0
VERTEX
  5
1BC
100
AcDbEntity
  8
0
  6
CONTINUOUS
 62
   212
100
AcDbVertex
100
AcDb2dVertex
 10
6.5
 20
-0.7873
 30
0.0
 40
0.0
 41
0.0
  0
SEQEND
  5
1BD
100
AcDbEntity
  8
0
  0
POLYLINE
  5
1BE
100
AcDbEntity
  8
0
  6
CONTINUOUS
 62
   212
100
AcDb2dPolyline
 66
     1
 10
0.0
 20
0.0
 30
0.0
 70
   128
  0
VERTEX
  5
1BF
100
AcDbEntity
  8
0
  6
CONTINUOUS
 62
   212
100
AcDbVertex
100
AcDb2dVertex
 10
6.0
 20
-0.0649
 30
0.0
 40
0.0
 41
0.0
  0
VERTEX
  5
1C0
100
AcDbEntity
  8
0
  6
CONTINUOUS
 62
   212
100
AcDbVertex
100
AcDb2dVertex
 10
6.0
 20
-0.6869
 30
0.0
 40
0.0
 41
0.0
  0
SEQEND
  5
1C1
100
AcDbEntity
  8
0
  0
POLYLINE
  5
1C2
100
AcDbEntity
  8
0
  6
CONTINUOUS
 62
   212
100
AcDb2dPolyline
 66
     1
 10
0.0
 20
0.0
 30
0.0
 70
   128
  0
VERTEX
  5
1C3
100
AcDbEntity
  8
0
  6
CONTINUOUS
 62
   212
100
AcDbVertex
100
AcDb2dVertex
 10
5.5
 20
-0.0649
 30
0.0
 40
0.0
 41
0.0
  0
VERTEX
  5
1C4
100
AcDbEntity
  8
0
  6
CONTINUOUS
 62
   212
100
AcDbVertex
100
AcDb2dVertex
 10
5.5
 20
-0.5713
 30
0.0
 40
0.0
 41
0.0
  0
SEQEND
  5
1C5
100
AcDbEntity
  8
0
  0
POLYLINE
  5
1C6
100
AcDbEntity
  8
0
  6
CONTINUOUS
 62
   212
100
AcDb2dPolyline
 66
     1
 10
0.0
 20
0.0
 30
0.0
 70
   128
  0
VERTEX
  5
1C7
100
AcDbEntity
  8
0
  6
CONTINUOUS
 62
   212
100
AcDbVertex
100
AcDb2dVertex
 10
5.0
 20
-0.0649
 30
0.0
 40
0.0
 41
0.0
  0
VERTEX
  5
1C8
100
AcDbEntity
  8
0
  6
CONTINUOUS
 62
   212
100
AcDbVertex
100
AcDb2dVertex
 10
5.0
 20
-0.4403
 30
0.0
 40
0.0
 41
0.0
  0
SEQEND
  5
1C9
100
AcDbEntity
  8
0
  0
POLYLINE
  5
1CA
100
AcDbEntity
  8
0
  6
CONTINUOUS
 62
   212
100
AcDb2dPolyline
 66
     1
 10
0.0
 20
0.0
 30
0.0
 70
   128
  0
VERTEX
  5
1CB
100
AcDbEntity
  8
0
  6
CONTINUOUS
 62
   212
100
AcDbVertex
100
AcDb2dVertex
 10
4.5
 20
-0.0649
 30
0.0
 40
0.0
 41
0.0
  0
VERTEX
  5
1CC
100
AcDbEntity
  8
0
  6
CONTINUOUS
 62
   212
100
AcDbVertex
100
AcDb2dVertex
 10
4.5
 20
-0.2935
 30
0.0
 40
0.0
 41
0.0
  0
SEQEND
  5
1CD
100
AcDbEntity
  8
0
  0
POLYLINE
  5
1CE
100
AcDbEntity
  8
0
  6
CONTINUOUS
 62
   212
100
AcDb2dPolyline
 66
     1
 10
0.0
 20
0.0
 30
0.0
 70
   128
  0
VERTEX
  5
1CF
100
AcDbEntity
  8
0
  6
CONTINUOUS
 62
   212
100
AcDbVertex
100
AcDb2dVertex
 10
4.25
 20
-0.0649
 30
0.0
 40
0.0
 41
0.0
  0
VERTEX
  5
1D0
100
AcDbEntity
  8
0
  6
CONTINUOUS
 62
   212
100
AcDbVertex
100
AcDb2dVertex
 10
4.25
 20
-0.2145
 30
0.0
 40
0.0
 41
0.0
  0
SEQEND
  5
1D1
100
AcDbEntity
  8
0
  0
POLYLINE
  5
1D2
100
AcDbEntity
  8
0
  6
CONTINUOUS
 62
   212
100
AcDb2dPolyline
 66
     1
 10
0.0
 20
0.0
 30
0.0
 70
   128
  0
VERTEX
  5
1D3
100
AcDbEntity
  8
0
  6
CONTINUOUS
 62
   212
100
AcDbVertex
100
AcDb2dVertex
 10
4.0
 20
-0.0649
 30
0.0
 40
0.0
 41
0.0
  0
VERTEX
  5
1D4
100
AcDbEntity
  8
0
  6
CONTINUOUS
 62
   212
100
AcDbVertex
100
AcDb2dVertex
 10
4.0
 20
-0.1315
 30
0.0
 40
0.0
 41
0.0
  0
SEQEND
  5
1D5
100
AcDbEntity
  8
0
  0
POLYLINE
  5
1D6
100
AcDbEntity
  8
0
  6
CONTINUOUS
 62
   212
100
AcDb2dPolyline
 66
     1
 10
0.0
 20
0.0
 30
0.0
 70
   128
  0
VERTEX
  5
1D7
100
AcDbEntity
  8
0
  6
CONTINUOUS
 62
   212
100
AcDbVertex
100
AcDb2dVertex
 10
14.0
 20
-0.0649
 30
0.0
 40
0.0
 41
0.0
  0
VERTEX
  5
1D8
100
AcDbEntity
  8
0
  6
CONTINUOUS
 62
   212
100
AcDbVertex
100
AcDb2dVertex
 10
13.99398
 20
-0.08637
 30
0.0
 40
0.0
 41
0.0
  0
VERTEX
  5
1D9
100
AcDbEntity
  8
0
  6
CONTINUOUS
 62
   212
100
AcDbVertex
100
AcDb2dVertex
 10
13.987819
 20
-0.10753
 30
0.0
 40
0.0
 41
0.0
  0
VERTEX
  5
1DA
100
AcDbEntity
  8
0
  6
CONTINUOUS
 62
   212
100
AcDbVertex
100
AcDb2dVertex
 10
13.981378
 20
-0.128074
 30
0.0
 40
0.0
 41
0.0
  0
VERTEX
  5
1DB
100
AcDbEntity
  8
0
  6
CONTINUOUS
 62
   212
100
AcDbVertex
100
AcDb2dVertex
 10
13.974515
 20
-0.14769
 30
0.0
 40
0.0
 41
0.0
  0
VERTEX
  5
1DC
100
AcDbEntity
  8
0
  6
CONTINUOUS
 62
   212
100
AcDbVertex
100
AcDb2dVertex
 10
13.967092
 20
-0.166074
 30
0.0
 40
0.0
 41
0.0
  0
VERTEX
  5
1DD
100
AcDbEntity
  8
0
  6
CONTINUOUS
 62
   212
100
AcDbVertex
100
AcDb2dVertex
 10
13.958967
 20
-0.182912
 30
0.0
 40
0.0
 41
0.0
  0
VERTEX
  5
1DE
100
AcDbEntity
  8
0
  6
CONTINUOUS
 62
   212
100
AcDbVertex
100
AcDb2dVertex
 10
13.95
 20
-0.1979
 30
0.0
 40
0.0
 41
0.0
  0
VERTEX
  5
1DF
100
AcDbEntity
  8
0
  6
CONTINUOUS
 62
   212
100
AcDbVertex
100
AcDb2dVertex
 10
13.946654
 20
-0.20264
 30
0.0
 40
0.0
 41
0.0
  0
VERTEX
  5
1E0
100
AcDbEntity
  8
0
  6
CONTINUOUS
 62
   212
100
AcDbVertex
100
AcDb2dVertex
 10
13.943206
 20
-0.207148
 30
0.0
 40
0.0
 41
0.0
  0
VERTEX
  5
1E1
100
AcDbEntity
  8
0
  6
CONTINUOUS
 62
   212
100
AcDbVertex
100
AcDb2dVertex
 10
13.939671
 20
-0.211456
 30
0.0
 40
0.0
 41
0.0
  0
VERTEX
  5
1E2
100
AcDbEntity
  8
0
  6
CONTINUOUS
 62
   212
100
AcDbVertex
100
AcDb2dVertex
 10
13.936067
 20
-0.215594
 30
0.0
 40
0.0
 41
0.0
  0
VERTEX
  5
1E3
100
AcDbEntity
  8
0
  6
CONTINUOUS
 62
   212
100
AcDbVertex
100
AcDb2dVertex
 10
13.932409
 20
-0.219592
 30
0.0
 40
0.0
 41
0.0
  0
VERTEX
  5
1E4
100
AcDbEntity
  8
0
  6
CONTINUOUS
 62
   212
100
AcDbVertex
100
AcDb2dVertex
 10
13.928715
 20
-0.223484
 30
0.0
 40
0.0
 41
0.0
  0
VERTEX
  5
1E5
100
AcDbEntity
  8
0
  6
CONTINUOUS
 62
   212
100
AcDbVertex
100
AcDb2dVertex
 10
13.925
 20
-0.2273
 30
0.0
 40
0.0
 41
0.0
  0
VERTEX
  5
1E6
100
AcDbEntity
  8
0
  6
CONTINUOUS
 62
   212
100
AcDbVertex
100
AcDb2dVertex
 10
13.917924
 20
-0.234416
 30
0.0
 40
0.0
 41
0.0
  0
VERTEX
  5
1E7
100
AcDbEntity
  8
0
  6
CONTINUOUS
 62
   212
100
AcDbVertex
100
AcDb2dVertex
 10
13.910831
 20
-0.24137
 30
0.0
 40
0.0
 41
0.0
  0
VERTEX
  5
1E8
100
AcDbEntity
  8
0
  6
CONTINUOUS
 62
   212
100
AcDbVertex
100
AcDb2dVertex
 10
13.903718
 20
-0.248158
 30
0.0
 40
0.0
 41
0.0
  0
VERTEX
  5
1E9
100
AcDbEntity
  8
0
  6
CONTINUOUS
 62
   212
100
AcDbVertex
100
AcDb2dVertex
 10
13.896581
 20
-0.254786
 30
0.0
 40
0.0
 41
0.0
  0
VERTEX
  5
1EA
100
AcDbEntity
  8
0
  6
CONTINUOUS
 62
   212
100
AcDbVertex
100
AcDb2dVertex
 10
13.889419
 20
-0.261252
 30
0.0
 40
0.0
 41
0.0
  0
VERTEX
  5
1EB
100
AcDbEntity
  8
0
  6
CONTINUOUS
 62
   212
100
AcDbVertex
100
AcDb2dVertex
 10
13.882226
 20
-0.267556
 30
0.0
 40
0.0
 41
0.0
  0
VERTEX
  5
1EC
100
AcDbEntity
  8
0
  6
CONTINUOUS
 62
   212
100
AcDbVertex
100
AcDb2dVertex
 10
13.875
 20
-0.2737
 30
0.0
 40
0.0
 41
0.0
  0
VERTEX
  5
1ED
100
AcDbEntity
  8
0
  6
CONTINUOUS
 62
   212
100
AcDbVertex
100
AcDb2dVertex
 10
13.857562
 20
-0.287772
 30
0.0
 40
0.0
 41
0.0
  0
VERTEX
  5
1EE
100
AcDbEntity
  8
0
  6
CONTINUOUS
 62
   212
100
AcDbVertex
100
AcDb2dVertex
 10
13.839942
 20
-0.30102
 30
0.0
 40
0.0
 41
0.0
  0
VERTEX
  5
1EF
100
AcDbEntity
  8
0
  6
CONTINUOUS
 62
   212
100
AcDbVertex
100
AcDb2dVertex
 10
13.822164
 20
-0.313534
 30
0.0
 40
0.0
 41
0.0
  0
VERTEX
  5
1F0
100
AcDbEntity
  8
0
  6
CONTINUOUS
 62
   212
100
AcDbVertex
100
AcDb2dVertex
 10
13.804256
 20
-0.325408
 30
0.0
 40
0.0
 41
0.0
  0
VERTEX
  5
1F1
100
AcDbEntity
  8
0
  6
CONTINUOUS
 62
   212
100
AcDbVertex
100
AcDb2dVertex
 10
13.786241
 20
-0.336734
 30
0.0
 40
0.0
 41
0.0
  0
VERTEX
  5
1F2
100
AcDbEntity
  8
0
  6
CONTINUOUS
 62
   212
100
AcDbVertex
100
AcDb2dVertex
 10
13.768148
 20
-0.3476
 30
0.0
 40
0.0
 41
0.0
  0
VERTEX
  5
1F3
100
AcDbEntity
  8
0
  6
CONTINUOUS
 62
   212
100
AcDbVertex
100
AcDb2dVertex
 10
13.75
 20
-0.3581
 30
0.0
 40
0.0
 41
0.0
  0
VERTEX
  5
1F4
100
AcDbEntity
  8
0
  6
CONTINUOUS
 62
   212
100
AcDbVertex
100
AcDb2dVertex
 10
13.714547
 20
-0.377754
 30
0.0
 40
0.0
 41
0.0
  0
VERTEX
  5
1F5
100
AcDbEntity
  8
0
  6
CONTINUOUS
 62
   212
100
AcDbVertex
100
AcDb2dVertex
 10
13.678996
 20
-0.396444
 30
0.0
 40
0.0
 41
0.0
  0
VERTEX
  5
1F6
100
AcDbEntity
  8
0
  6
CONTINUOUS
 62
   212
100
AcDbVertex
100
AcDb2dVertex
 10
13.643352
 20
-0.414242
 30
0.0
 40
0.0
 41
0.0
  0
VERTEX
  5
1F7
100
AcDbEntity
  8
0
  6
CONTINUOUS
 62
   212
100
AcDbVertex
100
AcDb2dVertex
 10
13.607624
 20
-0.43123
 30
0.0
 40
0.0
 41
0.0
  0
VERTEX
  5
1F8
100
AcDbEntity
  8
0
  6
CONTINUOUS
 62
   212
100
AcDbVertex
100
AcDb2dVertex
 10
13.571817
 20
-0.447484
 30
0.0
 40
0.0
 41
0.0
  0
VERTEX
  5
1F9
100
AcDbEntity
  8
0
  6
CONTINUOUS
 62
   212
100
AcDbVertex
100
AcDb2dVertex
 10
13.53594
 20
-0.463082
 30
0.0
 40
0.0
 41
0.0
  0
VERTEX
  5
1FA
100
AcDbEntity
  8
0
  6
CONTINUOUS
 62
   212
100
AcDbVertex
100
AcDb2dVertex
 10
13.5
 20
-0.4781
 30
0.0
 40
0.0
 41
0.0
  0
VERTEX
  5
1FB
100
AcDbEntity
  8
0
  6
CONTINUOUS
 62
   212
100
AcDbVertex
100
AcDb2dVertex
 10
13.464412
 20
-0.492448
 30
0.0
 40
0.0
 41
0.0
  0
VERTEX
  5
1FC
100
AcDbEntity
  8
0
  6
CONTINUOUS
 62
   212
100
AcDbVertex
100
AcDb2dVertex
 10
13.428774
 20
-0.506336
 30
0.0
 40
0.0
 41
0.0
  0
VERTEX
  5
1FD
100
AcDbEntity
  8
0
  6
CONTINUOUS
 62
   212
100
AcDbVertex
100
AcDb2dVertex
 10
13.393091
 20
-0.519792
 30
0.0
 40
0.0
 41
0.0
  0
VERTEX
  5
1FE
100
AcDbEntity
  8
0
  6
CONTINUOUS
 62
   212
100
AcDbVertex
100
AcDb2dVertex
 10
13.357367
 20
-0.532848
 30
0.0
 40
0.0
 41
0.0
  0
VERTEX
  5
1FF
100
AcDbEntity
  8
0
  6
CONTINUOUS
 62
   212
100
AcDbVertex
100
AcDb2dVertex
 10
13.321607
 20
-0.545532
 30
0.0
 40
0.0
 41
0.0
  0
VERTEX
  5
200
100
AcDbEntity
  8
0
  6
CONTINUOUS
 62
   212
100
AcDbVertex
100
AcDb2dVertex
 10
13.285816
 20
-0.557872
 30
0.0
 40
0.0
 41
0.0
  0
VERTEX
  5
201
100
AcDbEntity
  8
0
  6
CONTINUOUS
 62
   212
100
AcDbVertex
100
AcDb2dVertex
 10
13.25
 20
-0.5699
 30
0.0
 40
0.0
 41
0.0
  0
VERTEX
  5
202
100
AcDbEntity
  8
0
  6
CONTINUOUS
 62
   212
100
AcDbVertex
100
AcDb2dVertex
 10
13.214342
 20
-0.581582
 30
0.0
 40
0.0
 41
0.0
  0
VERTEX
  5
203
100
AcDbEntity
  8
0
  6
CONTINUOUS
 62
   212
100
AcDbVertex
100
AcDb2dVertex
 10
13.178664
 20
-0.592992
 30
0.0
 40
0.0
 41
0.0
  0
VERTEX
  5
204
100
AcDbEntity
  8
0
  6
CONTINUOUS
 62
   212
100
AcDbVertex
100
AcDb2dVertex
 10
13.142966
 20
-0.60414
 30
0.0
 40
0.0
 41
0.0
  0
VERTEX
  5
205
100
AcDbEntity
  8
0
  6
CONTINUOUS
 62
   212
100
AcDbVertex
100
AcDb2dVertex
 10
13.10725
 20
-0.615034
 30
0.0
 40
0.0
 41
0.0
  0
VERTEX
  5
206
100
AcDbEntity
  8
0
  6
CONTINUOUS
 62
   212
100
AcDbVertex
100
AcDb2dVertex
 10
13.071517
 20
-0.625688
 30
0.0
 40
0.0
 41
0.0
  0
VERTEX
  5
207
100
AcDbEntity
  8
0
  6
CONTINUOUS
 62
   212
100
AcDbVertex
100
AcDb2dVertex
 10
13.035767
 20
-0.636106
 30
0.0
 40
0.0
 41
0.0
  0
VERTEX
  5
208
100
AcDbEntity
  8
0
  6
CONTINUOUS
 62
   212
100
AcDbVertex
100
AcDb2dVertex
 10
13.0
 20
-0.6463
 30
0.0
 40
0.0
 41
0.0
  0
VERTEX
  5
209
100
AcDbEntity
  8
0
  6
CONTINUOUS
 62
   212
100
AcDbVertex
100
AcDb2dVertex
 10
12.928712
 20
-0.665972
 30
0.0
 40
0.0
 41
0.0
  0
VERTEX
  5
20A
100
AcDbEntity
  8
0
  6
CONTINUOUS
 62
   212
100
AcDbVertex
100
AcDb2dVertex
 10
12.857368
 20
-0.684846
 30
0.0
 40
0.0
 41
0.0
  0
VERTEX
  5
20B
100
AcDbEntity
  8
0
  6
CONTINUOUS
 62
   212
100
AcDbVertex
100
AcDb2dVertex
 10
12.785974
 20
-0.702976
 30
0.0
 40
0.0
 41
0.0
  0
VERTEX
  5
20C
100
AcDbEntity
  8
0
  6
CONTINUOUS
 62
   212
100
AcDbVertex
100
AcDb2dVertex
 10
12.714535
 20
-0.720412
 30
0.0
 40
0.0
 41
0.0
  0
VERTEX
  5
20D
100
AcDbEntity
  8
0
  6
CONTINUOUS
 62
   212
100
AcDbVertex
100
AcDb2dVertex
 10
12.643056
 20
-0.73721
 30
0.0
 40
0.0
 41
0.0
  0
VERTEX
  5
20E
100
AcDbEntity
  8
0
  6
CONTINUOUS
 62
   212
100
AcDbVertex
100
AcDb2dVertex
 10
12.571543
 20
-0.753422
 30
0.0
 40
0.0
 41
0.0
  0
VERTEX
  5
20F
100
AcDbEntity
  8
0
  6
CONTINUOUS
 62
   212
100
AcDbVertex
100
AcDb2dVertex
 10
12.5
 20
-0.7691
 30
0.0
 40
0.0
 41
0.0
  0
VERTEX
  5
210
100
AcDbEntity
  8
0
  6
CONTINUOUS
 62
   212
100
AcDbVertex
100
AcDb2dVertex
 10
12.42864
 20
-0.784246
 30
0.0
 40
0.0
 41
0.0
  0
VERTEX
  5
211
100
AcDbEntity
  8
0
  6
CONTINUOUS
 62
   212
100
AcDbVertex
100
AcDb2dVertex
 10
12.357257
 20
-0.798912
 30
0.0
 40
0.0
 41
0.0
  0
VERTEX
  5
212
100
AcDbEntity
  8
0
  6
CONTINUOUS
 62
   212
100
AcDbVertex
100
AcDb2dVertex
 10
12.285851
 20
-0.813092
 30
0.0
 40
0.0
 41
0.0
  0
VERTEX
  5
213
100
AcDbEntity
  8
0
  6
CONTINUOUS
 62
   212
100
AcDbVertex
100
AcDb2dVertex
 10
12.214421
 20
-0.826786
 30
0.0
 40
0.0
 41
0.0
  0
VERTEX
  5
214
100
AcDbEntity
  8
0
  6
CONTINUOUS
 62
   212
100
AcDbVertex
100
AcDb2dVertex
 10
12.142969
 20
-0.839986
 30
0.0
 40
0.0
 41
0.0
  0
VERTEX
  5
215
100
AcDbEntity
  8
0
  6
CONTINUOUS
 62
   212
100
AcDbVertex
100
AcDb2dVertex
 10
12.071495
 20
-0.852692
 30
0.0
 40
0.0
 41
0.0
  0
VERTEX
  5
216
100
AcDbEntity
  8
0
  6
CONTINUOUS
 62
   212
100
AcDbVertex
100
AcDb2dVertex
 10
12.0
 20
-0.8649
 30
0.0
 40
0.0
 41
0.0
  0
VERTEX
  5
217
100
AcDbEntity
  8
0
  6
CONTINUOUS
 62
   212
100
AcDbVertex
100
AcDb2dVertex
 10
11.928622
 20
-0.876588
 30
0.0
 40
0.0
 41
0.0
  0
VERTEX
  5
218
100
AcDbEntity
  8
0
  6
CONTINUOUS
 62
   212
100
AcDbVertex
100
AcDb2dVertex
 10
11.857225
 20
-0.887796
 30
0.0
 40
0.0
 41
0.0
  0
VERTEX
  5
219
100
AcDbEntity
  8
0
  6
CONTINUOUS
 62
   212
100
AcDbVertex
100
AcDb2dVertex
 10
11.785809
 20
-0.898552
 30
0.0
 40
0.0
 41
0.0
  0
VERTEX
  5
21A
100
AcDbEntity
  8
0
  6
CONTINUOUS
 62
   212
100
AcDbVertex
100
AcDb2dVertex
 10
11.714378
 20
-0.908878
 30
0.0
 40
0.0
 41
0.0
  0
VERTEX
  5
21B
100
AcDbEntity
  8
0
  6
CONTINUOUS
 62
   212
100
AcDbVertex
100
AcDb2dVertex
 10
11.642931
 20
-0.918794
 30
0.0
 40
0.0
 41
0.0
  0
VERTEX
  5
21C
100
AcDbEntity
  8
0
  6
CONTINUOUS
 62
   212
100
AcDbVertex
100
AcDb2dVertex
 10
11.571471
 20
-0.928328
 30
0.0
 40
0.0
 41
0.0
  0
VERTEX
  5
21D
100
AcDbEntity
  8
0
  6
CONTINUOUS
 62
   212
100
AcDbVertex
100
AcDb2dVertex
 10
11.5
 20
-0.9375
 30
0.0
 40
0.0
 41
0.0
  0
VERTEX
  5
21E
100
AcDbEntity
  8
0
  6
CONTINUOUS
 62
   212
100
AcDbVertex
100
AcDb2dVertex
 10
11.428599
 20
-0.94632
 30
0.0
 40
0.0
 41
0.0
  0
VERTEX
  5
21F
100
AcDbEntity
  8
0
  6
CONTINUOUS
 62
   212
100
AcDbVertex
100
AcDb2dVertex
 10
11.357188
 20
-0.954808
 30
0.0
 40
0.0
 41
0.0
  0
VERTEX
  5
220
100
AcDbEntity
  8
0
  6
CONTINUOUS
 62
   212
100
AcDbVertex
100
AcDb2dVertex
 10
11.285768
 20
-0.96296
 30
0.0
 40
0.0
 41
0.0
  0
VERTEX
  5
221
100
AcDbEntity
  8
0
  6
CONTINUOUS
 62
   212
100
AcDbVertex
100
AcDb2dVertex
 10
11.214339
 20
-0.970784
 30
0.0
 40
0.0
 41
0.0
  0
VERTEX
  5
222
100
AcDbEntity
  8
0
  6
CONTINUOUS
 62
   212
100
AcDbVertex
100
AcDb2dVertex
 10
11.142901
 20
-0.97828
 30
0.0
 40
0.0
 41
0.0
  0
VERTEX
  5
223
100
AcDbEntity
  8
0
  6
CONTINUOUS
 62
   212
100
AcDbVertex
100
AcDb2dVertex
 10
11.071454
 20
-0.985452
 30
0.0
 40
0.0
 41
0.0
  0
VERTEX
  5
224
100
AcDbEntity
  8
0
  6
CONTINUOUS
 62
   212
100
AcDbVertex
100
AcDb2dVertex
 10
11.0
 20
-0.9923
 30
0.0
 40
0.0
 41
0.0
  0
VERTEX
  5
225
100
AcDbEntity
  8
0
  6
CONTINUOUS
 62
   212
100
AcDbVertex
100
AcDb2dVertex
 10
10.928591
 20
-0.998822
 30
0.0
 40
0.0
 41
0.0
  0
VERTEX
  5
226
100
AcDbEntity
  8
0
  6
CONTINUOUS
 62
   212
100
AcDbVertex
100
AcDb2dVertex
 10
10.857175
 20
-1.005026
 30
0.0
 40
0.0
 41
0.0
  0
VERTEX
  5
227
100
AcDbEntity
  8
0
  6
CONTINUOUS
 62
   212
100
AcDbVertex
100
AcDb2dVertex
 10
10.785752
 20
-1.010912
 30
0.0
 40
0.0
 41
0.0
  0
VERTEX
  5
228
100
AcDbEntity
  8
0
  6
CONTINUOUS
 62
   212
100
AcDbVertex
100
AcDb2dVertex
 10
10.714322
 20
-1.016482
 30
0.0
 40
0.0
 41
0.0
  0
VERTEX
  5
229
100
AcDbEntity
  8
0
  6
CONTINUOUS
 62
   212
100
AcDbVertex
100
AcDb2dVertex
 10
10.642887
 20
-1.021734
 30
0.0
 40
0.0
 41
0.0
  0
VERTEX
  5
22A
100
AcDbEntity
  8
0
  6
CONTINUOUS
 62
   212
100
AcDbVertex
100
AcDb2dVertex
 10
10.571446
 20
-1.026674
 30
0.0
 40
0.0
 41
0.0
  0
VERTEX
  5
22B
100
AcDbEntity
  8
0
  6
CONTINUOUS
 62
   212
100
AcDbVertex
100
AcDb2dVertex
 10
10.5
 20
-1.0313
 30
0.0
 40
0.0
 41
0.0
  0
VERTEX
  5
22C
100
AcDbEntity
  8
0
  6
CONTINUOUS
 62
   212
100
AcDbVertex
100
AcDb2dVertex
 10
10.428583
 20
-1.035612
 30
0.0
 40
0.0
 41
0.0
  0
VERTEX
  5
22D
100
AcDbEntity
  8
0
  6
CONTINUOUS
 62
   212
100
AcDbVertex
100
AcDb2dVertex
 10
10.357162
 20
-1.03962
 30
0.0
 40
0.0
 41
0.0
  0
VERTEX
  5
22E
100
AcDbEntity
  8
0
  6
CONTINUOUS
 62
   212
100
AcDbVertex
100
AcDb2dVertex
 10
10.285736
 20
-1.043328
 30
0.0
 40
0.0
 41
0.0
  0
VERTEX
  5
22F
100
AcDbEntity
  8
0
  6
CONTINUOUS
 62
   212
100
AcDbVertex
100
AcDb2dVertex
 10
10.214307
 20
-1.046744
 30
0.0
 40
0.0
 41
0.0
  0
VERTEX
  5
230
100
AcDbEntity
  8
0
  6
CONTINUOUS
 62
   212
100
AcDbVertex
100
AcDb2dVertex
 10
10.142874
 20
-1.049874
 30
0.0
 40
0.0
 41
0.0
  0
VERTEX
  5
231
100
AcDbEntity
  8
0
  6
CONTINUOUS
 62
   212
100
AcDbVertex
100
AcDb2dVertex
 10
10.071439
 20
-1.052724
 30
0.0
 40
0.0
 41
0.0
  0
VERTEX
  5
232
100
AcDbEntity
  8
0
  6
CONTINUOUS
 62
   212
100
AcDbVertex
100
AcDb2dVertex
 10
10.0
 20
-1.0553
 30
0.0
 40
0.0
 41
0.0
  0
VERTEX
  5
233
100
AcDbEntity
  8
0
  6
CONTINUOUS
 62
   212
100
AcDbVertex
100
AcDb2dVertex
 10
9.928576
 20
-1.057606
 30
0.0
 40
0.0
 41
0.0
  0
VERTEX
  5
234
100
AcDbEntity
  8
0
  6
CONTINUOUS
 62
   212
100
AcDbVertex
100
AcDb2dVertex
 10
9.85715
 20
-1.059628
 30
0.0
 40
0.0
 41
0.0
  0
VERTEX
  5
235
100
AcDbEntity
  8
0
  6
CONTINUOUS
 62
   212
100
AcDbVertex
100
AcDb2dVertex
 10
9.785723
 20
-1.06135
 30
0.0
 40
0.0
 41
0.0
  0
VERTEX
  5
236
100
AcDbEntity
  8
0
  6
CONTINUOUS
 62
   212
100
AcDbVertex
100
AcDb2dVertex
 10
9.714294
 20
-1.062756
 30
0.0
 40
0.0
 41
0.0
  0
VERTEX
  5
237
100
AcDbEntity
  8
0
  6
CONTINUOUS
 62
   212
100
AcDbVertex
100
AcDb2dVertex
 10
9.642863
 20
-1.063826
 30
0.0
 40
0.0
 41
0.0
  0
VERTEX
  5
238
100
AcDbEntity
  8
0
  6
CONTINUOUS
 62
   212
100
AcDbVertex
100
AcDb2dVertex
 10
9.571432
 20
-1.064548
 30
0.0
 40
0.0
 41
0.0
  0
VERTEX
  5
239
100
AcDbEntity
  8
0
  6
CONTINUOUS
 62
   212
100
AcDbVertex
100
AcDb2dVertex
 10
9.5
 20
-1.0649
 30
0.0
 40
0.0
 41
0.0
  0
VERTEX
  5
23A
100
AcDbEntity
  8
0
  6
CONTINUOUS
 62
   212
100
AcDbVertex
100
AcDb2dVertex
 10
9.428569
 20
-1.064874
 30
0.0
 40
0.0
 41
0.0
  0
VERTEX
  5
23B
100
AcDbEntity
  8
0
  6
CONTINUOUS
 62
   212
100
AcDbVertex
100
AcDb2dVertex
 10
9.357138
 20
-1.064474
 30
0.0
 40
0.0
 41
0.0
  0
VERTEX
  5
23C
100
AcDbEntity
  8
0
  6
CONTINUOUS
 62
   212
100
AcDbVertex
100
AcDb2dVertex
 10
9.285708
 20
-1.063714
 30
0.0
 40
0.0
 41
0.0
  0
VERTEX
  5
23D
100
AcDbEntity
  8
0
  6
CONTINUOUS
 62
   212
100
AcDbVertex
100
AcDb2dVertex
 10
9.214279
 20
-1.062604
 30
0.0
 40
0.0
 41
0.0
  0
VERTEX
  5
23E
100
AcDbEntity
  8
0
  6
CONTINUOUS
 62
   212
100
AcDbVertex
100
AcDb2dVertex
 10
9.142851
 20
-1.061158
 30
0.0
 40
0.0
 41
0.0
  0
VERTEX
  5
23F
100
AcDbEntity
  8
0
  6
CONTINUOUS
 62
   212
100
AcDbVertex
100
AcDb2dVertex
 10
9.071424
 20
-1.059386
 30
0.0
 40
0.0
 41
0.0
  0
VERTEX
  5
240
100
AcDbEntity
  8
0
  6
CONTINUOUS
 62
   212
100
AcDbVertex
100
AcDb2dVertex
 10
9.0
 20
-1.0573
 30
0.0
 40
0.0
 41
0.0
  0
VERTEX
  5
241
100
AcDbEntity
  8
0
  6
CONTINUOUS
 62
   212
100
AcDbVertex
100
AcDb2dVertex
 10
8.928561
 20
-1.05491
 30
0.0
 40
0.0
 41
0.0
  0
VERTEX
  5
242
100
AcDbEntity
  8
0
  6
CONTINUOUS
 62
   212
100
AcDbVertex
100
AcDb2dVertex
 10
8.857125
 20
-1.052216
 30
0.0
 40
0.0
 41
0.0
  0
VERTEX
  5
243
100
AcDbEntity
  8
0
  6
CONTINUOUS
 62
   212
100
AcDbVertex
100
AcDb2dVertex
 10
8.785692
 20
-1.049214
 30
0.0
 40
0.0
 41
0.0
  0
VERTEX
  5
244
100
AcDbEntity
  8
0
  6
CONTINUOUS
 62
   212
100
AcDbVertex
100
AcDb2dVertex
 10
8.714263
 20
-1.045904
 30
0.0
 40
0.0
 41
0.0
  0
VERTEX
  5
245
100
AcDbEntity
  8
0
  6
CONTINUOUS
 62
   212
100
AcDbVertex
100
AcDb2dVertex
 10
8.642838
 20
-1.042284
 30
0.0
 40
0.0
 41
0.0
  0
VERTEX
  5
246
100
AcDbEntity
  8
0
  6
CONTINUOUS
 62
   212
100
AcDbVertex
100
AcDb2dVertex
 10
8.571417
 20
-1.03835
 30
0.0
 40
0.0
 41
0.0
  0
VERTEX
  5
247
100
AcDbEntity
  8
0
  6
CONTINUOUS
 62
   212
100
AcDbVertex
100
AcDb2dVertex
 10
8.5
 20
-1.0341
 30
0.0
 40
0.0
 41
0.0
  0
VERTEX
  5
248
100
AcDbEntity
  8
0
  6
CONTINUOUS
 62
   212
100
AcDbVertex
100
AcDb2dVertex
 10
8.428554
 20
-1.02953
 30
0.0
 40
0.0
 41
0.0
  0
VERTEX
  5
249
100
AcDbEntity
  8
0
  6
CONTINUOUS
 62
   212
100
AcDbVertex
100
AcDb2dVertex
 10
8.357114
 20
-1.024644
 30
0.0
 40
0.0
 41
0.0
  0
VERTEX
  5
24A
100
AcDbEntity
  8
0
  6
CONTINUOUS
 62
   212
100
AcDbVertex
100
AcDb2dVertex
 10
8.285679
 20
-1.019442
 30
0.0
 40
0.0
 41
0.0
  0
VERTEX
  5
24B
100
AcDbEntity
  8
0
  6
CONTINUOUS
 62
   212
100
AcDbVertex
100
AcDb2dVertex
 10
8.214249
 20
-1.013924
 30
0.0
 40
0.0
 41
0.0
  0
VERTEX
  5
24C
100
AcDbEntity
  8
0
  6
CONTINUOUS
 62
   212
100
AcDbVertex
100
AcDb2dVertex
 10
8.142826
 20
-1.008094
 30
0.0
 40
0.0
 41
0.0
  0
VERTEX
  5
24D
100
AcDbEntity
  8
0
  6
CONTINUOUS
 62
   212
100
AcDbVertex
100
AcDb2dVertex
 10
8.07141
 20
-1.001952
 30
0.0
 40
0.0
 41
0.0
  0
VERTEX
  5
24E
100
AcDbEntity
  8
0
  6
CONTINUOUS
 62
   212
100
AcDbVertex
100
AcDb2dVertex
 10
8.0
 20
-0.9955
 30
0.0
 40
0.0
 41
0.0
  0
VERTEX
  5
24F
100
AcDbEntity
  8
0
  6
CONTINUOUS
 62
   212
100
AcDbVertex
100
AcDb2dVertex
 10
7.928547
 20
-0.988732
 30
0.0
 40
0.0
 41
0.0
  0
VERTEX
  5
250
100
AcDbEntity
  8
0
  6
CONTINUOUS
 62
   212
100
AcDbVertex
100
AcDb2dVertex
 10
7.857101
 20
-0.981652
 30
0.0
 40
0.0
 41
0.0
  0
VERTEX
  5
251
100
AcDbEntity
  8
0
  6
CONTINUOUS
 62
   212
100
AcDbVertex
100
AcDb2dVertex
 10
7.785663
 20
-0.97426
 30
0.0
 40
0.0
 41
0.0
  0
VERTEX
  5
252
100
AcDbEntity
  8
0
  6
CONTINUOUS
 62
   212
100
AcDbVertex
100
AcDb2dVertex
 10
7.714234
 20
-0.96655
 30
0.0
 40
0.0
 41
0.0
  0
VERTEX
  5
253
100
AcDbEntity
  8
0
  6
CONTINUOUS
 62
   212
100
AcDbVertex
100
AcDb2dVertex
 10
7.642813
 20
-0.95852
 30
0.0
 40
0.0
 41
0.0
  0
VERTEX
  5
254
100
AcDbEntity
  8
0
  6
CONTINUOUS
 62
   212
100
AcDbVertex
100
AcDb2dVertex
 10
7.571402
 20
-0.950172
 30
0.0
 40
0.0
 41
0.0
  0
VERTEX
  5
255
100
AcDbEntity
  8
0
  6
CONTINUOUS
 62
   212
100
AcDbVertex
100
AcDb2dVertex
 10
7.5
 20
-0.9415
 30
0.0
 40
0.0
 41
0.0
  0
VERTEX
  5
256
100
AcDbEntity
  8
0
  6
CONTINUOUS
 62
   212
100
AcDbVertex
100
AcDb2dVertex
 10
7.42854
 20
-0.932496
 30
0.0
 40
0.0
 41
0.0
  0
VERTEX
  5
257
100
AcDbEntity
  8
0
  6
CONTINUOUS
 62
   212
100
AcDbVertex
100
AcDb2dVertex
 10
7.35709
 20
-0.92317
 30
0.0
 40
0.0
 41
0.0
  0
VERTEX
  5
258
100
AcDbEntity
  8
0
  6
CONTINUOUS
 62
   212
100
AcDbVertex
100
AcDb2dVertex
 10
7.28565
 20
-0.91353
 30
0.0
 40
0.0
 41
0.0
  0
VERTEX
  5
259
100
AcDbEntity
  8
0
  6
CONTINUOUS
 62
   212
100
AcDbVertex
100
AcDb2dVertex
 10
7.214222
 20
-0.903576
 30
0.0
 40
0.0
 41
0.0
  0
VERTEX
  5
25A
100
AcDbEntity
  8
0
  6
CONTINUOUS
 62
   212
100
AcDbVertex
100
AcDb2dVertex
 10
7.142803
 20
-0.893318
 30
0.0
 40
0.0
 41
0.0
  0
VERTEX
  5
25B
100
AcDbEntity
  8
0
  6
CONTINUOUS
 62
   212
100
AcDbVertex
100
AcDb2dVertex
 10
7.071396
 20
-0.882758
 30
0.0
 40
0.0
 41
0.0
  0
VERTEX
  5
25C
100
AcDbEntity
  8
0
  6
CONTINUOUS
 62
   212
100
AcDbVertex
100
AcDb2dVertex
 10
7.0
 20
-0.8719
 30
0.0
 40
0.0
 41
0.0
  0
VERTEX
  5
25D
100
AcDbEntity
  8
0
  6
CONTINUOUS
 62
   212
100
AcDbVertex
100
AcDb2dVertex
 10
6.928533
 20
-0.860736
 30
0.0
 40
0.0
 41
0.0
  0
VERTEX
  5
25E
100
AcDbEntity
  8
0
  6
CONTINUOUS
 62
   212
100
AcDbVertex
100
AcDb2dVertex
 10
6.857078
 20
-0.849274
 30
0.0
 40
0.0
 41
0.0
  0
VERTEX
  5
25F
100
AcDbEntity
  8
0
  6
CONTINUOUS
 62
   212
100
AcDbVertex
100
AcDb2dVertex
 10
6.785635
 20
-0.837508
 30
0.0
 40
0.0
 41
0.0
  0
VERTEX
  5
260
100
AcDbEntity
  8
0
  6
CONTINUOUS
 62
   212
100
AcDbVertex
100
AcDb2dVertex
 10
6.714206
 20
-0.825434
 30
0.0
 40
0.0
 41
0.0
  0
VERTEX
  5
261
100
AcDbEntity
  8
0
  6
CONTINUOUS
 62
   212
100
AcDbVertex
100
AcDb2dVertex
 10
6.642789
 20
-0.813044
 30
0.0
 40
0.0
 41
0.0
  0
VERTEX
  5
262
100
AcDbEntity
  8
0
  6
CONTINUOUS
 62
   212
100
AcDbVertex
100
AcDb2dVertex
 10
6.571387
 20
-0.800334
 30
0.0
 40
0.0
 41
0.0
  0
VERTEX
  5
263
100
AcDbEntity
  8
0
  6
CONTINUOUS
 62
   212
100
AcDbVertex
100
AcDb2dVertex
 10
6.5
 20
-0.7873
 30
0.0
 40
0.0
 41
0.0
  0
VERTEX
  5
264
100
AcDbEntity
  8
0
  6
CONTINUOUS
 62
   212
100
AcDbVertex
100
AcDb2dVertex
 10
6.428524
 20
-0.773916
 30
0.0
 40
0.0
 41
0.0
  0
VERTEX
  5
265
100
AcDbEntity
  8
0
  6
CONTINUOUS
 62
   212
100
AcDbVertex
100
AcDb2dVertex
 10
6.357064
 20
-0.760206
 30
0.0
 40
0.0
 41
0.0
  0
VERTEX
  5
266
100
AcDbEntity
  8
0
  6
CONTINUOUS
 62
   212
100
AcDbVertex
100
AcDb2dVertex
 10
6.28562
 20
-0.746172
 30
0.0
 40
0.0
 41
0.0
  0
VERTEX
  5
267
100
AcDbEntity
  8
0
  6
CONTINUOUS
 62
   212
100
AcDbVertex
100
AcDb2dVertex
 10
6.214191
 20
-0.73182
 30
0.0
 40
0.0
 41
0.0
  0
VERTEX
  5
268
100
AcDbEntity
  8
0
  6
CONTINUOUS
 62
   212
100
AcDbVertex
100
AcDb2dVertex
 10
6.142778
 20
-0.717154
 30
0.0
 40
0.0
 41
0.0
  0
VERTEX
  5
269
100
AcDbEntity
  8
0
  6
CONTINUOUS
 62
   212
100
AcDbVertex
100
AcDb2dVertex
 10
6.071381
 20
-0.70218
 30
0.0
 40
0.0
 41
0.0
  0
VERTEX
  5
26A
100
AcDbEntity
  8
0
  6
CONTINUOUS
 62
   212
100
AcDbVertex
100
AcDb2dVertex
 10
6.0
 20
-0.6869
 30
0.0
 40
0.0
 41
0.0
  0
VERTEX
  5
26B
100
AcDbEntity
  8
0
  6
CONTINUOUS
 62
   212
100
AcDbVertex
100
AcDb2dVertex
 10
5.92852
 20
-0.671294
 30
0.0
 40
0.0
 41
0.0
  0
VERTEX
  5
26C
100
AcDbEntity
  8
0
  6
CONTINUOUS
 62
   212
100
AcDbVertex
100
AcDb2dVertex
 10
5.857056
 20
-0.655388
 30
0.0
 40
0.0
 41
0.0
  0
VERTEX
  5
26D
100
AcDbEntity
  8
0
  6
CONTINUOUS
 62
   212
100
AcDbVertex
100
AcDb2dVertex
 10
5.785609
 20
-0.639178
 30
0.0
 40
0.0
 41
0.0
  0
VERTEX
  5
26E
100
AcDbEntity
  8
0
  6
CONTINUOUS
 62
   212
100
AcDbVertex
100
AcDb2dVertex
 10
5.71418
 20
-0.622664
 30
0.0
 40
0.0
 41
0.0
  0
VERTEX
  5
26F
100
AcDbEntity
  8
0
  6
CONTINUOUS
 62
   212
100
AcDbVertex
100
AcDb2dVertex
 10
5.642769
 20
-0.605848
 30
0.0
 40
0.0
 41
0.0
  0
VERTEX
  5
270
100
AcDbEntity
  8
0
  6
CONTINUOUS
 62
   212
100
AcDbVertex
100
AcDb2dVertex
 10
5.571375
 20
-0.588726
 30
0.0
 40
0.0
 41
0.0
  0
VERTEX
  5
271
100
AcDbEntity
  8
0
  6
CONTINUOUS
 62
   212
100
AcDbVertex
100
AcDb2dVertex
 10
5.5
 20
-0.5713
 30
0.0
 40
0.0
 41
0.0
  0
VERTEX
  5
272
100
AcDbEntity
  8
0
  6
CONTINUOUS
 62
   212
100
AcDbVertex
100
AcDb2dVertex
 10
5.42851
 20
-0.553534
 30
0.0
 40
0.0
 41
0.0
  0
VERTEX
  5
273
100
AcDbEntity
  8
0
  6
CONTINUOUS
 62
   212
100
AcDbVertex
100
AcDb2dVertex
 10
5.35704
 20
-0.535456
 30
0.0
 40
0.0
 41
0.0
  0
VERTEX
  5
274
100
AcDbEntity
  8
0
  6
CONTINUOUS
 62
   212
100
AcDbVertex
100
AcDb2dVertex
 10
5.285589
 20
-0.517066
 30
0.0
 40
0.0
 41
0.0
  0
VERTEX
  5
275
100
AcDbEntity
  8
0
  6
CONTINUOUS
 62
   212
100
AcDbVertex
100
AcDb2dVertex
 10
5.21416
 20
-0.498358
 30
0.0
 40
0.0
 41
0.0
  0
VERTEX
  5
276
100
AcDbEntity
  8
0
  6
CONTINUOUS
 62
   212
100
AcDbVertex
100
AcDb2dVertex
 10
5.142751
 20
-0.47933
 30
0.0
 40
0.0
 41
0.0
  0
VERTEX
  5
277
100
AcDbEntity
  8
0
  6
CONTINUOUS
 62
   212
100
AcDbVertex
100
AcDb2dVertex
 10
5.071364
 20
-0.459978
 30
0.0
 40
0.0
 41
0.0
  0
VERTEX
  5
278
100
AcDbEntity
  8
0
  6
CONTINUOUS
 62
   212
100
AcDbVertex
100
AcDb2dVertex
 10
5.0
 20
-0.4403
 30
0.0
 40
0.0
 41
0.0
  0
VERTEX
  5
279
100
AcDbEntity
  8
0
  6
CONTINUOUS
 62
   212
100
AcDbVertex
100
AcDb2dVertex
 10
4.928505
 20
-0.42025
 30
0.0
 40
0.0
 41
0.0
  0
VERTEX
  5
27A
100
AcDbEntity
  8
0
  6
CONTINUOUS
 62
   212
100
AcDbVertex
100
AcDb2dVertex
 10
4.857032
 20
-0.399878
 30
0.0
 40
0.0
 41
0.0
  0
VERTEX
  5
27B
100
AcDbEntity
  8
0
  6
CONTINUOUS
 62
   212
100
AcDbVertex
100
AcDb2dVertex
 10
4.785582
 20
-0.379192
 30
0.0
 40
0.0
 41
0.0
  0
VERTEX
  5
27C
100
AcDbEntity
  8
0
  6
CONTINUOUS
 62
   212
100
AcDbVertex
100
AcDb2dVertex
 10
4.714154
 20
-0.358202
 30
0.0
 40
0.0
 41
0.0
  0
VERTEX
  5
27D
100
AcDbEntity
  8
0
  6
CONTINUOUS
 62
   212
100
AcDbVertex
100
AcDb2dVertex
 10
4.642748
 20
-0.336918
 30
0.0
 40
0.0
 41
0.0
  0
VERTEX
  5
27E
100
AcDbEntity
  8
0
  6
CONTINUOUS
 62
   212
100
AcDbVertex
100
AcDb2dVertex
 10
4.571364
 20
-0.315348
 30
0.0
 40
0.0
 41
0.0
  0
VERTEX
  5
27F
100
AcDbEntity
  8
0
  6
CONTINUOUS
 62
   212
100
AcDbVertex
100
AcDb2dVertex
 10
4.5
 20
-0.2935
 30
0.0
 40
0.0
 41
0.0
  0
VERTEX
  5
280
100
AcDbEntity
  8
0
  6
CONTINUOUS
 62
   212
100
AcDbVertex
100
AcDb2dVertex
 10
4.464267
 20
-0.282456
 30
0.0
 40
0.0
 41
0.0
  0
VERTEX
  5
281
100
AcDbEntity
  8
0
  6
CONTINUOUS
 62
   212
100
AcDbVertex
100
AcDb2dVertex
 10
4.428539
 20
-0.27134
 30
0.0
 40
0.0
 41
0.0
  0
VERTEX
  5
282
100
AcDbEntity
  8
0
  6
CONTINUOUS
 62
   212
100
AcDbVertex
100
AcDb2dVertex
 10
4.392817
 20
-0.260146
 30
0.0
 40
0.0
 41
0.0
  0
VERTEX
  5
283
100
AcDbEntity
  8
0
  6
CONTINUOUS
 62
   212
100
AcDbVertex
100
AcDb2dVertex
 10
4.357102
 20
-0.24887
 30
0.0
 40
0.0
 41
0.0
  0
VERTEX
  5
284
100
AcDbEntity
  8
0
  6
CONTINUOUS
 62
   212
100
AcDbVertex
100
AcDb2dVertex
 10
4.321394
 20
-0.237508
 30
0.0
 40
0.0
 41
0.0
  0
VERTEX
  5
285
100
AcDbEntity
  8
0
  6
CONTINUOUS
 62
   212
100
AcDbVertex
100
AcDb2dVertex
 10
4.285693
 20
-0.226052
 30
0.0
 40
0.0
 41
0.0
  0
VERTEX
  5
286
100
AcDbEntity
  8
0
  6
CONTINUOUS
 62
   212
100
AcDbVertex
100
AcDb2dVertex
 10
4.25
 20
-0.2145
 30
0.0
 40
0.0
 41
0.0
  0
VERTEX
  5
287
100
AcDbEntity
  8
0
  6
CONTINUOUS
 62
   212
100
AcDbVertex
100
AcDb2dVertex
 10
4.21427
 20
-0.202834
 30
0.0
 40
0.0
 41
0.0
  0
VERTEX
  5
288
100
AcDbEntity
  8
0
  6
CONTINUOUS
 62
   212
100
AcDbVertex
100
AcDb2dVertex
 10
4.178548
 20
-0.19108
 30
0.0
 40
0.0
 41
0.0
  0
VERTEX
  5
289
100
AcDbEntity
  8
0
  6
CONTINUOUS
 62
   212
100
AcDbVertex
100
AcDb2dVertex
 10
4.142831
 20
-0.179252
 30
0.0
 40
0.0
 41
0.0
  0
VERTEX
  5
28A
100
AcDbEntity
  8
0
  6
CONTINUOUS
 62
   212
100
AcDbVertex
100
AcDb2dVertex
 10
4.107119
 20
-0.167364
 30
0.0
 40
0.0
 41
0.0
  0
VERTEX
  5
28B
100
AcDbEntity
  8
0
  6
CONTINUOUS
 62
   212
100
AcDbVertex
100
AcDb2dVertex
 10
4.071411
 20
-0.155434
 30
0.0
 40
0.0
 41
0.0
  0
VERTEX
  5
28C
100
AcDbEntity
  8
0
  6
CONTINUOUS
 62
   212
100
AcDbVertex
100
AcDb2dVertex
 10
4.035705
 20
-0.143474
 30
0.0
 40
0.0
 41
0.0
  0
VERTEX
  5
28D
100
AcDbEntity
  8
0
  6
CONTINUOUS
 62
   212
100
AcDbVertex
100
AcDb2dVertex
 10
4.0
 20
-0.1315
 30
0.0
 40
0.0
 41
0.0
  0
SEQEND
  5
28E
100
AcDbEntity
  8
0
  0
POLYLINE
  5
28F
100
AcDbEntity
  8
0
  6
CONTINUOUS
 62
   212
100
AcDb2dPolyline
 66
     1
 10
0.0
 20
0.0
 30
0.0
 70
   128
  0
VERTEX
  5
290
100
AcDbEntity
  8
0
  6
CONTINUOUS
 62
   212
100
AcDbVertex
100
AcDb2dVertex
 10
14.0
 20
-0.0649
 30
0.0
 40
0.0
 41
0.0
  0
VERTEX
  5
291
100
AcDbEntity
  8
0
  6
CONTINUOUS
 62
   212
100
AcDbVertex
100
AcDb2dVertex
 10
13.95
 20
-0.0649
 30
0.0
 40
0.0
 41
0.0
  0
VERTEX
  5
292
100
AcDbEntity
  8
0
  6
CONTINUOUS
 62
   212
100
AcDbVertex
100
AcDb2dVertex
 10
13.925
 20
-0.0649
 30
0.0
 40
0.0
 41
0.0
  0
VERTEX
  5
293
100
AcDbEntity
  8
0
  6
CONTINUOUS
 62
   212
100
AcDbVertex
100
AcDb2dVertex
 10
13.875
 20
-0.0649
 30
0.0
 40
0.0
 41
0.0
  0
VERTEX
  5
294
100
AcDbEntity
  8
0
  6
CONTINUOUS
 62
   212
100
AcDbVertex
100
AcDb2dVertex
 10
13.75
 20
-0.0649
 30
0.0
 40
0.0
 41
0.0
  0
VERTEX
  5
295
100
AcDbEntity
  8
0
  6
CONTINUOUS
 62
   212
100
AcDbVertex
100
AcDb2dVertex
 10
13.5
 20
-0.0649
 30
0.0
 40
0.0
 41
0.0
  0
VERTEX
  5
296
100
AcDbEntity
  8
0
  6
CONTINUOUS
 62
   212
100
AcDbVertex
100
AcDb2dVertex
 10
13.25
 20
-0.0649
 30
0.0
 40
0.0
 41
0.0
  0
VERTEX
  5
297
100
AcDbEntity
  8
0
  6
CONTINUOUS
 62
   212
100
AcDbVertex
100
AcDb2dVertex
 10
13.0
 20
-0.0649
 30
0.0
 40
0.0
 41
0.0
  0
VERTEX
  5
298
100
AcDbEntity
  8
0
  6
CONTINUOUS
 62
   212
100
AcDbVertex
100
AcDb2dVertex
 10
12.5
 20
-0.0649
 30
0.0
 40
0.0
 41
0.0
  0
VERTEX
  5
299
100
AcDbEntity
  8
0
  6
CONTINUOUS
 62
   212
100
AcDbVertex
100
AcDb2dVertex
 10
12.0
 20
-0.0649
 30
0.0
 40
0.0
 41
0.0
  0
VERTEX
  5
29A
100
AcDbEntity
  8
0
  6
CONTINUOUS
 62
   212
100
AcDbVertex
100
AcDb2dVertex
 10
11.5
 20
-0.0649
 30
0.0
 40
0.0
 41
0.0
  0
VERTEX
  5
29B
100
AcDbEntity
  8
0
  6
CONTINUOUS
 62
   212
100
AcDbVertex
100
AcDb2dVertex
 10
11.0
 20
-0.0649
 30
0.0
 40
0.0
 41
0.0
  0
VERTEX
  5
29C
100
AcDbEntity
  8
0
  6
CONTINUOUS
 62
   212
100
AcDbVertex
100
AcDb2dVertex
 10
10.5
 20
-0.0649
 30
0.0
 40
0.0
 41
0.0
  0
VERTEX
  5
29D
100
AcDbEntity
  8
0
  6
CONTINUOUS
 62
   212
100
AcDbVertex
100
AcDb2dVertex
 10
10.0
 20
-0.0649
 30
0.0
 40
0.0
 41
0.0
  0
VERTEX
  5
29E
100
AcDbEntity
  8
0
  6
CONTINUOUS
 62
   212
100
AcDbVertex
100
AcDb2dVertex
 10
9.5
 20
-0.0649
 30
0.0
 40
0.0
 41
0.0
  0
VERTEX
  5
29F
100
AcDbEntity
  8
0
  6
CONTINUOUS
 62
   212
100
AcDbVertex
100
AcDb2dVertex
 10
9.0
 20
-0.0649
 30
0.0
 40
0.0
 41
0.0
  0
VERTEX
  5
2A0
100
AcDbEntity
  8
0
  6
CONTINUOUS
 62
   212
100
AcDbVertex
100
AcDb2dVertex
 10
8.5
 20
-0.0649
 30
0.0
 40
0.0
 41
0.0
  0
VERTEX
  5
2A1
100
AcDbEntity
  8
0
  6
CONTINUOUS
 62
   212
100
AcDbVertex
100
AcDb2dVertex
 10
8.0
 20
-0.0649
 30
0.0
 40
0.0
 41
0.0
  0
VERTEX
  5
2A2
100
AcDbEntity
  8
0
  6
CONTINUOUS
 62
   212
100
AcDbVertex
100
AcDb2dVertex
 10
7.5
 20
-0.0649
 30
0.0
 40
0.0
 41
0.0
  0
VERTEX
  5
2A3
100
AcDbEntity
  8
0
  6
CONTINUOUS
 62
   212
100
AcDbVertex
100
AcDb2dVertex
 10
7.0
 20
-0.0649
 30
0.0
 40
0.0
 41
0.0
  0
VERTEX
  5
2A4
100
AcDbEntity
  8
0
  6
CONTINUOUS
 62
   212
100
AcDbVertex
100
AcDb2dVertex
 10
6.5
 20
-0.0649
 30
0.0
 40
0.0
 41
0.0
  0
VERTEX
  5
2A5
100
AcDbEntity
  8
0
  6
CONTINUOUS
 62
   212
100
AcDbVertex
100
AcDb2dVertex
 10
6.0
 20
-0.0649
 30
0.0
 40
0.0
 41
0.0
  0
VERTEX
  5
2A6
100
AcDbEntity
  8
0
  6
CONTINUOUS
 62
   212
100
AcDbVertex
100
AcDb2dVertex
 10
5.5
 20
-0.0649
 30
0.0
 40
0.0
 41
0.0
  0
VERTEX
  5
2A7
100
AcDbEntity
  8
0
  6
CONTINUOUS
 62
   212
100
AcDbVertex
100
AcDb2dVertex
 10
5.0
 20
-0.0649
 30
0.0
 40
0.0
 41
0.0
  0
VERTEX
  5
2A8
100
AcDbEntity
  8
0
  6
CONTINUOUS
 62
   212
100
AcDbVertex
100
AcDb2dVertex
 10
4.5
 20
-0.0649
 30
0.0
 40
0.0
 41
0.0
  0
VERTEX
  5
2A9
100
AcDbEntity
  8
0
  6
CONTINUOUS
 62
   212
100
AcDbVertex
100
AcDb2dVertex
 10
4.25
 20
-0.0649
 30
0.0
 40
0.0
 41
0.0
  0
VERTEX
  5
2AA
100
AcDbEntity
  8
0
  6
CONTINUOUS
 62
   212
100
AcDbVertex
100
AcDb2dVertex
 10
4.0
 20
-0.0649
 30
0.0
 40
0.0
 41
0.0
  0
SEQEND
  5
2AB
100
AcDbEntity
  8
0
  0
POLYLINE
  5
2AC
100
AcDbEntity
  8
0
  6
CONTINUOUS
 62
   212
100
AcDb2dPolyline
 66
     1
 10
0.0
 20
0.0
 30
0.0
 70
   128
  0
VERTEX
  5
2AD
100
AcDbEntity
  8
0
  6
CONTINUOUS
 62
   212
100
AcDbVertex
100
AcDb2dVertex
 10
14.0
 20
-0.0649
 30
0.0
 40
0.0
 41
0.0
  0
VERTEX
  5
2AE
100
AcDbEntity
  8
0
  6
CONTINUOUS
 62
   212
100
AcDbVertex
100
AcDb2dVertex
 10
4.0
 20
-0.0649
 30
0.0
 40
0.0
 41
0.0
  0
SEQEND
  5
2AF
100
AcDbEntity
  8
0
  0
TEXT
  5
2B0
100
AcDbEntity
  8
0
 62
   212
 48
0.0
100
AcDbText
 10
7.740457
 20
0.075049
 30
0.0
 40
0.6
  1
NACA - 66 (Mod) 
 50
360.0
 72
     5
 11
11.079457
 21
0.075049
 31
0.0
210
0.0
220
0.0
230
1.0
100
AcDbText
  0
TEXT
  5
2B1
100
AcDbEntity
  8
0
 62
   212
 48
0.0
100
AcDbText
 10
8.783714
 20
-0.484747
 30
0.0
 40
0.2
  1
(Naca  a= 0.8)
 72
     5
 11
9.679714
 21
-0.484747
 31
0.0
210
0.0
220
0.0
230
1.0
100
AcDbText
  0
TEXT
  5
2B2
100
AcDbEntity
  8
0
 62
   212
 48
0.0
100
AcDbText
 10
5.965671
 20
0.319965
 30
0.0
 40
0.1
  1
Boy = 10
 72
     5
 11
6.420978
 21
0.319965
 31
0.0
210
0.0
220
0.0
230
1.0
100
AcDbText
  0
TEXT
  5
2B3
100
AcDbEntity
  8
0
 62
   212
 48
0.0
100
AcDbText
 10
5.965671
 20
0.119965
 30
0.0
 40
0.1
  1
Kalinlik = 2
 72
     5
 11
6.522654
 21
0.119965
 31
0.0
210
0.0
220
0.0
230
1.0
100
AcDbText
  0
TEXT
  5
2B4
100
AcDbEntity
  8
0
 62
   212
 48
0.0
100
AcDbText
 10
7.920782
 20
-0.815665
 30
0.0
 40
0.3
  1
Çemberci Denizcilik
 72
     5
 11
10.936703
 21
-0.815665
 31
0.0
210
0.0
220
0.0
230
1.0
100
AcDbText
  0
ENDSEC
  0
SECTION
  2
OBJECTS
  0
DICTIONARY
  5
19
100
AcDbDictionary
  3
ACAD_GROUP
350
1A
  3
ACAD_MLINESTYLE
350
1B
  0
DICTIONARY
  5
1A
102
{ACAD_REACTORS
330
19
102
}
100
AcDbDictionary
  0
DICTIONARY
  5
1B
102
{ACAD_REACTORS
330
19
102
}
100
AcDbDictionary
  3
STANDARD
350
1C
  0
MLINESTYLE
  5
1C
102
{ACAD_REACTORS
330
1B
102
}
100
AcDbMlineStyle
  2
STANDARD
 70
     0
  3

 62
     0
 51
90.0
 52
90.0
 71
     2
 49
0.5
 62
   256
  6
BYLAYER
 49
-0.5
 62
   256
  6
BYLAYER
  0
ENDSEC
  0
EOF
