  0
SECTION
  2
HEADER
  9
$ACADVER
  1
AC1014
  9
$ACADMAINTVER
 70
     0
  9
$DWGCODEPAGE
  3
ANSI_1252
  9
$INSBASE
 10
0.0
 20
0.0
 30
0.0
  9
$EXTMIN
 10
74.0
 20
-9.5
 30
0.0
  9
$EXTMAX
 10
174.0
 20
10.5
 30
0.0
  9
$LIMMIN
 10
0.0
 20
0.0
  9
$LIMMAX
 10
0.0
 20
0.0
  9
$ORTHOMODE
 70
     0
  9
$REGENMODE
 70
     1
  9
$FILLMODE
 70
     1
  9
$QTEXTMODE
 70
     0
  9
$MIRRTEXT
 70
     1
  9
$DRAGMODE
 70
     2
  9
$LTSCALE
 40
1.0
  9
$OSMODE
 70
     0
  9
$ATTMODE
 70
     1
  9
$TEXTSIZE
 40
0.2
  9
$TRACEWID
 40
0.05
  9
$TEXTSTYLE
  7
STANDARD
  9
$CLAYER
  8
0
  9
$CELTYPE
  6
CONTINUOUS
  9
$CECOLOR
 62
   256
  9
$CELTSCALE
 40
1.0
  9
$DELOBJ
 70
     1
  9
$DISPSILH
 70
     0
  9
$DIMSCALE
 40
1.0
  9
$DIMASZ
 40
0.18
  9
$DIMEXO
 40
0.0625
  9
$DIMDLI
 40
0.38
  9
$DIMRND
 40
0.0
  9
$DIMDLE
 40
0.0
  9
$DIMEXE
 40
0.18
  9
$DIMTP
 40
0.0
  9
$DIMTM
 40
0.0
  9
$DIMTXT
 40
0.18
  9
$DIMCEN
 40
0.09
  9
$DIMTSZ
 40
0.0
  9
$DIMTOL
 70
     0
  9
$DIMLIM
 70
     0
  9
$DIMTIH
 70
     1
  9
$DIMTOH
 70
     1
  9
$DIMSE1
 70
     0
  9
$DIMSE2
 70
     0
  9
$DIMTAD
 70
     0
  9
$DIMZIN
 70
     0
  9
$DIMBLK
  1

  9
$DIMASO
 70
     1
  9
$DIMSHO
 70
     1
  9
$DIMPOST
  1

  9
$DIMAPOST
  1

  9
$DIMALT
 70
     0
  9
$DIMALTD
 70
     2
  9
$DIMALTF
 40
25.4
  9
$DIMLFAC
 40
1.0
  9
$DIMTOFL
 70
     0
  9
$DIMTVP
 40
0.0
  9
$DIMTIX
 70
     0
  9
$DIMSOXD
 70
     0
  9
$DIMSAH
 70
     0
  9
$DIMBLK1
  1

  9
$DIMBLK2
  1

  9
$DIMSTYLE
  2
STANDARD
  9
$DIMCLRD
 70
     0
  9
$DIMCLRE
 70
     0
  9
$DIMCLRT
 70
     0
  9
$DIMTFAC
 40
1.0
  9
$DIMGAP
 40
0.09
  9
$DIMJUST
 70
     0
  9
$DIMSD1
 70
     0
  9
$DIMSD2
 70
     0
  9
$DIMTOLJ
 70
     1
  9
$DIMTZIN
 70
     0
  9
$DIMALTZ
 70
     0
  9
$DIMALTTZ
 70
     0
  9
$DIMFIT
 70
     3
  9
$DIMUPT
 70
     0
  9
$DIMUNIT
 70
     2
  9
$DIMDEC
 70
     4
  9
$DIMTDEC
 70
     4
  9
$DIMALTU
 70
     2
  9
$DIMALTTD
 70
     2
  9
$DIMTXSTY
  7
STANDARD
  9
$DIMAUNIT
 70
     0
  9
$LUNITS
 70
     2
  9
$LUPREC
 70
     4
  9
$SKETCHINC
 40
0.1
  9
$FILLETRAD
 40
0.0
  9
$AUNITS
 70
     0
  9
$AUPREC
 70
     0
  9
$MENU
  1
acad
  9
$ELEVATION
 40
0.0
  9
$PELEVATION
 40
0.0
  9
$THICKNESS
 40
0.0
  9
$LIMCHECK
 70
     0
  9
$BLIPMODE
 70
     1
  9
$CHAMFERA
 40
0.0
  9
$CHAMFERB
 40
0.0
  9
$CHAMFERC
 40
0.0
  9
$CHAMFERD
 40
0.0
  9
$SKPOLY
 70
     0
  9
$TDCREATE
 40
0.000000000
  9
$TDUPDATE
 40
0.000000000
  9
$TDINDWG
 40
0.0000000000
  9
$TDUSRTIMER
 40
0.0000000000
  9
$USRTIMER
 70
     1
  9
$ANGBASE
 50
0.0
  9
$ANGDIR
 70
     0
  9
$PDMODE
 70
     0
  9
$PDSIZE
 40
0.0
  9
$PLINEWID
 40
0.0
  9
$COORDS
 70
     0
  9
$SPLFRAME
 70
     0
  9
$SPLINETYPE
 70
     6
  9
$SPLINESEGS
 70
     8
  9
$ATTDIA
 70
     0
  9
$ATTREQ
 70
     1
  9
$HANDLING
 70
     1
  9
$HANDSEED
  5
1C9
  9
$SURFTAB1
 70
     6
  9
$SURFTAB2
 70
     6
  9
$SURFTYPE
 70
     6
  9
$SURFU
 70
     6
  9
$SURFV
 70
     6
  9
$UCSNAME
  2

  9
$UCSORG
 10
0.0
 20
0.0
 30
0.0
  9
$UCSXDIR
 10
1.0
 20
0.0
 30
0.0
  9
$UCSYDIR
 10
0.0
 20
1.0
 30
0.0
  9
$PUCSNAME
  2

  9
$PUCSORG
 10
0.0
 20
0.0
 30
0.0
  9
$PUCSXDIR
 10
1.0
 20
0.0
 30
0.0
  9
$PUCSYDIR
 10
0.0
 20
1.0
 30
0.0
  9
$USERI1
 70
     0
  9
$USERI2
 70
     0
  9
$USERI3
 70
     0
  9
$USERI4
 70
     0
  9
$USERI5
 70
     0
  9
$USERR1
 40
0.0
  9
$USERR2
 40
0.0
  9
$USERR3
 40
0.0
  9
$USERR4
 40
0.0
  9
$USERR5
 40
0.0
  9
$WORLDVIEW
 70
     1
  9
$SHADEDGE
 70
     3
  9
$SHADEDIF
 70
    70
  9
$TILEMODE
 70
     1
  9
$MAXACTVP
 70
    16
  9
$PINSBASE
 10
0.0
 20
0.0
 30
0.0
  9
$PLIMCHECK
 70
     0
  9
$PEXTMIN
 10
1.000000E+20
 20
1.000000E+20
 30
1.000000E+20
  9
$PEXTMAX
 10
-1.000000E+20
 20
-1.000000E+20
 30
-1.000000E+20
  9
$PLIMMIN
 10
0.0
 20
0.0
  9
$PLIMMAX
 10
12.0
 20
9.0
  9
$UNITMODE
 70
     0
  9
$VISRETAIN
 70
     0
  9
$PLINEGEN
 70
     0
  9
$PSLTSCALE
 70
     0
  9
$TREEDEPTH
 70
  3020
  9
$PICKSTYLE
 70
     1
  9
$CMLSTYLE
  2
STANDARD
  9
$CMLJUST
 70
     0
  9
$CMLSCALE
 40
1.0
  9
$PROXYGRAPHICS
 70
     0
  9
$MEASUREMENT
 70
     0
  0
ENDSEC
  0
SECTION
  2
CLASSES
  0
CLASS
  1
LWPOLYLINE
  2
AcDbPolyline
  3
"AutoCAD"
 90
        0
280
     0
281
     1
  0
CLASS
  1
IMAGE
  2
AcDbRasterImage
  3
ISM
 90
      127
280
     0
281
     1
  0
CLASS
  1
OLE2FRAME
  2
AcDbOle2Frame
  3
""
 90
        0
280
     0
281
     1
  0
CLASS
  1
HATCH
  2
AcDbHatch
  3
"ACAD_SEDONA"
 90
        0
280
     0
281
     1
  0
CLASS
  1
DICTIONARYVAR
  2
AcDbDictionaryVar
  3
"AutoCAD"
 90
        0
280
     0
281
     0
  0
CLASS
  1
RASTERVARIABLES
  2
AcDbRasterVariables
  3
ISM
 90
        0
280
     0
281
     0
  0
CLASS
  1
IMAGEDEF
  2
AcDbRasterImageDef
  3
ISM
 90
        0
280
     0
281
     0
  0
CLASS
  1
IMAGEDEF_REACTOR
  2
AcDbRasterImageDefReactor
  3
ISM
 90
        1
280
     0
281
     0
  0
CLASS
  1
IDBUFFER
  2
AcDbIdBuffer
  3
"Acad"
 90
        0
280
     0
281
     0
  0
CLASS
  1
SPATIAL_FILTER
  2
AcDbSpatialFilter
  3
"Acad"
 90
        0
280
     0
281
     0
  0
CLASS
  1
XRECORD
  2
AcDbXrecord
  3
"<Built In>"
 90
        0
280
     0
281
     0
  0
CLASS
  1
SORTENTSTABLE
  2
AcDbSortentsTable
  3
"AutoCAD"
 90
        0
280
     0
281
     0
  0
CLASS
  1
LAYER_INDEX
  2
AcDbLayerIndex
  3
"Acad"
 90
        0
280
     0
281
     0
  0
CLASS
  1
SPATIAL_INDEX
  2
AcDbSpatialIndex
  3
"Acad"
 90
        0
280
     0
281
     0
  0
CLASS
  1
OBJECT_PTR
  2
CAseDLPNTableRecord
  3
"ASE-LPNTableRecord"
 90
        1
280
     0
281
     0
  0
CLASS
  1
LAYOUT
  2
AcDbLayout
  3
"AutoCAD 2000"
 90
        1
280
     0
281
     0
  0
CLASS
  1
PLOTSETTINGS
  2
AcDbPlotSettings
  3
"AutoCAD 2000"
 90
        1
280
     0
281
     0
  0
CLASS
  1
ACDBDICTIONARYWDFLT
  2
AcDbDictionaryWithDefault
  3
"AutoCAD 2000"
 90
        1
280
     0
281
     0
  0
CLASS
  1
ACDBPLACEHOLDER
  2
AcDbPlaceHolder
  3
"AutoCAD 2000"
 90
        1
280
     0
281
     0
  0
CLASS
  1
VBA_PROJECT
  2
AcDbVbaProject
  3
"acadvba"
 90
        1
280
     0
281
     0
  0
CLASS
  1
WIPEOUT
  2
AcDbWipeout
  3
WipeOut|AutoCAD Express Tool|expresstools@autodesk.com
 90
      127
280
     0
281
     1
  0
CLASS
  1
WIPEOUTVARIABLES
  2
AcDbWipeoutVariables
  3
WipeOut|AutoCAD Express Tool|expresstools@autodesk.com
 90
        0
280
     0
281
     0
  0
CLASS
  1
RTEXT
  2
RText
  3
RText|AutoCAD Express Tool|expresstools@autodesk.com
 90
        0
280
     0
281
     1
  0
CLASS
  1
ARCALIGNEDTEXT
  2
AcDbArcAlignedText
  3
ATEXT|AutoCAD Express Tool|expresstools@autodesk.com
 90
        0
280
     0
281
     1
  0
ENDSEC
  0
SECTION
  2
TABLES
  0
TABLE
  2
VPORT
  5
7
100
AcDbSymbolTable
 70
     2
  0
VPORT
  5
15
100
AcDbSymbolTableRecord
100
AcDbViewportTableRecord
  2
*ACTIVE
 70
     0
 10
0.0
 20
0.0
 11
1.0
 21
1.0
 12
6.591288
 22
4.579184
 13
0.0
 23
0.0
 14
1.0
 24
1.0
 15
0.0
 25
0.0
 16
0.0
 26
0.0
 36
1.0
 17
0.0
 27
0.0
 37
0.0
 40
9.158369
 41
0.688564
 42
50.0
 43
0.0
 44
0.0
 50
0.0
 51
0.0
 71
     0
 72
   100
 73
     1
 74
     1
 75
     0
 76
     0
 77
     0
 78
     0
  0
VPORT
  5
2B
100
AcDbSymbolTableRecord
100
AcDbViewportTableRecord
  2
DCADVPORT
 70
     0
 10
74.0
 20
-9.5
 11
174.0
 21
10.5
 12
6.21
 22
9.02
 13
0.0
 23
0.0
 14
1.0
 24
1.0
 15
0.0
 25
0.0
 16
0.0
 26
0.0
 36
1.0
 17
0.0
 27
0.0
 37
0.0
 40
18.04
 41
0.688564
 42
50.0
 43
1.0
 44
1.0
 50
0.0
 51
0.0
 71
     0
 72
   100
 73
     1
 74
     1
 75
     0
 76
     0
 77
     0
 78
     0
  0
ENDTAB
  0
TABLE
  2
LTYPE
  5
4
100
AcDbSymbolTable
 70
    15
  0
LTYPE
  5
11
100
AcDbSymbolTableRecord
100
AcDbLinetypeTableRecord
  2
BYBLOCK
 70
    64
  3

 72
    65
 73
     0
 40
0.0
  0
LTYPE
  5
12
100
AcDbSymbolTableRecord
100
AcDbLinetypeTableRecord
  2
BYLAYER
 70
    64
  3

 72
    65
 73
     0
 40
0.0
  0
LTYPE
  5
13
100
AcDbSymbolTableRecord
100
AcDbLinetypeTableRecord
  2
CONTINUOUS
 70
    64
  3
Solid line
 72
    65
 73
     0
 40
0.0
  0
LTYPE
  5
1E
100
AcDbSymbolTableRecord
100
AcDbLinetypeTableRecord
  2
CONTINUOUS
 70
     0
  3
Solid line
 72
    65
 73
     0
 40
0.0
  0
LTYPE
  5
1F
100
AcDbSymbolTableRecord
100
AcDbLinetypeTableRecord
  2
BORDER
 70
    64
  3
__ __ . __ __ . __ __ . __ __ . __ __ . __ __ .
 72
    65
 73
     6
 40
1.75
 49
0.5
 74
     0
 49
-0.25
 74
     0
 49
0.5
 74
     0
 49
-0.25
 74
     0
 49
0.0
 74
     0
 49
-0.25
 74
     0
  0
LTYPE
  5
20
100
AcDbSymbolTableRecord
100
AcDbLinetypeTableRecord
  2
BORDER2
 70
    64
  3
__.__.__.__.__.__.__.__.__.__.__.__.__.__.__.__
 72
    65
 73
     6
 40
0.875
 49
0.25
 74
     0
 49
-0.125
 74
     0
 49
0.25
 74
     0
 49
-0.125
 74
     0
 49
0.0
 74
     0
 49
-0.125
 74
     0
  0
LTYPE
  5
21
100
AcDbSymbolTableRecord
100
AcDbLinetypeTableRecord
  2
CENTER
 70
    64
  3
____ _ ____ _ ____ _ ____ _ ____ _ ____ _ ____ 
 72
    65
 73
     4
 40
2.0
 49
1.25
 74
     0
 49
-0.25
 74
     0
 49
0.25
 74
     0
 49
-0.25
 74
     0
  0
LTYPE
  5
22
100
AcDbSymbolTableRecord
100
AcDbLinetypeTableRecord
  2
DASHDOT
 70
    64
  3
__ . __ . __ . __ . __ . __ . __ . __ . __ . __
 72
    65
 73
     4
 40
1.0
 49
0.5
 74
     0
 49
-0.25
 74
     0
 49
0.0
 74
     0
 49
-0.25
 74
     0
  0
LTYPE
  5
23
100
AcDbSymbolTableRecord
100
AcDbLinetypeTableRecord
  2
DASHDOT2
 70
    64
  3
_._._._._._._._._._._._._._._._._._._._._._._._
 72
    65
 73
     4
 40
0.5
 49
0.25
 74
     0
 49
-0.125
 74
     0
 49
0.0
 74
     0
 49
-0.125
 74
     0
  0
LTYPE
  5
24
100
AcDbSymbolTableRecord
100
AcDbLinetypeTableRecord
  2
DASHED
 70
    64
  3
__ __ __ __ __ __ __ __ __ __ __ __ __ __ __ __
 72
    65
 73
     2
 40
0.75
 49
0.5
 74
     0
 49
-0.25
 74
     0
  0
LTYPE
  5
25
100
AcDbSymbolTableRecord
100
AcDbLinetypeTableRecord
  2
DIVIDE
 70
    64
  3
____ . . ____ . . ____ . . ____ . . ____ . . __
 72
    65
 73
     6
 40
1.25
 49
0.5
 74
     0
 49
-0.25
 74
     0
 49
0.0
 74
     0
 49
-0.25
 74
     0
 49
0.0
 74
     0
 49
-0.25
 74
     0
  0
LTYPE
  5
26
100
AcDbSymbolTableRecord
100
AcDbLinetypeTableRecord
  2
DIVIDE2
 70
    64
  3
__..__..__..__..__..__..__..__..__..__..__..__.
 72
    65
 73
     6
 40
0.625
 49
0.25
 74
     0
 49
-0.125
 74
     0
 49
0.0
 74
     0
 49
-0.125
 74
     0
 49
0.0
 74
     0
 49
-0.125
 74
     0
  0
LTYPE
  5
27
100
AcDbSymbolTableRecord
100
AcDbLinetypeTableRecord
  2
DOT
 70
    64
  3
. . . . . . . . . . . . . . . . . . . . . . . .
 72
    65
 73
     2
 40
0.25
 49
0.0
 74
     0
 49
-0.25
 74
     0
  0
LTYPE
  5
28
100
AcDbSymbolTableRecord
100
AcDbLinetypeTableRecord
  2
HIDDEN
 70
    64
  3
__ __ __ __ __ __ __ __ __ __ __ __ __ __ __ __
 72
    65
 73
     2
 40
0.375
 49
0.25
 74
     0
 49
-0.125
 74
     0
  0
LTYPE
  5
29
100
AcDbSymbolTableRecord
100
AcDbLinetypeTableRecord
  2
PHANTOM
 70
    64
  3
______  __  __  ______  __  __  ______  __  __ 
 72
    65
 73
     6
 40
2.5
 49
1.25
 74
     0
 49
-0.25
 74
     0
 49
0.25
 74
     0
 49
-0.25
 74
     0
 49
0.25
 74
     0
 49
-0.25
 74
     0
  0
ENDTAB
  0
TABLE
  2
LAYER
  5
2
100
AcDbSymbolTable
 70
     2
  0
LAYER
  5
14
100
AcDbSymbolTableRecord
100
AcDbLayerTableRecord
  2
0
 70
     0
 62
     7
  6
CONTINUOUS
  0
LAYER
  5
2A
100
AcDbSymbolTableRecord
100
AcDbLayerTableRecord
  2
1
 70
     0
 62
     7
  6
CONTINUOUS
  0
ENDTAB
  0
TABLE
  2
STYLE
  5
3
100
AcDbSymbolTable
 70
     2
  0
STYLE
  5
17
100
AcDbSymbolTableRecord
100
AcDbTextStyleTableRecord
  2
STANDARD
 70
     0
 40
0.0
 41
1.0
 50
0.0
 71
     0
 42
0.0
  3
txt
  4

  0
STYLE
  5
1D
100
AcDbSymbolTableRecord
100
AcDbTextStyleTableRecord
  2
BIGFONT
 70
    64
 40
3.0
 41
1.0
 50
0.0
 71
     0
 42
0.2
  3

  4
BIGFONT
  0
ENDTAB
  0
TABLE
  2
VIEW
  5
5
100
AcDbSymbolTable
 70
     0
  0
ENDTAB
  0
TABLE
  2
UCS
  5
6
100
AcDbSymbolTable
 70
     0
  0
ENDTAB
  0
TABLE
  2
APPID
  5
8
100
AcDbSymbolTable
 70
     1
  0
APPID
  5
16
100
AcDbSymbolTableRecord
100
AcDbRegAppTableRecord
  2
ACAD
 70
     0
  0
ENDTAB
  0
TABLE
  2
DIMSTYLE
  5
9
100
AcDbSymbolTable
 70
     1
  0
DIMSTYLE
105
18
100
AcDbSymbolTableRecord
100
AcDbDimStyleTableRecord
  2
STANDARD
 70
     0
  3

  4

  5

  6

  7

 40
1.0
 41
0.18
 42
0.0625
 43
0.38
 44
0.18
 45
0.0
 46
0.0
 47
0.0
 48
0.0
 71
     0
 72
     0
 73
     1
 74
     1
 75
     0
 76
     0
 77
     0
 78
     0
140
0.18
141
0.09
142
0.0
143
25.4
144
1.0
145
0.0
146
1.0
147
0.09
170
     0
171
     2
172
     0
173
     0
174
     0
175
     0
176
     0
177
     0
178
     0
270
     2
271
     4
272
     4
273
     2
274
     2
275
     0
280
     0
281
     0
282
     0
283
     1
284
     0
285
     0
286
     0
287
     0
288
     0
340
17
  0
ENDTAB
  0
TABLE
  2
BLOCK_RECORD
  5
1
100
AcDbSymbolTable
 70
     0
  0
BLOCK_RECORD
  5
A
100
AcDbSymbolTableRecord
100
AcDbBlockTableRecord
  2
*MODEL_SPACE
  0
BLOCK_RECORD
  5
B
100
AcDbSymbolTableRecord
100
AcDbBlockTableRecord
  2
*PAPER_SPACE
  0
ENDTAB
  0
ENDSEC
  0
SECTION
  2
BLOCKS
  0
BLOCK
  5
D
100
AcDbEntity
  8
0
100
AcDbBlockBegin
  2
*MODEL_SPACE
 70
     0
 10
0.0
 20
0.0
 30
0.0
  3
*MODEL_SPACE
  1

  0
ENDBLK
  5
E
100
AcDbEntity
  8
0
100
AcDbBlockEnd
  0
BLOCK
  5
F
100
AcDbEntity
 67
     1
  8
0
100
AcDbBlockBegin
  2
*PAPER_SPACE
 70
     0
 10
0.0
 20
0.0
 30
0.0
  3
*PAPER_SPACE
  1

  0
ENDBLK
  5
10
100
AcDbEntity
 67
     1
  8
0
100
AcDbBlockEnd
  0
ENDSEC
  0
SECTION
  2
ENTITIES
  0
POLYLINE
  5
2C
100
AcDbEntity
  8
1
  6
CONTINUOUS
 62
   212
 48
16.0
100
AcDb2dPolyline
 66
     1
 10
0.0
 20
0.0
 30
0.0
 70
   128
  0
VERTEX
  5
2D
100
AcDbEntity
  8
1
  6
CONTINUOUS
 62
   212
 48
16.0
100
AcDbVertex
100
AcDb2dVertex
 10
173.374969
 20
0.5
 30
0.0
 40
0.0
 41
0.0
  0
VERTEX
  5
2E
100
AcDbEntity
  8
1
  6
CONTINUOUS
 62
   212
 48
16.0
100
AcDbVertex
100
AcDb2dVertex
 10
173.374969
 20
1.622778
 30
0.0
 40
0.0
 41
0.0
  0
SEQEND
  5
2F
100
AcDbEntity
  8
0
  0
POLYLINE
  5
30
100
AcDbEntity
  8
1
  6
CONTINUOUS
 62
   212
 48
16.0
100
AcDb2dPolyline
 66
     1
 10
0.0
 20
0.0
 30
0.0
 70
   128
  0
VERTEX
  5
31
100
AcDbEntity
  8
1
  6
CONTINUOUS
 62
   212
 48
16.0
100
AcDbVertex
100
AcDb2dVertex
 10
172.749969
 20
0.5
 30
0.0
 40
0.0
 41
0.0
  0
VERTEX
  5
32
100
AcDbEntity
  8
1
  6
CONTINUOUS
 62
   212
 48
16.0
100
AcDbVertex
100
AcDb2dVertex
 10
172.749969
 20
2.131667
 30
0.0
 40
0.0
 41
0.0
  0
SEQEND
  5
33
100
AcDbEntity
  8
0
  0
POLYLINE
  5
34
100
AcDbEntity
  8
1
  6
CONTINUOUS
 62
   212
 48
16.0
100
AcDb2dPolyline
 66
     1
 10
0.0
 20
0.0
 30
0.0
 70
   128
  0
VERTEX
  5
35
100
AcDbEntity
  8
1
  6
CONTINUOUS
 62
   212
 48
16.0
100
AcDbVertex
100
AcDb2dVertex
 10
171.499969
 20
0.5
 30
0.0
 40
0.0
 41
0.0
  0
VERTEX
  5
36
100
AcDbEntity
  8
1
  6
CONTINUOUS
 62
   212
 48
16.0
100
AcDbVertex
100
AcDb2dVertex
 10
171.499969
 20
2.890555
 30
0.0
 40
0.0
 41
0.0
  0
SEQEND
  5
37
100
AcDbEntity
  8
0
  0
POLYLINE
  5
38
100
AcDbEntity
  8
1
  6
CONTINUOUS
 62
   212
 48
16.0
100
AcDb2dPolyline
 66
     1
 10
0.0
 20
0.0
 30
0.0
 70
   128
  0
VERTEX
  5
39
100
AcDbEntity
  8
1
  6
CONTINUOUS
 62
   212
 48
16.0
100
AcDbVertex
100
AcDb2dVertex
 10
170.249969
 20
0.5
 30
0.0
 40
0.0
 41
0.0
  0
VERTEX
  5
3A
100
AcDbEntity
  8
1
  6
CONTINUOUS
 62
   212
 48
16.0
100
AcDbVertex
100
AcDb2dVertex
 10
170.249969
 20
3.426666
 30
0.0
 40
0.0
 41
0.0
  0
SEQEND
  5
3B
100
AcDbEntity
  8
0
  0
POLYLINE
  5
3C
100
AcDbEntity
  8
1
  6
CONTINUOUS
 62
   212
 48
16.0
100
AcDb2dPolyline
 66
     1
 10
0.0
 20
0.0
 30
0.0
 70
   128
  0
VERTEX
  5
3D
100
AcDbEntity
  8
1
  6
CONTINUOUS
 62
   212
 48
16.0
100
AcDbVertex
100
AcDb2dVertex
 10
168.999969
 20
0.5
 30
0.0
 40
0.0
 41
0.0
  0
VERTEX
  5
3E
100
AcDbEntity
  8
1
  6
CONTINUOUS
 62
   212
 48
16.0
100
AcDbVertex
100
AcDb2dVertex
 10
168.999969
 20
3.927223
 30
0.0
 40
0.0
 41
0.0
  0
SEQEND
  5
3F
100
AcDbEntity
  8
0
  0
POLYLINE
  5
40
100
AcDbEntity
  8
1
  6
CONTINUOUS
 62
   212
 48
16.0
100
AcDb2dPolyline
 66
     1
 10
0.0
 20
0.0
 30
0.0
 70
   128
  0
VERTEX
  5
41
100
AcDbEntity
  8
1
  6
CONTINUOUS
 62
   212
 48
16.0
100
AcDbVertex
100
AcDb2dVertex
 10
166.499969
 20
0.5
 30
0.0
 40
0.0
 41
0.0
  0
VERTEX
  5
42
100
AcDbEntity
  8
1
  6
CONTINUOUS
 62
   212
 48
16.0
100
AcDbVertex
100
AcDb2dVertex
 10
166.499969
 20
4.805
 30
0.0
 40
0.0
 41
0.0
  0
SEQEND
  5
43
100
AcDbEntity
  8
0
  0
POLYLINE
  5
44
100
AcDbEntity
  8
1
  6
CONTINUOUS
 62
   212
 48
16.0
100
AcDb2dPolyline
 66
     1
 10
0.0
 20
0.0
 30
0.0
 70
   128
  0
VERTEX
  5
45
100
AcDbEntity
  8
1
  6
CONTINUOUS
 62
   212
 48
16.0
100
AcDbVertex
100
AcDb2dVertex
 10
165.249969
 20
0.5
 30
0.0
 40
0.0
 41
0.0
  0
VERTEX
  5
46
100
AcDbEntity
  8
1
  6
CONTINUOUS
 62
   212
 48
16.0
100
AcDbVertex
100
AcDb2dVertex
 10
165.249969
 20
5.211667
 30
0.0
 40
0.0
 41
0.0
  0
SEQEND
  5
47
100
AcDbEntity
  8
0
  0
POLYLINE
  5
48
100
AcDbEntity
  8
1
  6
CONTINUOUS
 62
   212
 48
16.0
100
AcDb2dPolyline
 66
     1
 10
0.0
 20
0.0
 30
0.0
 70
   128
  0
VERTEX
  5
49
100
AcDbEntity
  8
1
  6
CONTINUOUS
 62
   212
 48
16.0
100
AcDbVertex
100
AcDb2dVertex
 10
163.999969
 20
0.5
 30
0.0
 40
0.0
 41
0.0
  0
VERTEX
  5
4A
100
AcDbEntity
  8
1
  6
CONTINUOUS
 62
   212
 48
16.0
100
AcDbVertex
100
AcDb2dVertex
 10
163.999969
 20
5.593889
 30
0.0
 40
0.0
 41
0.0
  0
SEQEND
  5
4B
100
AcDbEntity
  8
0
  0
POLYLINE
  5
4C
100
AcDbEntity
  8
1
  6
CONTINUOUS
 62
   212
 48
16.0
100
AcDb2dPolyline
 66
     1
 10
0.0
 20
0.0
 30
0.0
 70
   128
  0
VERTEX
  5
4D
100
AcDbEntity
  8
1
  6
CONTINUOUS
 62
   212
 48
16.0
100
AcDbVertex
100
AcDb2dVertex
 10
161.499969
 20
0.5
 30
0.0
 40
0.0
 41
0.0
  0
VERTEX
  5
4E
100
AcDbEntity
  8
1
  6
CONTINUOUS
 62
   212
 48
16.0
100
AcDbVertex
100
AcDb2dVertex
 10
161.499969
 20
6.260555
 30
0.0
 40
0.0
 41
0.0
  0
SEQEND
  5
4F
100
AcDbEntity
  8
0
  0
POLYLINE
  5
50
100
AcDbEntity
  8
1
  6
CONTINUOUS
 62
   212
 48
16.0
100
AcDb2dPolyline
 66
     1
 10
0.0
 20
0.0
 30
0.0
 70
   128
  0
VERTEX
  5
51
100
AcDbEntity
  8
1
  6
CONTINUOUS
 62
   212
 48
16.0
100
AcDbVertex
100
AcDb2dVertex
 10
158.999969
 20
0.5
 30
0.0
 40
0.0
 41
0.0
  0
VERTEX
  5
52
100
AcDbEntity
  8
1
  6
CONTINUOUS
 62
   212
 48
16.0
100
AcDbVertex
100
AcDb2dVertex
 10
158.999969
 20
6.913889
 30
0.0
 40
0.0
 41
0.0
  0
SEQEND
  5
53
100
AcDbEntity
  8
0
  0
POLYLINE
  5
54
100
AcDbEntity
  8
1
  6
CONTINUOUS
 62
   212
 48
16.0
100
AcDb2dPolyline
 66
     1
 10
0.0
 20
0.0
 30
0.0
 70
   128
  0
VERTEX
  5
55
100
AcDbEntity
  8
1
  6
CONTINUOUS
 62
   212
 48
16.0
100
AcDbVertex
100
AcDb2dVertex
 10
153.999969
 20
0.5
 30
0.0
 40
0.0
 41
0.0
  0
VERTEX
  5
56
100
AcDbEntity
  8
1
  6
CONTINUOUS
 62
   212
 48
16.0
100
AcDbVertex
100
AcDb2dVertex
 10
153.999969
 20
7.933334
 30
0.0
 40
0.0
 41
0.0
  0
SEQEND
  5
57
100
AcDbEntity
  8
0
  0
POLYLINE
  5
58
100
AcDbEntity
  8
1
  6
CONTINUOUS
 62
   212
 48
16.0
100
AcDb2dPolyline
 66
     1
 10
0.0
 20
0.0
 30
0.0
 70
   128
  0
VERTEX
  5
59
100
AcDbEntity
  8
1
  6
CONTINUOUS
 62
   212
 48
16.0
100
AcDbVertex
100
AcDb2dVertex
 10
151.499969
 20
0.5
 30
0.0
 40
0.0
 41
0.0
  0
VERTEX
  5
5A
100
AcDbEntity
  8
1
  6
CONTINUOUS
 62
   212
 48
16.0
100
AcDbVertex
100
AcDb2dVertex
 10
151.499969
 20
8.378888
 30
0.0
 40
0.0
 41
0.0
  0
SEQEND
  5
5B
100
AcDbEntity
  8
0
  0
POLYLINE
  5
5C
100
AcDbEntity
  8
1
  6
CONTINUOUS
 62
   212
 48
16.0
100
AcDb2dPolyline
 66
     1
 10
0.0
 20
0.0
 30
0.0
 70
   128
  0
VERTEX
  5
5D
100
AcDbEntity
  8
1
  6
CONTINUOUS
 62
   212
 48
16.0
100
AcDbVertex
100
AcDb2dVertex
 10
148.999969
 20
0.5
 30
0.0
 40
0.0
 41
0.0
  0
VERTEX
  5
5E
100
AcDbEntity
  8
1
  6
CONTINUOUS
 62
   212
 48
16.0
100
AcDbVertex
100
AcDb2dVertex
 10
148.999969
 20
8.775555
 30
0.0
 40
0.0
 41
0.0
  0
SEQEND
  5
5F
100
AcDbEntity
  8
0
  0
POLYLINE
  5
60
100
AcDbEntity
  8
1
  6
CONTINUOUS
 62
   212
 48
16.0
100
AcDb2dPolyline
 66
     1
 10
0.0
 20
0.0
 30
0.0
 70
   128
  0
VERTEX
  5
61
100
AcDbEntity
  8
1
  6
CONTINUOUS
 62
   212
 48
16.0
100
AcDbVertex
100
AcDb2dVertex
 10
146.499969
 20
0.5
 30
0.0
 40
0.0
 41
0.0
  0
VERTEX
  5
62
100
AcDbEntity
  8
1
  6
CONTINUOUS
 62
   212
 48
16.0
100
AcDbVertex
100
AcDb2dVertex
 10
146.499969
 20
9.077777
 30
0.0
 40
0.0
 41
0.0
  0
SEQEND
  5
63
100
AcDbEntity
  8
0
  0
POLYLINE
  5
64
100
AcDbEntity
  8
1
  6
CONTINUOUS
 62
   212
 48
16.0
100
AcDb2dPolyline
 66
     1
 10
0.0
 20
0.0
 30
0.0
 70
   128
  0
VERTEX
  5
65
100
AcDbEntity
  8
1
  6
CONTINUOUS
 62
   212
 48
16.0
100
AcDbVertex
100
AcDb2dVertex
 10
143.999969
 20
0.5
 30
0.0
 40
0.0
 41
0.0
  0
VERTEX
  5
66
100
AcDbEntity
  8
1
  6
CONTINUOUS
 62
   212
 48
16.0
100
AcDbVertex
100
AcDb2dVertex
 10
143.999969
 20
9.43389
 30
0.0
 40
0.0
 41
0.0
  0
SEQEND
  5
67
100
AcDbEntity
  8
0
  0
POLYLINE
  5
68
100
AcDbEntity
  8
1
  6
CONTINUOUS
 62
   212
 48
16.0
100
AcDb2dPolyline
 66
     1
 10
0.0
 20
0.0
 30
0.0
 70
   128
  0
VERTEX
  5
69
100
AcDbEntity
  8
1
  6
CONTINUOUS
 62
   212
 48
16.0
100
AcDbVertex
100
AcDb2dVertex
 10
138.999969
 20
0.5
 30
0.0
 40
0.0
 41
0.0
  0
VERTEX
  5
6A
100
AcDbEntity
  8
1
  6
CONTINUOUS
 62
   212
 48
16.0
100
AcDbVertex
100
AcDb2dVertex
 10
138.999969
 20
9.933331
 30
0.0
 40
0.0
 41
0.0
  0
SEQEND
  5
6B
100
AcDbEntity
  8
0
  0
POLYLINE
  5
6C
100
AcDbEntity
  8
1
  6
CONTINUOUS
 62
   212
 48
16.0
100
AcDb2dPolyline
 66
     1
 10
0.0
 20
0.0
 30
0.0
 70
   128
  0
VERTEX
  5
6D
100
AcDbEntity
  8
1
  6
CONTINUOUS
 62
   212
 48
16.0
100
AcDbVertex
100
AcDb2dVertex
 10
136.499969
 20
0.5
 30
0.0
 40
0.0
 41
0.0
  0
VERTEX
  5
6E
100
AcDbEntity
  8
1
  6
CONTINUOUS
 62
   212
 48
16.0
100
AcDbVertex
100
AcDb2dVertex
 10
136.499969
 20
10.115555
 30
0.0
 40
0.0
 41
0.0
  0
SEQEND
  5
6F
100
AcDbEntity
  8
0
  0
POLYLINE
  5
70
100
AcDbEntity
  8
1
  6
CONTINUOUS
 62
   212
 48
16.0
100
AcDb2dPolyline
 66
     1
 10
0.0
 20
0.0
 30
0.0
 70
   128
  0
VERTEX
  5
71
100
AcDbEntity
  8
1
  6
CONTINUOUS
 62
   212
 48
16.0
100
AcDbVertex
100
AcDb2dVertex
 10
133.999969
 20
0.5
 30
0.0
 40
0.0
 41
0.0
  0
VERTEX
  5
72
100
AcDbEntity
  8
1
  6
CONTINUOUS
 62
   212
 48
16.0
100
AcDbVertex
100
AcDb2dVertex
 10
133.999969
 20
10.263887
 30
0.0
 40
0.0
 41
0.0
  0
SEQEND
  5
73
100
AcDbEntity
  8
0
  0
POLYLINE
  5
74
100
AcDbEntity
  8
1
  6
CONTINUOUS
 62
   212
 48
16.0
100
AcDb2dPolyline
 66
     1
 10
0.0
 20
0.0
 30
0.0
 70
   128
  0
VERTEX
  5
75
100
AcDbEntity
  8
1
  6
CONTINUOUS
 62
   212
 48
16.0
100
AcDbVertex
100
AcDb2dVertex
 10
131.499969
 20
0.5
 30
0.0
 40
0.0
 41
0.0
  0
VERTEX
  5
76
100
AcDbEntity
  8
1
  6
CONTINUOUS
 62
   212
 48
16.0
100
AcDbVertex
100
AcDb2dVertex
 10
131.499969
 20
10.375001
 30
0.0
 40
0.0
 41
0.0
  0
SEQEND
  5
77
100
AcDbEntity
  8
0
  0
POLYLINE
  5
78
100
AcDbEntity
  8
1
  6
CONTINUOUS
 62
   212
 48
16.0
100
AcDb2dPolyline
 66
     1
 10
0.0
 20
0.0
 30
0.0
 70
   128
  0
VERTEX
  5
79
100
AcDbEntity
  8
1
  6
CONTINUOUS
 62
   212
 48
16.0
100
AcDbVertex
100
AcDb2dVertex
 10
128.999969
 20
0.5
 30
0.0
 40
0.0
 41
0.0
  0
VERTEX
  5
7A
100
AcDbEntity
  8
1
  6
CONTINUOUS
 62
   212
 48
16.0
100
AcDbVertex
100
AcDb2dVertex
 10
128.999969
 20
10.449998
 30
0.0
 40
0.0
 41
0.0
  0
SEQEND
  5
7B
100
AcDbEntity
  8
0
  0
POLYLINE
  5
7C
100
AcDbEntity
  8
1
  6
CONTINUOUS
 62
   212
 48
16.0
100
AcDb2dPolyline
 66
     1
 10
0.0
 20
0.0
 30
0.0
 70
   128
  0
VERTEX
  5
7D
100
AcDbEntity
  8
1
  6
CONTINUOUS
 62
   212
 48
16.0
100
AcDbVertex
100
AcDb2dVertex
 10
124.0
 20
0.5
 30
0.0
 40
0.0
 41
0.0
  0
VERTEX
  5
7E
100
AcDbEntity
  8
1
  6
CONTINUOUS
 62
   212
 48
16.0
100
AcDbVertex
100
AcDb2dVertex
 10
124.0
 20
10.5
 30
0.0
 40
0.0
 41
0.0
  0
SEQEND
  5
7F
100
AcDbEntity
  8
0
  0
POLYLINE
  5
80
100
AcDbEntity
  8
1
  6
CONTINUOUS
 62
   212
 48
16.0
100
AcDb2dPolyline
 66
     1
 10
0.0
 20
0.0
 30
0.0
 70
   128
  0
VERTEX
  5
81
100
AcDbEntity
  8
1
  6
CONTINUOUS
 62
   212
 48
16.0
100
AcDbVertex
100
AcDb2dVertex
 10
119.0
 20
0.5
 30
0.0
 40
0.0
 41
0.0
  0
VERTEX
  5
82
100
AcDbEntity
  8
1
  6
CONTINUOUS
 62
   212
 48
16.0
100
AcDbVertex
100
AcDb2dVertex
 10
119.0
 20
10.406667
 30
0.0
 40
0.0
 41
0.0
  0
SEQEND
  5
83
100
AcDbEntity
  8
0
  0
POLYLINE
  5
84
100
AcDbEntity
  8
1
  6
CONTINUOUS
 62
   212
 48
16.0
100
AcDb2dPolyline
 66
     1
 10
0.0
 20
0.0
 30
0.0
 70
   128
  0
VERTEX
  5
85
100
AcDbEntity
  8
1
  6
CONTINUOUS
 62
   212
 48
16.0
100
AcDbVertex
100
AcDb2dVertex
 10
116.5
 20
0.5
 30
0.0
 40
0.0
 41
0.0
  0
VERTEX
  5
86
100
AcDbEntity
  8
1
  6
CONTINUOUS
 62
   212
 48
16.0
100
AcDbVertex
100
AcDb2dVertex
 10
116.5
 20
10.298889
 30
0.0
 40
0.0
 41
0.0
  0
SEQEND
  5
87
100
AcDbEntity
  8
0
  0
POLYLINE
  5
88
100
AcDbEntity
  8
1
  6
CONTINUOUS
 62
   212
 48
16.0
100
AcDb2dPolyline
 66
     1
 10
0.0
 20
0.0
 30
0.0
 70
   128
  0
VERTEX
  5
89
100
AcDbEntity
  8
1
  6
CONTINUOUS
 62
   212
 48
16.0
100
AcDbVertex
100
AcDb2dVertex
 10
114.0
 20
0.5
 30
0.0
 40
0.0
 41
0.0
  0
VERTEX
  5
8A
100
AcDbEntity
  8
1
  6
CONTINUOUS
 62
   212
 48
16.0
100
AcDbVertex
100
AcDb2dVertex
 10
114.0
 20
10.139998
 30
0.0
 40
0.0
 41
0.0
  0
SEQEND
  5
8B
100
AcDbEntity
  8
0
  0
POLYLINE
  5
8C
100
AcDbEntity
  8
1
  6
CONTINUOUS
 62
   212
 48
16.0
100
AcDb2dPolyline
 66
     1
 10
0.0
 20
0.0
 30
0.0
 70
   128
  0
VERTEX
  5
8D
100
AcDbEntity
  8
1
  6
CONTINUOUS
 62
   212
 48
16.0
100
AcDbVertex
100
AcDb2dVertex
 10
111.5
 20
0.5
 30
0.0
 40
0.0
 41
0.0
  0
VERTEX
  5
8E
100
AcDbEntity
  8
1
  6
CONTINUOUS
 62
   212
 48
16.0
100
AcDbVertex
100
AcDb2dVertex
 10
111.5
 20
9.935001
 30
0.0
 40
0.0
 41
0.0
  0
SEQEND
  5
8F
100
AcDbEntity
  8
0
  0
POLYLINE
  5
90
100
AcDbEntity
  8
1
  6
CONTINUOUS
 62
   212
 48
16.0
100
AcDb2dPolyline
 66
     1
 10
0.0
 20
0.0
 30
0.0
 70
   128
  0
VERTEX
  5
91
100
AcDbEntity
  8
1
  6
CONTINUOUS
 62
   212
 48
16.0
100
AcDbVertex
100
AcDb2dVertex
 10
109.0
 20
0.5
 30
0.0
 40
0.0
 41
0.0
  0
VERTEX
  5
92
100
AcDbEntity
  8
1
  6
CONTINUOUS
 62
   212
 48
16.0
100
AcDbVertex
100
AcDb2dVertex
 10
109.0
 20
9.681667
 30
0.0
 40
0.0
 41
0.0
  0
SEQEND
  5
93
100
AcDbEntity
  8
0
  0
POLYLINE
  5
94
100
AcDbEntity
  8
1
  6
CONTINUOUS
 62
   212
 48
16.0
100
AcDb2dPolyline
 66
     1
 10
0.0
 20
0.0
 30
0.0
 70
   128
  0
VERTEX
  5
95
100
AcDbEntity
  8
1
  6
CONTINUOUS
 62
   212
 48
16.0
100
AcDbVertex
100
AcDb2dVertex
 10
104.0
 20
0.5
 30
0.0
 40
0.0
 41
0.0
  0
VERTEX
  5
96
100
AcDbEntity
  8
1
  6
CONTINUOUS
 62
   212
 48
16.0
100
AcDbVertex
100
AcDb2dVertex
 10
104.0
 20
9.007222
 30
0.0
 40
0.0
 41
0.0
  0
SEQEND
  5
97
100
AcDbEntity
  8
0
  0
POLYLINE
  5
98
100
AcDbEntity
  8
1
  6
CONTINUOUS
 62
   212
 48
16.0
100
AcDb2dPolyline
 66
     1
 10
0.0
 20
0.0
 30
0.0
 70
   128
  0
VERTEX
  5
99
100
AcDbEntity
  8
1
  6
CONTINUOUS
 62
   212
 48
16.0
100
AcDbVertex
100
AcDb2dVertex
 10
99.0
 20
0.5
 30
0.0
 40
0.0
 41
0.0
  0
VERTEX
  5
9A
100
AcDbEntity
  8
1
  6
CONTINUOUS
 62
   212
 48
16.0
100
AcDbVertex
100
AcDb2dVertex
 10
99.0
 20
8.165556
 30
0.0
 40
0.0
 41
0.0
  0
SEQEND
  5
9B
100
AcDbEntity
  8
0
  0
POLYLINE
  5
9C
100
AcDbEntity
  8
1
  6
CONTINUOUS
 62
   212
 48
16.0
100
AcDb2dPolyline
 66
     1
 10
0.0
 20
0.0
 30
0.0
 70
   128
  0
VERTEX
  5
9D
100
AcDbEntity
  8
1
  6
CONTINUOUS
 62
   212
 48
16.0
100
AcDbVertex
100
AcDb2dVertex
 10
96.5
 20
0.5
 30
0.0
 40
0.0
 41
0.0
  0
VERTEX
  5
9E
100
AcDbEntity
  8
1
  6
CONTINUOUS
 62
   212
 48
16.0
100
AcDbVertex
100
AcDb2dVertex
 10
96.5
 20
7.678889
 30
0.0
 40
0.0
 41
0.0
  0
SEQEND
  5
9F
100
AcDbEntity
  8
0
  0
POLYLINE
  5
A0
100
AcDbEntity
  8
1
  6
CONTINUOUS
 62
   212
 48
16.0
100
AcDb2dPolyline
 66
     1
 10
0.0
 20
0.0
 30
0.0
 70
   128
  0
VERTEX
  5
A1
100
AcDbEntity
  8
1
  6
CONTINUOUS
 62
   212
 48
16.0
100
AcDbVertex
100
AcDb2dVertex
 10
94.0
 20
0.5
 30
0.0
 40
0.0
 41
0.0
  0
VERTEX
  5
A2
100
AcDbEntity
  8
1
  6
CONTINUOUS
 62
   212
 48
16.0
100
AcDbVertex
100
AcDb2dVertex
 10
94.0
 20
7.140555
 30
0.0
 40
0.0
 41
0.0
  0
SEQEND
  5
A3
100
AcDbEntity
  8
0
  0
POLYLINE
  5
A4
100
AcDbEntity
  8
1
  6
CONTINUOUS
 62
   212
 48
16.0
100
AcDb2dPolyline
 66
     1
 10
0.0
 20
0.0
 30
0.0
 70
   128
  0
VERTEX
  5
A5
100
AcDbEntity
  8
1
  6
CONTINUOUS
 62
   212
 48
16.0
100
AcDbVertex
100
AcDb2dVertex
 10
89.0
 20
0.5
 30
0.0
 40
0.0
 41
0.0
  0
VERTEX
  5
A6
100
AcDbEntity
  8
1
  6
CONTINUOUS
 62
   212
 48
16.0
100
AcDbVertex
100
AcDb2dVertex
 10
89.0
 20
5.900556
 30
0.0
 40
0.0
 41
0.0
  0
SEQEND
  5
A7
100
AcDbEntity
  8
0
  0
POLYLINE
  5
A8
100
AcDbEntity
  8
1
  6
CONTINUOUS
 62
   212
 48
16.0
100
AcDb2dPolyline
 66
     1
 10
0.0
 20
0.0
 30
0.0
 70
   128
  0
VERTEX
  5
A9
100
AcDbEntity
  8
1
  6
CONTINUOUS
 62
   212
 48
16.0
100
AcDbVertex
100
AcDb2dVertex
 10
86.5
 20
0.5
 30
0.0
 40
0.0
 41
0.0
  0
VERTEX
  5
AA
100
AcDbEntity
  8
1
  6
CONTINUOUS
 62
   212
 48
16.0
100
AcDbVertex
100
AcDb2dVertex
 10
86.5
 20
5.202778
 30
0.0
 40
0.0
 41
0.0
  0
SEQEND
  5
AB
100
AcDbEntity
  8
0
  0
POLYLINE
  5
AC
100
AcDbEntity
  8
1
  6
CONTINUOUS
 62
   212
 48
16.0
100
AcDb2dPolyline
 66
     1
 10
0.0
 20
0.0
 30
0.0
 70
   128
  0
VERTEX
  5
AD
100
AcDbEntity
  8
1
  6
CONTINUOUS
 62
   212
 48
16.0
100
AcDbVertex
100
AcDb2dVertex
 10
84.0
 20
0.5
 30
0.0
 40
0.0
 41
0.0
  0
VERTEX
  5
AE
100
AcDbEntity
  8
1
  6
CONTINUOUS
 62
   212
 48
16.0
100
AcDbVertex
100
AcDb2dVertex
 10
84.0
 20
4.460555
 30
0.0
 40
0.0
 41
0.0
  0
SEQEND
  5
AF
100
AcDbEntity
  8
0
  0
POLYLINE
  5
B0
100
AcDbEntity
  8
1
  6
CONTINUOUS
 62
   212
 48
16.0
100
AcDb2dPolyline
 66
     1
 10
0.0
 20
0.0
 30
0.0
 70
   128
  0
VERTEX
  5
B1
100
AcDbEntity
  8
1
  6
CONTINUOUS
 62
   212
 48
16.0
100
AcDbVertex
100
AcDb2dVertex
 10
82.75
 20
0.5
 30
0.0
 40
0.0
 41
0.0
  0
VERTEX
  5
B2
100
AcDbEntity
  8
1
  6
CONTINUOUS
 62
   212
 48
16.0
100
AcDbVertex
100
AcDb2dVertex
 10
82.75
 20
4.065
 30
0.0
 40
0.0
 41
0.0
  0
SEQEND
  5
B3
100
AcDbEntity
  8
0
  0
POLYLINE
  5
B4
100
AcDbEntity
  8
1
  6
CONTINUOUS
 62
   212
 48
16.0
100
AcDb2dPolyline
 66
     1
 10
0.0
 20
0.0
 30
0.0
 70
   128
  0
VERTEX
  5
B5
100
AcDbEntity
  8
1
  6
CONTINUOUS
 62
   212
 48
16.0
100
AcDbVertex
100
AcDb2dVertex
 10
81.5
 20
0.5
 30
0.0
 40
0.0
 41
0.0
  0
VERTEX
  5
B6
100
AcDbEntity
  8
1
  6
CONTINUOUS
 62
   212
 48
16.0
100
AcDbVertex
100
AcDb2dVertex
 10
81.5
 20
3.661111
 30
0.0
 40
0.0
 41
0.0
  0
SEQEND
  5
B7
100
AcDbEntity
  8
0
  0
POLYLINE
  5
B8
100
AcDbEntity
  8
1
  6
CONTINUOUS
 62
   212
 48
16.0
100
AcDb2dPolyline
 66
     1
 10
0.0
 20
0.0
 30
0.0
 70
   128
  0
VERTEX
  5
B9
100
AcDbEntity
  8
1
  6
CONTINUOUS
 62
   212
 48
16.0
100
AcDbVertex
100
AcDb2dVertex
 10
79.0
 20
0.5
 30
0.0
 40
0.0
 41
0.0
  0
VERTEX
  5
BA
100
AcDbEntity
  8
1
  6
CONTINUOUS
 62
   212
 48
16.0
100
AcDbVertex
100
AcDb2dVertex
 10
79.0
 20
2.813889
 30
0.0
 40
0.0
 41
0.0
  0
SEQEND
  5
BB
100
AcDbEntity
  8
0
  0
POLYLINE
  5
BC
100
AcDbEntity
  8
1
  6
CONTINUOUS
 62
   212
 48
16.0
100
AcDb2dPolyline
 66
     1
 10
0.0
 20
0.0
 30
0.0
 70
   128
  0
VERTEX
  5
BD
100
AcDbEntity
  8
1
  6
CONTINUOUS
 62
   212
 48
16.0
100
AcDbVertex
100
AcDb2dVertex
 10
77.75
 20
0.5
 30
0.0
 40
0.0
 41
0.0
  0
VERTEX
  5
BE
100
AcDbEntity
  8
1
  6
CONTINUOUS
 62
   212
 48
16.0
100
AcDbVertex
100
AcDb2dVertex
 10
77.75
 20
2.356666
 30
0.0
 40
0.0
 41
0.0
  0
SEQEND
  5
BF
100
AcDbEntity
  8
0
  0
POLYLINE
  5
C0
100
AcDbEntity
  8
1
  6
CONTINUOUS
 62
   212
 48
16.0
100
AcDb2dPolyline
 66
     1
 10
0.0
 20
0.0
 30
0.0
 70
   128
  0
VERTEX
  5
C1
100
AcDbEntity
  8
1
  6
CONTINUOUS
 62
   212
 48
16.0
100
AcDbVertex
100
AcDb2dVertex
 10
76.5
 20
0.5
 30
0.0
 40
0.0
 41
0.0
  0
VERTEX
  5
C2
100
AcDbEntity
  8
1
  6
CONTINUOUS
 62
   212
 48
16.0
100
AcDbVertex
100
AcDb2dVertex
 10
76.5
 20
1.862222
 30
0.0
 40
0.0
 41
0.0
  0
SEQEND
  5
C3
100
AcDbEntity
  8
0
  0
POLYLINE
  5
C4
100
AcDbEntity
  8
1
  6
CONTINUOUS
 62
   212
 48
16.0
100
AcDb2dPolyline
 66
     1
 10
0.0
 20
0.0
 30
0.0
 70
   128
  0
VERTEX
  5
C5
100
AcDbEntity
  8
1
  6
CONTINUOUS
 62
   212
 48
16.0
100
AcDbVertex
100
AcDb2dVertex
 10
76.25
 20
0.5
 30
0.0
 40
0.0
 41
0.0
  0
VERTEX
  5
C6
100
AcDbEntity
  8
1
  6
CONTINUOUS
 62
   212
 48
16.0
100
AcDbVertex
100
AcDb2dVertex
 10
76.25
 20
1.763333
 30
0.0
 40
0.0
 41
0.0
  0
SEQEND
  5
C7
100
AcDbEntity
  8
0
  0
POLYLINE
  5
C8
100
AcDbEntity
  8
1
  6
CONTINUOUS
 62
   212
 48
16.0
100
AcDb2dPolyline
 66
     1
 10
0.0
 20
0.0
 30
0.0
 70
   128
  0
VERTEX
  5
C9
100
AcDbEntity
  8
1
  6
CONTINUOUS
 62
   212
 48
16.0
100
AcDbVertex
100
AcDb2dVertex
 10
75.25
 20
0.5
 30
0.0
 40
0.0
 41
0.0
  0
VERTEX
  5
CA
100
AcDbEntity
  8
1
  6
CONTINUOUS
 62
   212
 48
16.0
100
AcDbVertex
100
AcDb2dVertex
 10
75.25
 20
1.288889
 30
0.0
 40
0.0
 41
0.0
  0
SEQEND
  5
CB
100
AcDbEntity
  8
0
  0
POLYLINE
  5
CC
100
AcDbEntity
  8
1
  6
CONTINUOUS
 62
   212
 48
16.0
100
AcDb2dPolyline
 66
     1
 10
0.0
 20
0.0
 30
0.0
 70
   128
  0
VERTEX
  5
CD
100
AcDbEntity
  8
1
  6
CONTINUOUS
 62
   212
 48
16.0
100
AcDbVertex
100
AcDb2dVertex
 10
74.625
 20
0.5
 30
0.0
 40
0.0
 41
0.0
  0
VERTEX
  5
CE
100
AcDbEntity
  8
1
  6
CONTINUOUS
 62
   212
 48
16.0
100
AcDbVertex
100
AcDb2dVertex
 10
74.625
 20
0.938333
 30
0.0
 40
0.0
 41
0.0
  0
SEQEND
  5
CF
100
AcDbEntity
  8
0
  0
POLYLINE
  5
D0
100
AcDbEntity
  8
1
  6
CONTINUOUS
 62
   212
 48
16.0
100
AcDb2dPolyline
 66
     1
 10
0.0
 20
0.0
 30
0.0
 70
   128
  0
VERTEX
  5
D1
100
AcDbEntity
  8
1
  6
CONTINUOUS
 62
   212
 48
16.0
100
AcDbVertex
100
AcDb2dVertex
 10
74.0
 20
0.5
 30
0.0
 40
0.0
 41
0.0
  0
VERTEX
  5
D2
100
AcDbEntity
  8
1
  6
CONTINUOUS
 62
   212
 48
16.0
100
AcDbVertex
100
AcDb2dVertex
 10
74.0
 20
0.5
 30
0.0
 40
0.0
 41
0.0
  0
SEQEND
  5
D3
100
AcDbEntity
  8
0
  0
POLYLINE
  5
D4
100
AcDbEntity
  8
1
  6
CONTINUOUS
 62
   212
 48
16.0
100
AcDb2dPolyline
 66
     1
 10
0.0
 20
0.0
 30
0.0
 70
   128
  0
VERTEX
  5
D5
100
AcDbEntity
  8
1
  6
CONTINUOUS
 62
   212
 48
16.0
100
AcDbVertex
100
AcDb2dVertex
 10
173.999969
 20
0.5
 30
0.0
 40
0.0
 41
0.0
  0
VERTEX
  5
D6
100
AcDbEntity
  8
1
  6
CONTINUOUS
 62
   212
 48
16.0
100
AcDbVertex
100
AcDb2dVertex
 10
173.999969
 20
0.5
 30
0.0
 40
0.0
 41
0.0
  0
SEQEND
  5
D7
100
AcDbEntity
  8
0
  0
POLYLINE
  5
D8
100
AcDbEntity
  8
1
  6
CONTINUOUS
 62
   212
 48
16.0
100
AcDb2dPolyline
 66
     1
 10
0.0
 20
0.0
 30
0.0
 70
   128
  0
VERTEX
  5
D9
100
AcDbEntity
  8
1
  6
CONTINUOUS
 62
   212
 48
16.0
100
AcDbVertex
100
AcDb2dVertex
 10
173.999969
 20
0.5
 30
0.0
 40
0.0
 41
0.0
  0
VERTEX
  5
DA
100
AcDbEntity
  8
1
  6
CONTINUOUS
 62
   212
 48
16.0
100
AcDbVertex
100
AcDb2dVertex
 10
173.999969
 20
0.5
 30
0.0
 40
0.0
 41
0.0
  0
SEQEND
  5
DB
100
AcDbEntity
  8
0
  0
TEXT
  5
DC
100
AcDbEntity
  8
1
 62
   212
 48
0.0
100
AcDbText
 10
107.163918
 20
2.182198
 30
0.0
 40
1.666667
  1
Çemberci Denizcilik
 72
     5
 11
142.863892
 21
2.182198
 31
0.0
210
0.0
220
0.0
230
1.0
100
AcDbText
  0
TEXT
  5
DD
100
AcDbEntity
  8
1
 62
   212
 48
0.0
100
AcDbText
 10
109.45108
 20
5.429409
 30
0.0
 40
1.666667
  1
Walchner  Profil
 72
     5
 11
138.641052
 21
5.429409
 31
0.0
210
0.0
220
0.0
230
1.0
100
AcDbText
  0
POLYLINE
  5
DE
100
AcDbEntity
  8
1
  6
CONTINUOUS
 62
   212
 48
16.0
100
AcDb2dPolyline
 66
     1
 10
0.0
 20
0.0
 30
0.0
 70
   128
  0
VERTEX
  5
DF
100
AcDbEntity
  8
1
  6
CONTINUOUS
 62
   212
 48
16.0
100
AcDbVertex
100
AcDb2dVertex
 10
171.749969
 20
0.5
 30
0.0
 40
0.0
 41
0.0
  0
VERTEX
  5
E0
100
AcDbEntity
  8
1
  6
CONTINUOUS
 62
   212
 48
16.0
100
AcDbVertex
100
AcDb2dVertex
 10
171.749969
 20
2.781868
 30
0.0
 40
0.0
 41
0.0
  0
SEQEND
  5
E1
100
AcDbEntity
  8
0
  0
POLYLINE
  5
E2
100
AcDbEntity
  8
1
  6
CONTINUOUS
 62
   212
 48
16.0
100
AcDb2dPolyline
 66
     1
 10
0.0
 20
0.0
 30
0.0
 70
   128
  0
VERTEX
  5
E3
100
AcDbEntity
  8
1
  6
CONTINUOUS
 62
   212
 48
16.0
100
AcDbVertex
100
AcDb2dVertex
 10
173.375
 20
0.500002
 30
0.0
 40
0.0
 41
0.0
  0
VERTEX
  5
E4
100
AcDbEntity
  8
1
  6
CONTINUOUS
 62
   212
 48
16.0
100
AcDbVertex
100
AcDb2dVertex
 10
173.375
 20
-0.622776
 30
0.0
 40
0.0
 41
0.0
  0
SEQEND
  5
E5
100
AcDbEntity
  8
0
  0
POLYLINE
  5
E6
100
AcDbEntity
  8
1
  6
CONTINUOUS
 62
   212
 48
16.0
100
AcDb2dPolyline
 66
     1
 10
0.0
 20
0.0
 30
0.0
 70
   128
  0
VERTEX
  5
E7
100
AcDbEntity
  8
1
  6
CONTINUOUS
 62
   212
 48
16.0
100
AcDbVertex
100
AcDb2dVertex
 10
172.75
 20
0.500002
 30
0.0
 40
0.0
 41
0.0
  0
VERTEX
  5
E8
100
AcDbEntity
  8
1
  6
CONTINUOUS
 62
   212
 48
16.0
100
AcDbVertex
100
AcDb2dVertex
 10
172.75
 20
-1.131665
 30
0.0
 40
0.0
 41
0.0
  0
SEQEND
  5
E9
100
AcDbEntity
  8
0
  0
POLYLINE
  5
EA
100
AcDbEntity
  8
1
  6
CONTINUOUS
 62
   212
 48
16.0
100
AcDb2dPolyline
 66
     1
 10
0.0
 20
0.0
 30
0.0
 70
   128
  0
VERTEX
  5
EB
100
AcDbEntity
  8
1
  6
CONTINUOUS
 62
   212
 48
16.0
100
AcDbVertex
100
AcDb2dVertex
 10
171.5
 20
0.500002
 30
0.0
 40
0.0
 41
0.0
  0
VERTEX
  5
EC
100
AcDbEntity
  8
1
  6
CONTINUOUS
 62
   212
 48
16.0
100
AcDbVertex
100
AcDb2dVertex
 10
171.5
 20
-1.890553
 30
0.0
 40
0.0
 41
0.0
  0
SEQEND
  5
ED
100
AcDbEntity
  8
0
  0
POLYLINE
  5
EE
100
AcDbEntity
  8
1
  6
CONTINUOUS
 62
   212
 48
16.0
100
AcDb2dPolyline
 66
     1
 10
0.0
 20
0.0
 30
0.0
 70
   128
  0
VERTEX
  5
EF
100
AcDbEntity
  8
1
  6
CONTINUOUS
 62
   212
 48
16.0
100
AcDbVertex
100
AcDb2dVertex
 10
170.25
 20
0.500002
 30
0.0
 40
0.0
 41
0.0
  0
VERTEX
  5
F0
100
AcDbEntity
  8
1
  6
CONTINUOUS
 62
   212
 48
16.0
100
AcDbVertex
100
AcDb2dVertex
 10
170.25
 20
-2.426664
 30
0.0
 40
0.0
 41
0.0
  0
SEQEND
  5
F1
100
AcDbEntity
  8
0
  0
POLYLINE
  5
F2
100
AcDbEntity
  8
1
  6
CONTINUOUS
 62
   212
 48
16.0
100
AcDb2dPolyline
 66
     1
 10
0.0
 20
0.0
 30
0.0
 70
   128
  0
VERTEX
  5
F3
100
AcDbEntity
  8
1
  6
CONTINUOUS
 62
   212
 48
16.0
100
AcDbVertex
100
AcDb2dVertex
 10
169.0
 20
0.500002
 30
0.0
 40
0.0
 41
0.0
  0
VERTEX
  5
F4
100
AcDbEntity
  8
1
  6
CONTINUOUS
 62
   212
 48
16.0
100
AcDbVertex
100
AcDb2dVertex
 10
169.0
 20
-2.92722
 30
0.0
 40
0.0
 41
0.0
  0
SEQEND
  5
F5
100
AcDbEntity
  8
0
  0
POLYLINE
  5
F6
100
AcDbEntity
  8
1
  6
CONTINUOUS
 62
   212
 48
16.0
100
AcDb2dPolyline
 66
     1
 10
0.0
 20
0.0
 30
0.0
 70
   128
  0
VERTEX
  5
F7
100
AcDbEntity
  8
1
  6
CONTINUOUS
 62
   212
 48
16.0
100
AcDbVertex
100
AcDb2dVertex
 10
166.5
 20
0.500002
 30
0.0
 40
0.0
 41
0.0
  0
VERTEX
  5
F8
100
AcDbEntity
  8
1
  6
CONTINUOUS
 62
   212
 48
16.0
100
AcDbVertex
100
AcDb2dVertex
 10
166.5
 20
-3.804998
 30
0.0
 40
0.0
 41
0.0
  0
SEQEND
  5
F9
100
AcDbEntity
  8
0
  0
POLYLINE
  5
FA
100
AcDbEntity
  8
1
  6
CONTINUOUS
 62
   212
 48
16.0
100
AcDb2dPolyline
 66
     1
 10
0.0
 20
0.0
 30
0.0
 70
   128
  0
VERTEX
  5
FB
100
AcDbEntity
  8
1
  6
CONTINUOUS
 62
   212
 48
16.0
100
AcDbVertex
100
AcDb2dVertex
 10
165.25
 20
0.500002
 30
0.0
 40
0.0
 41
0.0
  0
VERTEX
  5
FC
100
AcDbEntity
  8
1
  6
CONTINUOUS
 62
   212
 48
16.0
100
AcDbVertex
100
AcDb2dVertex
 10
165.25
 20
-4.211665
 30
0.0
 40
0.0
 41
0.0
  0
SEQEND
  5
FD
100
AcDbEntity
  8
0
  0
POLYLINE
  5
FE
100
AcDbEntity
  8
1
  6
CONTINUOUS
 62
   212
 48
16.0
100
AcDb2dPolyline
 66
     1
 10
0.0
 20
0.0
 30
0.0
 70
   128
  0
VERTEX
  5
FF
100
AcDbEntity
  8
1
  6
CONTINUOUS
 62
   212
 48
16.0
100
AcDbVertex
100
AcDb2dVertex
 10
164.0
 20
0.500002
 30
0.0
 40
0.0
 41
0.0
  0
VERTEX
  5
100
100
AcDbEntity
  8
1
  6
CONTINUOUS
 62
   212
 48
16.0
100
AcDbVertex
100
AcDb2dVertex
 10
164.0
 20
-4.593888
 30
0.0
 40
0.0
 41
0.0
  0
SEQEND
  5
101
100
AcDbEntity
  8
0
  0
POLYLINE
  5
102
100
AcDbEntity
  8
1
  6
CONTINUOUS
 62
   212
 48
16.0
100
AcDb2dPolyline
 66
     1
 10
0.0
 20
0.0
 30
0.0
 70
   128
  0
VERTEX
  5
103
100
AcDbEntity
  8
1
  6
CONTINUOUS
 62
   212
 48
16.0
100
AcDbVertex
100
AcDb2dVertex
 10
161.5
 20
0.500002
 30
0.0
 40
0.0
 41
0.0
  0
VERTEX
  5
104
100
AcDbEntity
  8
1
  6
CONTINUOUS
 62
   212
 48
16.0
100
AcDbVertex
100
AcDb2dVertex
 10
161.5
 20
-5.260554
 30
0.0
 40
0.0
 41
0.0
  0
SEQEND
  5
105
100
AcDbEntity
  8
0
  0
POLYLINE
  5
106
100
AcDbEntity
  8
1
  6
CONTINUOUS
 62
   212
 48
16.0
100
AcDb2dPolyline
 66
     1
 10
0.0
 20
0.0
 30
0.0
 70
   128
  0
VERTEX
  5
107
100
AcDbEntity
  8
1
  6
CONTINUOUS
 62
   212
 48
16.0
100
AcDbVertex
100
AcDb2dVertex
 10
159.0
 20
0.500002
 30
0.0
 40
0.0
 41
0.0
  0
VERTEX
  5
108
100
AcDbEntity
  8
1
  6
CONTINUOUS
 62
   212
 48
16.0
100
AcDbVertex
100
AcDb2dVertex
 10
159.0
 20
-5.913887
 30
0.0
 40
0.0
 41
0.0
  0
SEQEND
  5
109
100
AcDbEntity
  8
0
  0
POLYLINE
  5
10A
100
AcDbEntity
  8
1
  6
CONTINUOUS
 62
   212
 48
16.0
100
AcDb2dPolyline
 66
     1
 10
0.0
 20
0.0
 30
0.0
 70
   128
  0
VERTEX
  5
10B
100
AcDbEntity
  8
1
  6
CONTINUOUS
 62
   212
 48
16.0
100
AcDbVertex
100
AcDb2dVertex
 10
154.0
 20
0.500001
 30
0.0
 40
0.0
 41
0.0
  0
VERTEX
  5
10C
100
AcDbEntity
  8
1
  6
CONTINUOUS
 62
   212
 48
16.0
100
AcDbVertex
100
AcDb2dVertex
 10
154.0
 20
-6.933332
 30
0.0
 40
0.0
 41
0.0
  0
SEQEND
  5
10D
100
AcDbEntity
  8
0
  0
POLYLINE
  5
10E
100
AcDbEntity
  8
1
  6
CONTINUOUS
 62
   212
 48
16.0
100
AcDb2dPolyline
 66
     1
 10
0.0
 20
0.0
 30
0.0
 70
   128
  0
VERTEX
  5
10F
100
AcDbEntity
  8
1
  6
CONTINUOUS
 62
   212
 48
16.0
100
AcDbVertex
100
AcDb2dVertex
 10
151.5
 20
0.500001
 30
0.0
 40
0.0
 41
0.0
  0
VERTEX
  5
110
100
AcDbEntity
  8
1
  6
CONTINUOUS
 62
   212
 48
16.0
100
AcDbVertex
100
AcDb2dVertex
 10
151.5
 20
-7.378887
 30
0.0
 40
0.0
 41
0.0
  0
SEQEND
  5
111
100
AcDbEntity
  8
0
  0
POLYLINE
  5
112
100
AcDbEntity
  8
1
  6
CONTINUOUS
 62
   212
 48
16.0
100
AcDb2dPolyline
 66
     1
 10
0.0
 20
0.0
 30
0.0
 70
   128
  0
VERTEX
  5
113
100
AcDbEntity
  8
1
  6
CONTINUOUS
 62
   212
 48
16.0
100
AcDbVertex
100
AcDb2dVertex
 10
149.0
 20
0.500001
 30
0.0
 40
0.0
 41
0.0
  0
VERTEX
  5
114
100
AcDbEntity
  8
1
  6
CONTINUOUS
 62
   212
 48
16.0
100
AcDbVertex
100
AcDb2dVertex
 10
149.0
 20
-7.775554
 30
0.0
 40
0.0
 41
0.0
  0
SEQEND
  5
115
100
AcDbEntity
  8
0
  0
POLYLINE
  5
116
100
AcDbEntity
  8
1
  6
CONTINUOUS
 62
   212
 48
16.0
100
AcDb2dPolyline
 66
     1
 10
0.0
 20
0.0
 30
0.0
 70
   128
  0
VERTEX
  5
117
100
AcDbEntity
  8
1
  6
CONTINUOUS
 62
   212
 48
16.0
100
AcDbVertex
100
AcDb2dVertex
 10
146.5
 20
0.500001
 30
0.0
 40
0.0
 41
0.0
  0
VERTEX
  5
118
100
AcDbEntity
  8
1
  6
CONTINUOUS
 62
   212
 48
16.0
100
AcDbVertex
100
AcDb2dVertex
 10
146.5
 20
-8.077776
 30
0.0
 40
0.0
 41
0.0
  0
SEQEND
  5
119
100
AcDbEntity
  8
0
  0
POLYLINE
  5
11A
100
AcDbEntity
  8
1
  6
CONTINUOUS
 62
   212
 48
16.0
100
AcDb2dPolyline
 66
     1
 10
0.0
 20
0.0
 30
0.0
 70
   128
  0
VERTEX
  5
11B
100
AcDbEntity
  8
1
  6
CONTINUOUS
 62
   212
 48
16.0
100
AcDbVertex
100
AcDb2dVertex
 10
144.0
 20
0.500001
 30
0.0
 40
0.0
 41
0.0
  0
VERTEX
  5
11C
100
AcDbEntity
  8
1
  6
CONTINUOUS
 62
   212
 48
16.0
100
AcDbVertex
100
AcDb2dVertex
 10
144.0
 20
-8.433888
 30
0.0
 40
0.0
 41
0.0
  0
SEQEND
  5
11D
100
AcDbEntity
  8
0
  0
POLYLINE
  5
11E
100
AcDbEntity
  8
1
  6
CONTINUOUS
 62
   212
 48
16.0
100
AcDb2dPolyline
 66
     1
 10
0.0
 20
0.0
 30
0.0
 70
   128
  0
VERTEX
  5
11F
100
AcDbEntity
  8
1
  6
CONTINUOUS
 62
   212
 48
16.0
100
AcDbVertex
100
AcDb2dVertex
 10
139.0
 20
0.500001
 30
0.0
 40
0.0
 41
0.0
  0
VERTEX
  5
120
100
AcDbEntity
  8
1
  6
CONTINUOUS
 62
   212
 48
16.0
100
AcDbVertex
100
AcDb2dVertex
 10
139.0
 20
-8.933332
 30
0.0
 40
0.0
 41
0.0
  0
SEQEND
  5
121
100
AcDbEntity
  8
0
  0
POLYLINE
  5
122
100
AcDbEntity
  8
1
  6
CONTINUOUS
 62
   212
 48
16.0
100
AcDb2dPolyline
 66
     1
 10
0.0
 20
0.0
 30
0.0
 70
   128
  0
VERTEX
  5
123
100
AcDbEntity
  8
1
  6
CONTINUOUS
 62
   212
 48
16.0
100
AcDbVertex
100
AcDb2dVertex
 10
136.5
 20
0.5
 30
0.0
 40
0.0
 41
0.0
  0
VERTEX
  5
124
100
AcDbEntity
  8
1
  6
CONTINUOUS
 62
   212
 48
16.0
100
AcDbVertex
100
AcDb2dVertex
 10
136.5
 20
-9.115555
 30
0.0
 40
0.0
 41
0.0
  0
SEQEND
  5
125
100
AcDbEntity
  8
0
  0
POLYLINE
  5
126
100
AcDbEntity
  8
1
  6
CONTINUOUS
 62
   212
 48
16.0
100
AcDb2dPolyline
 66
     1
 10
0.0
 20
0.0
 30
0.0
 70
   128
  0
VERTEX
  5
127
100
AcDbEntity
  8
1
  6
CONTINUOUS
 62
   212
 48
16.0
100
AcDbVertex
100
AcDb2dVertex
 10
134.0
 20
0.5
 30
0.0
 40
0.0
 41
0.0
  0
VERTEX
  5
128
100
AcDbEntity
  8
1
  6
CONTINUOUS
 62
   212
 48
16.0
100
AcDbVertex
100
AcDb2dVertex
 10
134.0
 20
-9.263889
 30
0.0
 40
0.0
 41
0.0
  0
SEQEND
  5
129
100
AcDbEntity
  8
0
  0
POLYLINE
  5
12A
100
AcDbEntity
  8
1
  6
CONTINUOUS
 62
   212
 48
16.0
100
AcDb2dPolyline
 66
     1
 10
0.0
 20
0.0
 30
0.0
 70
   128
  0
VERTEX
  5
12B
100
AcDbEntity
  8
1
  6
CONTINUOUS
 62
   212
 48
16.0
100
AcDbVertex
100
AcDb2dVertex
 10
131.5
 20
0.5
 30
0.0
 40
0.0
 41
0.0
  0
VERTEX
  5
12C
100
AcDbEntity
  8
1
  6
CONTINUOUS
 62
   212
 48
16.0
100
AcDbVertex
100
AcDb2dVertex
 10
131.5
 20
-9.375001
 30
0.0
 40
0.0
 41
0.0
  0
SEQEND
  5
12D
100
AcDbEntity
  8
0
  0
POLYLINE
  5
12E
100
AcDbEntity
  8
1
  6
CONTINUOUS
 62
   212
 48
16.0
100
AcDb2dPolyline
 66
     1
 10
0.0
 20
0.0
 30
0.0
 70
   128
  0
VERTEX
  5
12F
100
AcDbEntity
  8
1
  6
CONTINUOUS
 62
   212
 48
16.0
100
AcDbVertex
100
AcDb2dVertex
 10
129.0
 20
0.5
 30
0.0
 40
0.0
 41
0.0
  0
VERTEX
  5
130
100
AcDbEntity
  8
1
  6
CONTINUOUS
 62
   212
 48
16.0
100
AcDbVertex
100
AcDb2dVertex
 10
129.0
 20
-9.45
 30
0.0
 40
0.0
 41
0.0
  0
SEQEND
  5
131
100
AcDbEntity
  8
0
  0
POLYLINE
  5
132
100
AcDbEntity
  8
1
  6
CONTINUOUS
 62
   212
 48
16.0
100
AcDb2dPolyline
 66
     1
 10
0.0
 20
0.0
 30
0.0
 70
   128
  0
VERTEX
  5
133
100
AcDbEntity
  8
1
  6
CONTINUOUS
 62
   212
 48
16.0
100
AcDbVertex
100
AcDb2dVertex
 10
124.0
 20
0.5
 30
0.0
 40
0.0
 41
0.0
  0
VERTEX
  5
134
100
AcDbEntity
  8
1
  6
CONTINUOUS
 62
   212
 48
16.0
100
AcDbVertex
100
AcDb2dVertex
 10
124.0
 20
-9.5
 30
0.0
 40
0.0
 41
0.0
  0
SEQEND
  5
135
100
AcDbEntity
  8
0
  0
POLYLINE
  5
136
100
AcDbEntity
  8
1
  6
CONTINUOUS
 62
   212
 48
16.0
100
AcDb2dPolyline
 66
     1
 10
0.0
 20
0.0
 30
0.0
 70
   128
  0
VERTEX
  5
137
100
AcDbEntity
  8
1
  6
CONTINUOUS
 62
   212
 48
16.0
100
AcDbVertex
100
AcDb2dVertex
 10
119.0
 20
0.5
 30
0.0
 40
0.0
 41
0.0
  0
VERTEX
  5
138
100
AcDbEntity
  8
1
  6
CONTINUOUS
 62
   212
 48
16.0
100
AcDbVertex
100
AcDb2dVertex
 10
119.0
 20
-9.406667
 30
0.0
 40
0.0
 41
0.0
  0
SEQEND
  5
139
100
AcDbEntity
  8
0
  0
POLYLINE
  5
13A
100
AcDbEntity
  8
1
  6
CONTINUOUS
 62
   212
 48
16.0
100
AcDb2dPolyline
 66
     1
 10
0.0
 20
0.0
 30
0.0
 70
   128
  0
VERTEX
  5
13B
100
AcDbEntity
  8
1
  6
CONTINUOUS
 62
   212
 48
16.0
100
AcDbVertex
100
AcDb2dVertex
 10
116.5
 20
0.5
 30
0.0
 40
0.0
 41
0.0
  0
VERTEX
  5
13C
100
AcDbEntity
  8
1
  6
CONTINUOUS
 62
   212
 48
16.0
100
AcDbVertex
100
AcDb2dVertex
 10
116.5
 20
-9.298889
 30
0.0
 40
0.0
 41
0.0
  0
SEQEND
  5
13D
100
AcDbEntity
  8
0
  0
POLYLINE
  5
13E
100
AcDbEntity
  8
1
  6
CONTINUOUS
 62
   212
 48
16.0
100
AcDb2dPolyline
 66
     1
 10
0.0
 20
0.0
 30
0.0
 70
   128
  0
VERTEX
  5
13F
100
AcDbEntity
  8
1
  6
CONTINUOUS
 62
   212
 48
16.0
100
AcDbVertex
100
AcDb2dVertex
 10
114.0
 20
0.499999
 30
0.0
 40
0.0
 41
0.0
  0
VERTEX
  5
140
100
AcDbEntity
  8
1
  6
CONTINUOUS
 62
   212
 48
16.0
100
AcDbVertex
100
AcDb2dVertex
 10
114.0
 20
-9.140002
 30
0.0
 40
0.0
 41
0.0
  0
SEQEND
  5
141
100
AcDbEntity
  8
0
  0
POLYLINE
  5
142
100
AcDbEntity
  8
1
  6
CONTINUOUS
 62
   212
 48
16.0
100
AcDb2dPolyline
 66
     1
 10
0.0
 20
0.0
 30
0.0
 70
   128
  0
VERTEX
  5
143
100
AcDbEntity
  8
1
  6
CONTINUOUS
 62
   212
 48
16.0
100
AcDbVertex
100
AcDb2dVertex
 10
111.5
 20
0.499999
 30
0.0
 40
0.0
 41
0.0
  0
VERTEX
  5
144
100
AcDbEntity
  8
1
  6
CONTINUOUS
 62
   212
 48
16.0
100
AcDbVertex
100
AcDb2dVertex
 10
111.5
 20
-8.935002
 30
0.0
 40
0.0
 41
0.0
  0
SEQEND
  5
145
100
AcDbEntity
  8
0
  0
POLYLINE
  5
146
100
AcDbEntity
  8
1
  6
CONTINUOUS
 62
   212
 48
16.0
100
AcDb2dPolyline
 66
     1
 10
0.0
 20
0.0
 30
0.0
 70
   128
  0
VERTEX
  5
147
100
AcDbEntity
  8
1
  6
CONTINUOUS
 62
   212
 48
16.0
100
AcDbVertex
100
AcDb2dVertex
 10
109.0
 20
0.499999
 30
0.0
 40
0.0
 41
0.0
  0
VERTEX
  5
148
100
AcDbEntity
  8
1
  6
CONTINUOUS
 62
   212
 48
16.0
100
AcDbVertex
100
AcDb2dVertex
 10
109.0
 20
-8.681668
 30
0.0
 40
0.0
 41
0.0
  0
SEQEND
  5
149
100
AcDbEntity
  8
0
  0
POLYLINE
  5
14A
100
AcDbEntity
  8
1
  6
CONTINUOUS
 62
   212
 48
16.0
100
AcDb2dPolyline
 66
     1
 10
0.0
 20
0.0
 30
0.0
 70
   128
  0
VERTEX
  5
14B
100
AcDbEntity
  8
1
  6
CONTINUOUS
 62
   212
 48
16.0
100
AcDbVertex
100
AcDb2dVertex
 10
104.0
 20
0.499999
 30
0.0
 40
0.0
 41
0.0
  0
VERTEX
  5
14C
100
AcDbEntity
  8
1
  6
CONTINUOUS
 62
   212
 48
16.0
100
AcDbVertex
100
AcDb2dVertex
 10
104.0
 20
-8.007223
 30
0.0
 40
0.0
 41
0.0
  0
SEQEND
  5
14D
100
AcDbEntity
  8
0
  0
POLYLINE
  5
14E
100
AcDbEntity
  8
1
  6
CONTINUOUS
 62
   212
 48
16.0
100
AcDb2dPolyline
 66
     1
 10
0.0
 20
0.0
 30
0.0
 70
   128
  0
VERTEX
  5
14F
100
AcDbEntity
  8
1
  6
CONTINUOUS
 62
   212
 48
16.0
100
AcDbVertex
100
AcDb2dVertex
 10
99.0
 20
0.499999
 30
0.0
 40
0.0
 41
0.0
  0
VERTEX
  5
150
100
AcDbEntity
  8
1
  6
CONTINUOUS
 62
   212
 48
16.0
100
AcDbVertex
100
AcDb2dVertex
 10
99.0
 20
-7.165557
 30
0.0
 40
0.0
 41
0.0
  0
SEQEND
  5
151
100
AcDbEntity
  8
0
  0
POLYLINE
  5
152
100
AcDbEntity
  8
1
  6
CONTINUOUS
 62
   212
 48
16.0
100
AcDb2dPolyline
 66
     1
 10
0.0
 20
0.0
 30
0.0
 70
   128
  0
VERTEX
  5
153
100
AcDbEntity
  8
1
  6
CONTINUOUS
 62
   212
 48
16.0
100
AcDbVertex
100
AcDb2dVertex
 10
96.5
 20
0.499999
 30
0.0
 40
0.0
 41
0.0
  0
VERTEX
  5
154
100
AcDbEntity
  8
1
  6
CONTINUOUS
 62
   212
 48
16.0
100
AcDbVertex
100
AcDb2dVertex
 10
96.5
 20
-6.678891
 30
0.0
 40
0.0
 41
0.0
  0
SEQEND
  5
155
100
AcDbEntity
  8
0
  0
POLYLINE
  5
156
100
AcDbEntity
  8
1
  6
CONTINUOUS
 62
   212
 48
16.0
100
AcDb2dPolyline
 66
     1
 10
0.0
 20
0.0
 30
0.0
 70
   128
  0
VERTEX
  5
157
100
AcDbEntity
  8
1
  6
CONTINUOUS
 62
   212
 48
16.0
100
AcDbVertex
100
AcDb2dVertex
 10
94.0
 20
0.499999
 30
0.0
 40
0.0
 41
0.0
  0
VERTEX
  5
158
100
AcDbEntity
  8
1
  6
CONTINUOUS
 62
   212
 48
16.0
100
AcDbVertex
100
AcDb2dVertex
 10
94.0
 20
-6.140557
 30
0.0
 40
0.0
 41
0.0
  0
SEQEND
  5
159
100
AcDbEntity
  8
0
  0
POLYLINE
  5
15A
100
AcDbEntity
  8
1
  6
CONTINUOUS
 62
   212
 48
16.0
100
AcDb2dPolyline
 66
     1
 10
0.0
 20
0.0
 30
0.0
 70
   128
  0
VERTEX
  5
15B
100
AcDbEntity
  8
1
  6
CONTINUOUS
 62
   212
 48
16.0
100
AcDbVertex
100
AcDb2dVertex
 10
89.0
 20
0.499998
 30
0.0
 40
0.0
 41
0.0
  0
VERTEX
  5
15C
100
AcDbEntity
  8
1
  6
CONTINUOUS
 62
   212
 48
16.0
100
AcDbVertex
100
AcDb2dVertex
 10
89.0
 20
-4.900557
 30
0.0
 40
0.0
 41
0.0
  0
SEQEND
  5
15D
100
AcDbEntity
  8
0
  0
POLYLINE
  5
15E
100
AcDbEntity
  8
1
  6
CONTINUOUS
 62
   212
 48
16.0
100
AcDb2dPolyline
 66
     1
 10
0.0
 20
0.0
 30
0.0
 70
   128
  0
VERTEX
  5
15F
100
AcDbEntity
  8
1
  6
CONTINUOUS
 62
   212
 48
16.0
100
AcDbVertex
100
AcDb2dVertex
 10
86.5
 20
0.499998
 30
0.0
 40
0.0
 41
0.0
  0
VERTEX
  5
160
100
AcDbEntity
  8
1
  6
CONTINUOUS
 62
   212
 48
16.0
100
AcDbVertex
100
AcDb2dVertex
 10
86.5
 20
-4.20278
 30
0.0
 40
0.0
 41
0.0
  0
SEQEND
  5
161
100
AcDbEntity
  8
0
  0
POLYLINE
  5
162
100
AcDbEntity
  8
1
  6
CONTINUOUS
 62
   212
 48
16.0
100
AcDb2dPolyline
 66
     1
 10
0.0
 20
0.0
 30
0.0
 70
   128
  0
VERTEX
  5
163
100
AcDbEntity
  8
1
  6
CONTINUOUS
 62
   212
 48
16.0
100
AcDbVertex
100
AcDb2dVertex
 10
84.0
 20
0.499998
 30
0.0
 40
0.0
 41
0.0
  0
VERTEX
  5
164
100
AcDbEntity
  8
1
  6
CONTINUOUS
 62
   212
 48
16.0
100
AcDbVertex
100
AcDb2dVertex
 10
84.0
 20
-3.460557
 30
0.0
 40
0.0
 41
0.0
  0
SEQEND
  5
165
100
AcDbEntity
  8
0
  0
POLYLINE
  5
166
100
AcDbEntity
  8
1
  6
CONTINUOUS
 62
   212
 48
16.0
100
AcDb2dPolyline
 66
     1
 10
0.0
 20
0.0
 30
0.0
 70
   128
  0
VERTEX
  5
167
100
AcDbEntity
  8
1
  6
CONTINUOUS
 62
   212
 48
16.0
100
AcDbVertex
100
AcDb2dVertex
 10
82.75
 20
0.499998
 30
0.0
 40
0.0
 41
0.0
  0
VERTEX
  5
168
100
AcDbEntity
  8
1
  6
CONTINUOUS
 62
   212
 48
16.0
100
AcDbVertex
100
AcDb2dVertex
 10
82.75
 20
-3.065002
 30
0.0
 40
0.0
 41
0.0
  0
SEQEND
  5
169
100
AcDbEntity
  8
0
  0
POLYLINE
  5
16A
100
AcDbEntity
  8
1
  6
CONTINUOUS
 62
   212
 48
16.0
100
AcDb2dPolyline
 66
     1
 10
0.0
 20
0.0
 30
0.0
 70
   128
  0
VERTEX
  5
16B
100
AcDbEntity
  8
1
  6
CONTINUOUS
 62
   212
 48
16.0
100
AcDbVertex
100
AcDb2dVertex
 10
81.5
 20
0.499998
 30
0.0
 40
0.0
 41
0.0
  0
VERTEX
  5
16C
100
AcDbEntity
  8
1
  6
CONTINUOUS
 62
   212
 48
16.0
100
AcDbVertex
100
AcDb2dVertex
 10
81.5
 20
-2.661113
 30
0.0
 40
0.0
 41
0.0
  0
SEQEND
  5
16D
100
AcDbEntity
  8
0
  0
POLYLINE
  5
16E
100
AcDbEntity
  8
1
  6
CONTINUOUS
 62
   212
 48
16.0
100
AcDb2dPolyline
 66
     1
 10
0.0
 20
0.0
 30
0.0
 70
   128
  0
VERTEX
  5
16F
100
AcDbEntity
  8
1
  6
CONTINUOUS
 62
   212
 48
16.0
100
AcDbVertex
100
AcDb2dVertex
 10
79.0
 20
0.499998
 30
0.0
 40
0.0
 41
0.0
  0
VERTEX
  5
170
100
AcDbEntity
  8
1
  6
CONTINUOUS
 62
   212
 48
16.0
100
AcDbVertex
100
AcDb2dVertex
 10
79.0
 20
-1.813891
 30
0.0
 40
0.0
 41
0.0
  0
SEQEND
  5
171
100
AcDbEntity
  8
0
  0
POLYLINE
  5
172
100
AcDbEntity
  8
1
  6
CONTINUOUS
 62
   212
 48
16.0
100
AcDb2dPolyline
 66
     1
 10
0.0
 20
0.0
 30
0.0
 70
   128
  0
VERTEX
  5
173
100
AcDbEntity
  8
1
  6
CONTINUOUS
 62
   212
 48
16.0
100
AcDbVertex
100
AcDb2dVertex
 10
77.75
 20
0.499998
 30
0.0
 40
0.0
 41
0.0
  0
VERTEX
  5
174
100
AcDbEntity
  8
1
  6
CONTINUOUS
 62
   212
 48
16.0
100
AcDbVertex
100
AcDb2dVertex
 10
77.75
 20
-1.356668
 30
0.0
 40
0.0
 41
0.0
  0
SEQEND
  5
175
100
AcDbEntity
  8
0
  0
POLYLINE
  5
176
100
AcDbEntity
  8
1
  6
CONTINUOUS
 62
   212
 48
16.0
100
AcDb2dPolyline
 66
     1
 10
0.0
 20
0.0
 30
0.0
 70
   128
  0
VERTEX
  5
177
100
AcDbEntity
  8
1
  6
CONTINUOUS
 62
   212
 48
16.0
100
AcDbVertex
100
AcDb2dVertex
 10
76.5
 20
0.499998
 30
0.0
 40
0.0
 41
0.0
  0
VERTEX
  5
178
100
AcDbEntity
  8
1
  6
CONTINUOUS
 62
   212
 48
16.0
100
AcDbVertex
100
AcDb2dVertex
 10
76.5
 20
-0.862224
 30
0.0
 40
0.0
 41
0.0
  0
SEQEND
  5
179
100
AcDbEntity
  8
0
  0
POLYLINE
  5
17A
100
AcDbEntity
  8
1
  6
CONTINUOUS
 62
   212
 48
16.0
100
AcDb2dPolyline
 66
     1
 10
0.0
 20
0.0
 30
0.0
 70
   128
  0
VERTEX
  5
17B
100
AcDbEntity
  8
1
  6
CONTINUOUS
 62
   212
 48
16.0
100
AcDbVertex
100
AcDb2dVertex
 10
76.25
 20
0.499998
 30
0.0
 40
0.0
 41
0.0
  0
VERTEX
  5
17C
100
AcDbEntity
  8
1
  6
CONTINUOUS
 62
   212
 48
16.0
100
AcDbVertex
100
AcDb2dVertex
 10
76.25
 20
-0.763336
 30
0.0
 40
0.0
 41
0.0
  0
SEQEND
  5
17D
100
AcDbEntity
  8
0
  0
POLYLINE
  5
17E
100
AcDbEntity
  8
1
  6
CONTINUOUS
 62
   212
 48
16.0
100
AcDb2dPolyline
 66
     1
 10
0.0
 20
0.0
 30
0.0
 70
   128
  0
VERTEX
  5
17F
100
AcDbEntity
  8
1
  6
CONTINUOUS
 62
   212
 48
16.0
100
AcDbVertex
100
AcDb2dVertex
 10
75.25
 20
0.499998
 30
0.0
 40
0.0
 41
0.0
  0
VERTEX
  5
180
100
AcDbEntity
  8
1
  6
CONTINUOUS
 62
   212
 48
16.0
100
AcDbVertex
100
AcDb2dVertex
 10
75.25
 20
-0.288891
 30
0.0
 40
0.0
 41
0.0
  0
SEQEND
  5
181
100
AcDbEntity
  8
0
  0
POLYLINE
  5
182
100
AcDbEntity
  8
1
  6
CONTINUOUS
 62
   212
 48
16.0
100
AcDb2dPolyline
 66
     1
 10
0.0
 20
0.0
 30
0.0
 70
   128
  0
VERTEX
  5
183
100
AcDbEntity
  8
1
  6
CONTINUOUS
 62
   212
 48
16.0
100
AcDbVertex
100
AcDb2dVertex
 10
74.625
 20
0.499998
 30
0.0
 40
0.0
 41
0.0
  0
VERTEX
  5
184
100
AcDbEntity
  8
1
  6
CONTINUOUS
 62
   212
 48
16.0
100
AcDbVertex
100
AcDb2dVertex
 10
74.625
 20
0.061665
 30
0.0
 40
0.0
 41
0.0
  0
SEQEND
  5
185
100
AcDbEntity
  8
0
  0
POLYLINE
  5
186
100
AcDbEntity
  8
1
  6
CONTINUOUS
 62
   212
 48
16.0
100
AcDb2dPolyline
 66
     1
 10
0.0
 20
0.0
 30
0.0
 70
   128
  0
VERTEX
  5
187
100
AcDbEntity
  8
1
  6
CONTINUOUS
 62
   212
 48
16.0
100
AcDbVertex
100
AcDb2dVertex
 10
74.0
 20
0.499998
 30
0.0
 40
0.0
 41
0.0
  0
VERTEX
  5
188
100
AcDbEntity
  8
1
  6
CONTINUOUS
 62
   212
 48
16.0
100
AcDbVertex
100
AcDb2dVertex
 10
74.0
 20
0.499998
 30
0.0
 40
0.0
 41
0.0
  0
SEQEND
  5
189
100
AcDbEntity
  8
0
  0
SPLINE
  5
18A
100
AcDbEntity
  8
1
  6
CONTINUOUS
 62
   212
 48
16.0
100
AcDbSpline
210
0.0
220
0.0
230
1.0
 70
     0
 71
     3
 72
     0
 73
     0
 74
    44
 44
0.0
 11
174.0
 21
0.5000021192762375
 31
0.0
 11
173.375
 21
-0.6227755964111328
 31
0.0
 11
172.75
 21
-1.1316646836616517
 31
0.0
 11
171.74949645996094
 21
-1.7763707675059319
 31
0.0
 11
171.5
 21
-1.8905531326292992
 31
0.0
 11
170.25
 21
-2.4266643231503489
 31
0.0
 11
169.0
 21
-2.9272204162350652
 31
0.0
 11
166.5
 21
-3.8049981428495405
 31
0.0
 11
165.25
 21
-4.211665000422955
 31
0.0
 11
164.0
 21
-4.5938875960541248
 31
0.0
 11
161.5
 21
-5.2605536202712537
 31
0.0
 11
159.0
 21
-5.9138872776783469
 31
0.0
 11
154.0
 21
-6.9333322629401684
 31
0.0
 11
151.5
 21
-7.3788873096524243
 31
0.0
 11
149.0
 21
-7.7755543622992516
 31
0.0
 11
146.5
 21
-8.0777758694224353
 31
0.0
 11
144.0
 21
-8.3894429907361019
 31
0.0
 11
139.0
 21
-8.9333319250487317
 31
0.0
 11
136.5
 21
-9.1155547134147632
 31
0.0
 11
134.0
 21
-9.2638892151052463
 31
0.0
 11
131.5
 21
-9.3750007489604936
 31
0.0
 11
129.0
 21
-9.4499998157289493
 31
0.0
 11
124.0
 21
-9.4999998999999988
 31
0.0
 11
119.0
 21
-9.4066669745010376
 31
0.0
 11
116.5
 21
-9.2988890621673583
 31
0.0
 11
114.0
 21
-9.1400016244523048
 31
0.0
 11
111.5
 21
-8.9350019147238733
 31
0.0
 11
109.0
 21
-8.6816678718470577
 31
0.0
 11
104.0
 21
-8.007223044200229
 31
0.0
 11
99.0
 21
-7.1655567250344276
 31
0.0
 11
96.5
 21
-6.6788908982292652
 31
0.0
 11
94.0
 21
-6.1405565869350918
 31
0.0
 11
89.0
 21
-4.900557463999796
 31
0.0
 11
86.5
 21
-4.2027799347972872
 31
0.0
 11
84.0
 21
-3.4605574741612433
 31
0.0
 11
82.75
 21
-3.0650019819009779
 31
0.0
 11
81.5
 21
-2.6611134954749112
 31
0.0
 11
79.0
 21
-1.8138914936525345
 31
0.0
 11
77.75
 21
-1.3566682417957305
 31
0.0
 11
76.5
 21
-0.8622241413799286
 31
0.0
 11
76.25
 21
-0.763335533224392
 31
0.0
 11
75.25
 21
-0.2888910426617622
 31
0.0
 11
74.625
 21
0.0616647976098061
 31
0.0
 11
74.0
 21
0.4999978807237625
 31
0.0
  0
POLYLINE
  5
18B
100
AcDbEntity
  8
1
  6
CONTINUOUS
 62
   212
 48
16.0
100
AcDb2dPolyline
 66
     1
 10
0.0
 20
0.0
 30
0.0
 70
   128
  0
VERTEX
  5
18C
100
AcDbEntity
  8
1
  6
CONTINUOUS
 62
   212
 48
16.0
100
AcDbVertex
100
AcDb2dVertex
 10
174.0
 20
0.500002
 30
0.0
 40
0.0
 41
0.0
  0
VERTEX
  5
18D
100
AcDbEntity
  8
1
  6
CONTINUOUS
 62
   212
 48
16.0
100
AcDbVertex
100
AcDb2dVertex
 10
173.375
 20
0.500002
 30
0.0
 40
0.0
 41
0.0
  0
VERTEX
  5
18E
100
AcDbEntity
  8
1
  6
CONTINUOUS
 62
   212
 48
16.0
100
AcDbVertex
100
AcDb2dVertex
 10
172.75
 20
0.500002
 30
0.0
 40
0.0
 41
0.0
  0
VERTEX
  5
18F
100
AcDbEntity
  8
1
  6
CONTINUOUS
 62
   212
 48
16.0
100
AcDbVertex
100
AcDb2dVertex
 10
171.75
 20
0.500002
 30
0.0
 40
0.0
 41
0.0
  0
VERTEX
  5
190
100
AcDbEntity
  8
1
  6
CONTINUOUS
 62
   212
 48
16.0
100
AcDbVertex
100
AcDb2dVertex
 10
171.5
 20
0.500002
 30
0.0
 40
0.0
 41
0.0
  0
VERTEX
  5
191
100
AcDbEntity
  8
1
  6
CONTINUOUS
 62
   212
 48
16.0
100
AcDbVertex
100
AcDb2dVertex
 10
170.25
 20
0.500002
 30
0.0
 40
0.0
 41
0.0
  0
VERTEX
  5
192
100
AcDbEntity
  8
1
  6
CONTINUOUS
 62
   212
 48
16.0
100
AcDbVertex
100
AcDb2dVertex
 10
169.0
 20
0.500002
 30
0.0
 40
0.0
 41
0.0
  0
VERTEX
  5
193
100
AcDbEntity
  8
1
  6
CONTINUOUS
 62
   212
 48
16.0
100
AcDbVertex
100
AcDb2dVertex
 10
166.5
 20
0.500002
 30
0.0
 40
0.0
 41
0.0
  0
VERTEX
  5
194
100
AcDbEntity
  8
1
  6
CONTINUOUS
 62
   212
 48
16.0
100
AcDbVertex
100
AcDb2dVertex
 10
165.25
 20
0.500002
 30
0.0
 40
0.0
 41
0.0
  0
VERTEX
  5
195
100
AcDbEntity
  8
1
  6
CONTINUOUS
 62
   212
 48
16.0
100
AcDbVertex
100
AcDb2dVertex
 10
164.0
 20
0.500002
 30
0.0
 40
0.0
 41
0.0
  0
VERTEX
  5
196
100
AcDbEntity
  8
1
  6
CONTINUOUS
 62
   212
 48
16.0
100
AcDbVertex
100
AcDb2dVertex
 10
161.5
 20
0.500002
 30
0.0
 40
0.0
 41
0.0
  0
VERTEX
  5
197
100
AcDbEntity
  8
1
  6
CONTINUOUS
 62
   212
 48
16.0
100
AcDbVertex
100
AcDb2dVertex
 10
159.0
 20
0.500002
 30
0.0
 40
0.0
 41
0.0
  0
VERTEX
  5
198
100
AcDbEntity
  8
1
  6
CONTINUOUS
 62
   212
 48
16.0
100
AcDbVertex
100
AcDb2dVertex
 10
154.0
 20
0.500001
 30
0.0
 40
0.0
 41
0.0
  0
VERTEX
  5
199
100
AcDbEntity
  8
1
  6
CONTINUOUS
 62
   212
 48
16.0
100
AcDbVertex
100
AcDb2dVertex
 10
151.5
 20
0.500001
 30
0.0
 40
0.0
 41
0.0
  0
VERTEX
  5
19A
100
AcDbEntity
  8
1
  6
CONTINUOUS
 62
   212
 48
16.0
100
AcDbVertex
100
AcDb2dVertex
 10
149.0
 20
0.500001
 30
0.0
 40
0.0
 41
0.0
  0
VERTEX
  5
19B
100
AcDbEntity
  8
1
  6
CONTINUOUS
 62
   212
 48
16.0
100
AcDbVertex
100
AcDb2dVertex
 10
146.5
 20
0.500001
 30
0.0
 40
0.0
 41
0.0
  0
VERTEX
  5
19C
100
AcDbEntity
  8
1
  6
CONTINUOUS
 62
   212
 48
16.0
100
AcDbVertex
100
AcDb2dVertex
 10
144.0
 20
0.500001
 30
0.0
 40
0.0
 41
0.0
  0
VERTEX
  5
19D
100
AcDbEntity
  8
1
  6
CONTINUOUS
 62
   212
 48
16.0
100
AcDbVertex
100
AcDb2dVertex
 10
139.0
 20
0.500001
 30
0.0
 40
0.0
 41
0.0
  0
VERTEX
  5
19E
100
AcDbEntity
  8
1
  6
CONTINUOUS
 62
   212
 48
16.0
100
AcDbVertex
100
AcDb2dVertex
 10
136.5
 20
0.5
 30
0.0
 40
0.0
 41
0.0
  0
VERTEX
  5
19F
100
AcDbEntity
  8
1
  6
CONTINUOUS
 62
   212
 48
16.0
100
AcDbVertex
100
AcDb2dVertex
 10
134.0
 20
0.5
 30
0.0
 40
0.0
 41
0.0
  0
VERTEX
  5
1A0
100
AcDbEntity
  8
1
  6
CONTINUOUS
 62
   212
 48
16.0
100
AcDbVertex
100
AcDb2dVertex
 10
131.5
 20
0.5
 30
0.0
 40
0.0
 41
0.0
  0
VERTEX
  5
1A1
100
AcDbEntity
  8
1
  6
CONTINUOUS
 62
   212
 48
16.0
100
AcDbVertex
100
AcDb2dVertex
 10
129.0
 20
0.5
 30
0.0
 40
0.0
 41
0.0
  0
VERTEX
  5
1A2
100
AcDbEntity
  8
1
  6
CONTINUOUS
 62
   212
 48
16.0
100
AcDbVertex
100
AcDb2dVertex
 10
124.0
 20
0.5
 30
0.0
 40
0.0
 41
0.0
  0
VERTEX
  5
1A3
100
AcDbEntity
  8
1
  6
CONTINUOUS
 62
   212
 48
16.0
100
AcDbVertex
100
AcDb2dVertex
 10
119.0
 20
0.5
 30
0.0
 40
0.0
 41
0.0
  0
VERTEX
  5
1A4
100
AcDbEntity
  8
1
  6
CONTINUOUS
 62
   212
 48
16.0
100
AcDbVertex
100
AcDb2dVertex
 10
116.5
 20
0.5
 30
0.0
 40
0.0
 41
0.0
  0
VERTEX
  5
1A5
100
AcDbEntity
  8
1
  6
CONTINUOUS
 62
   212
 48
16.0
100
AcDbVertex
100
AcDb2dVertex
 10
114.0
 20
0.499999
 30
0.0
 40
0.0
 41
0.0
  0
VERTEX
  5
1A6
100
AcDbEntity
  8
1
  6
CONTINUOUS
 62
   212
 48
16.0
100
AcDbVertex
100
AcDb2dVertex
 10
111.5
 20
0.499999
 30
0.0
 40
0.0
 41
0.0
  0
VERTEX
  5
1A7
100
AcDbEntity
  8
1
  6
CONTINUOUS
 62
   212
 48
16.0
100
AcDbVertex
100
AcDb2dVertex
 10
109.0
 20
0.499999
 30
0.0
 40
0.0
 41
0.0
  0
VERTEX
  5
1A8
100
AcDbEntity
  8
1
  6
CONTINUOUS
 62
   212
 48
16.0
100
AcDbVertex
100
AcDb2dVertex
 10
104.0
 20
0.499999
 30
0.0
 40
0.0
 41
0.0
  0
VERTEX
  5
1A9
100
AcDbEntity
  8
1
  6
CONTINUOUS
 62
   212
 48
16.0
100
AcDbVertex
100
AcDb2dVertex
 10
99.0
 20
0.499999
 30
0.0
 40
0.0
 41
0.0
  0
VERTEX
  5
1AA
100
AcDbEntity
  8
1
  6
CONTINUOUS
 62
   212
 48
16.0
100
AcDbVertex
100
AcDb2dVertex
 10
96.5
 20
0.499999
 30
0.0
 40
0.0
 41
0.0
  0
VERTEX
  5
1AB
100
AcDbEntity
  8
1
  6
CONTINUOUS
 62
   212
 48
16.0
100
AcDbVertex
100
AcDb2dVertex
 10
94.0
 20
0.499999
 30
0.0
 40
0.0
 41
0.0
  0
VERTEX
  5
1AC
100
AcDbEntity
  8
1
  6
CONTINUOUS
 62
   212
 48
16.0
100
AcDbVertex
100
AcDb2dVertex
 10
89.0
 20
0.499998
 30
0.0
 40
0.0
 41
0.0
  0
VERTEX
  5
1AD
100
AcDbEntity
  8
1
  6
CONTINUOUS
 62
   212
 48
16.0
100
AcDbVertex
100
AcDb2dVertex
 10
86.5
 20
0.499998
 30
0.0
 40
0.0
 41
0.0
  0
VERTEX
  5
1AE
100
AcDbEntity
  8
1
  6
CONTINUOUS
 62
   212
 48
16.0
100
AcDbVertex
100
AcDb2dVertex
 10
84.0
 20
0.499998
 30
0.0
 40
0.0
 41
0.0
  0
VERTEX
  5
1AF
100
AcDbEntity
  8
1
  6
CONTINUOUS
 62
   212
 48
16.0
100
AcDbVertex
100
AcDb2dVertex
 10
82.75
 20
0.499998
 30
0.0
 40
0.0
 41
0.0
  0
VERTEX
  5
1B0
100
AcDbEntity
  8
1
  6
CONTINUOUS
 62
   212
 48
16.0
100
AcDbVertex
100
AcDb2dVertex
 10
81.5
 20
0.499998
 30
0.0
 40
0.0
 41
0.0
  0
VERTEX
  5
1B1
100
AcDbEntity
  8
1
  6
CONTINUOUS
 62
   212
 48
16.0
100
AcDbVertex
100
AcDb2dVertex
 10
79.0
 20
0.499998
 30
0.0
 40
0.0
 41
0.0
  0
VERTEX
  5
1B2
100
AcDbEntity
  8
1
  6
CONTINUOUS
 62
   212
 48
16.0
100
AcDbVertex
100
AcDb2dVertex
 10
77.75
 20
0.499998
 30
0.0
 40
0.0
 41
0.0
  0
VERTEX
  5
1B3
100
AcDbEntity
  8
1
  6
CONTINUOUS
 62
   212
 48
16.0
100
AcDbVertex
100
AcDb2dVertex
 10
76.5
 20
0.499998
 30
0.0
 40
0.0
 41
0.0
  0
VERTEX
  5
1B4
100
AcDbEntity
  8
1
  6
CONTINUOUS
 62
   212
 48
16.0
100
AcDbVertex
100
AcDb2dVertex
 10
76.25
 20
0.499998
 30
0.0
 40
0.0
 41
0.0
  0
VERTEX
  5
1B5
100
AcDbEntity
  8
1
  6
CONTINUOUS
 62
   212
 48
16.0
100
AcDbVertex
100
AcDb2dVertex
 10
75.25
 20
0.499998
 30
0.0
 40
0.0
 41
0.0
  0
VERTEX
  5
1B6
100
AcDbEntity
  8
1
  6
CONTINUOUS
 62
   212
 48
16.0
100
AcDbVertex
100
AcDb2dVertex
 10
74.625
 20
0.499998
 30
0.0
 40
0.0
 41
0.0
  0
VERTEX
  5
1B7
100
AcDbEntity
  8
1
  6
CONTINUOUS
 62
   212
 48
16.0
100
AcDbVertex
100
AcDb2dVertex
 10
74.0
 20
0.499998
 30
0.0
 40
0.0
 41
0.0
  0
SEQEND
  5
1B8
100
AcDbEntity
  8
0
  0
POLYLINE
  5
1B9
100
AcDbEntity
  8
1
  6
CONTINUOUS
 62
   212
 48
16.0
100
AcDb2dPolyline
 66
     1
 10
0.0
 20
0.0
 30
0.0
 70
   128
  0
VERTEX
  5
1BA
100
AcDbEntity
  8
1
  6
CONTINUOUS
 62
   212
 48
16.0
100
AcDbVertex
100
AcDb2dVertex
 10
174.0
 20
0.500002
 30
0.0
 40
0.0
 41
0.0
  0
VERTEX
  5
1BB
100
AcDbEntity
  8
1
  6
CONTINUOUS
 62
   212
 48
16.0
100
AcDbVertex
100
AcDb2dVertex
 10
174.0
 20
0.500002
 30
0.0
 40
0.0
 41
0.0
  0
SEQEND
  5
1BC
100
AcDbEntity
  8
0
  0
POLYLINE
  5
1BD
100
AcDbEntity
  8
1
  6
CONTINUOUS
 62
   212
 48
16.0
100
AcDb2dPolyline
 66
     1
 10
0.0
 20
0.0
 30
0.0
 70
   128
  0
VERTEX
  5
1BE
100
AcDbEntity
  8
1
  6
CONTINUOUS
 62
   212
 48
16.0
100
AcDbVertex
100
AcDb2dVertex
 10
174.0
 20
0.500002
 30
0.0
 40
0.0
 41
0.0
  0
VERTEX
  5
1BF
100
AcDbEntity
  8
1
  6
CONTINUOUS
 62
   212
 48
16.0
100
AcDbVertex
100
AcDb2dVertex
 10
174.0
 20
0.500002
 30
0.0
 40
0.0
 41
0.0
  0
SEQEND
  5
1C0
100
AcDbEntity
  8
0
  0
POLYLINE
  5
1C1
100
AcDbEntity
  8
1
  6
CONTINUOUS
 62
   212
 48
16.0
100
AcDb2dPolyline
 66
     1
 10
0.0
 20
0.0
 30
0.0
 70
   128
  0
VERTEX
  5
1C2
100
AcDbEntity
  8
1
  6
CONTINUOUS
 62
   212
 48
16.0
100
AcDbVertex
100
AcDb2dVertex
 10
171.75
 20
0.500002
 30
0.0
 40
0.0
 41
0.0
  0
VERTEX
  5
1C3
100
AcDbEntity
  8
1
  6
CONTINUOUS
 62
   212
 48
16.0
100
AcDbVertex
100
AcDb2dVertex
 10
171.75
 20
-1.781866
 30
0.0
 40
0.0
 41
0.0
  0
SEQEND
  5
1C4
100
AcDbEntity
  8
0
  0
TEXT
  5
1C5
100
AcDbEntity
  8
1
 62
   212
 48
0.0
100
AcDbText
 10
124.82592
 20
-1.617748
 30
0.0
 40
1.666666
  1
B
 72
     5
 11
127.555923
 21
-1.617748
 31
0.0
210
0.0
220
0.0
230
1.0
100
AcDbText
  0
SPLINE
  5
1C6
100
AcDbEntity
  8
1
  6
CONTINUOUS
 62
   212
 48
16.0
100
AcDbSpline
210
0.0
220
0.0
230
1.0
 70
     0
 71
     3
 72
     0
 73
     0
 74
    44
 44
0.0
 11
173.99996948242187
 21
0.5
 31
0.0
 11
173.37496948242187
 21
1.6227777156873704
 31
0.0
 11
172.74996948242187
 21
2.1316668029378887
 31
0.0
 11
171.74948120117187
 21
2.7763728867821698
 31
0.0
 11
171.49996948242187
 21
2.8905552519055364
 31
0.0
 11
170.24996948242187
 21
3.426666442426586
 31
0.0
 11
168.99996948242187
 21
3.9272225355113033
 31
0.0
 11
166.49996948242187
 21
4.8050002621257777
 31
0.0
 11
165.24996948242187
 21
5.2116671196991922
 31
0.0
 11
163.99996948242187
 21
5.5938891855113031
 31
0.0
 11
161.49996948242187
 21
6.2605552097284312
 31
0.0
 11
158.99996948242187
 21
6.9138888671355243
 31
0.0
 11
153.99996948242187
 21
7.9333338523973467
 31
0.0
 11
151.49996948242187
 21
8.3788883692905429
 31
0.0
 11
148.99996948242187
 21
8.775555421937371
 31
0.0
 11
146.49996948242187
 21
9.0777769290605548
 31
0.0
 11
143.99996948242187
 21
9.3894440503742231
 31
0.0
 11
138.99996948242187
 21
9.9333308654106141
 31
0.0
 11
136.49996948242187
 21
10.115554713414765
 31
0.0
 11
133.99996948242187
 21
10.263887095829011
 31
0.0
 11
131.49996948242187
 21
10.375000748960495
 31
0.0
 11
128.99996948242187
 21
10.449997696452714
 31
0.0
 11
124.0
 21
10.499999900000001
 31
0.0
 11
119.0
 21
10.406666974501038
 31
0.0
 11
116.5
 21
10.29888906216736
 31
0.0
 11
114.0
 21
10.13999844553795
 31
0.0
 11
111.5
 21
9.9350008550857556
 31
0.0
 11
109.0
 21
9.68166681220894
 31
0.0
 11
104.0
 21
9.0072219845621113
 31
0.0
 11
99.0
 21
8.1655556653963099
 31
0.0
 11
96.5
 21
7.6788893087720869
 31
0.0
 11
94.0
 21
7.1405549974779126
 31
0.0
 11
89.0
 21
5.9005558745426177
 31
0.0
 11
86.5
 21
5.2027778155210491
 31
0.0
 11
84.0
 21
4.4605553548850061
 31
0.0
 11
82.75
 21
4.0649998626247408
 31
0.0
 11
81.5
 21
3.6611113761986731
 31
0.0
 11
79.0
 21
2.8138893743762967
 31
0.0
 11
77.75
 21
2.3566661225194929
 31
0.0
 11
76.5
 21
1.8622220221036911
 31
0.0
 11
76.25
 21
1.7633334139481545
 31
0.0
 11
75.25
 21
1.2888889233855247
 31
0.0
 11
74.625
 21
0.9383330831139565
 31
0.0
 11
74.0
 21
0.5
 31
0.0
  0
TEXT
  5
1C7
100
AcDbEntity
  8
1
 62
   212
 48
0.0
100
AcDbText
 10
98.661777
 20
-1.594868
 30
0.0
 40
1.0
  1
Boy = 10
 72
     5
 11
103.21485
 21
-1.594868
 31
0.0
210
0.0
220
0.0
230
1.0
100
AcDbText
  0
TEXT
  5
1C8
100
AcDbEntity
  8
1
 62
   212
 48
0.0
100
AcDbText
 10
98.661777
 20
-3.594868
 30
0.0
 40
1.0
  1
Kalinlik = 2
 72
     5
 11
104.23161
 21
-3.594868
 31
0.0
210
0.0
220
0.0
230
1.0
100
AcDbText
  0
ENDSEC
  0
SECTION
  2
OBJECTS
  0
DICTIONARY
  5
19
100
AcDbDictionary
  3
ACAD_GROUP
350
1A
  3
ACAD_MLINESTYLE
350
1B
  0
DICTIONARY
  5
1A
102
{ACAD_REACTORS
330
19
102
}
100
AcDbDictionary
  0
DICTIONARY
  5
1B
102
{ACAD_REACTORS
330
19
102
}
100
AcDbDictionary
  3
STANDARD
350
1C
  0
MLINESTYLE
  5
1C
102
{ACAD_REACTORS
330
1B
102
}
100
AcDbMlineStyle
  2
STANDARD
 70
     0
  3

 62
     0
 51
90.0
 52
90.0
 71
     2
 49
0.5
 62
   256
  6
BYLAYER
 49
-0.5
 62
   256
  6
BYLAYER
  0
ENDSEC
  0
EOF
