  0
SECTION
  2
HEADER
  9
$ACADVER
  1
AC1014
  9
$ACADMAINTVER
 70
     0
  9
$DWGCODEPAGE
  3
ANSI_1252
  9
$INSBASE
 10
0.0
 20
0.0
 30
0.0
  9
$EXTMIN
 10
-266.892196
 20
0.67897
 30
0.0
  9
$EXTMAX
 10
305.744828
 20
241.438392
 30
0.0
  9
$LIMMIN
 10
0.0
 20
0.0
  9
$LIMMAX
 10
0.0
 20
0.0
  9
$ORTHOMODE
 70
     0
  9
$REGENMODE
 70
     1
  9
$FILLMODE
 70
     1
  9
$QTEXTMODE
 70
     0
  9
$MIRRTEXT
 70
     1
  9
$DRAGMODE
 70
     2
  9
$LTSCALE
 40
1.0
  9
$OSMODE
 70
     0
  9
$ATTMODE
 70
     1
  9
$TEXTSIZE
 40
0.2
  9
$TRACEWID
 40
0.05
  9
$TEXTSTYLE
  7
STANDARD
  9
$CLAYER
  8
0
  9
$CELTYPE
  6
CONTINUOUS
  9
$CECOLOR
 62
   256
  9
$CELTSCALE
 40
1.0
  9
$DELOBJ
 70
     1
  9
$DISPSILH
 70
     0
  9
$DIMSCALE
 40
1.0
  9
$DIMASZ
 40
0.18
  9
$DIMEXO
 40
0.0625
  9
$DIMDLI
 40
0.38
  9
$DIMRND
 40
0.0
  9
$DIMDLE
 40
0.0
  9
$DIMEXE
 40
0.18
  9
$DIMTP
 40
0.0
  9
$DIMTM
 40
0.0
  9
$DIMTXT
 40
0.18
  9
$DIMCEN
 40
0.09
  9
$DIMTSZ
 40
0.0
  9
$DIMTOL
 70
     0
  9
$DIMLIM
 70
     0
  9
$DIMTIH
 70
     1
  9
$DIMTOH
 70
     1
  9
$DIMSE1
 70
     0
  9
$DIMSE2
 70
     0
  9
$DIMTAD
 70
     0
  9
$DIMZIN
 70
     0
  9
$DIMBLK
  1

  9
$DIMASO
 70
     1
  9
$DIMSHO
 70
     1
  9
$DIMPOST
  1

  9
$DIMAPOST
  1

  9
$DIMALT
 70
     0
  9
$DIMALTD
 70
     2
  9
$DIMALTF
 40
25.4
  9
$DIMLFAC
 40
1.0
  9
$DIMTOFL
 70
     0
  9
$DIMTVP
 40
0.0
  9
$DIMTIX
 70
     0
  9
$DIMSOXD
 70
     0
  9
$DIMSAH
 70
     0
  9
$DIMBLK1
  1

  9
$DIMBLK2
  1

  9
$DIMSTYLE
  2
STANDARD
  9
$DIMCLRD
 70
     0
  9
$DIMCLRE
 70
     0
  9
$DIMCLRT
 70
     0
  9
$DIMTFAC
 40
1.0
  9
$DIMGAP
 40
0.09
  9
$DIMJUST
 70
     0
  9
$DIMSD1
 70
     0
  9
$DIMSD2
 70
     0
  9
$DIMTOLJ
 70
     1
  9
$DIMTZIN
 70
     0
  9
$DIMALTZ
 70
     0
  9
$DIMALTTZ
 70
     0
  9
$DIMFIT
 70
     3
  9
$DIMUPT
 70
     0
  9
$DIMUNIT
 70
     2
  9
$DIMDEC
 70
     4
  9
$DIMTDEC
 70
     4
  9
$DIMALTU
 70
     2
  9
$DIMALTTD
 70
     2
  9
$DIMTXSTY
  7
STANDARD
  9
$DIMAUNIT
 70
     0
  9
$LUNITS
 70
     2
  9
$LUPREC
 70
     4
  9
$SKETCHINC
 40
0.1
  9
$FILLETRAD
 40
0.0
  9
$AUNITS
 70
     0
  9
$AUPREC
 70
     0
  9
$MENU
  1
acad
  9
$ELEVATION
 40
0.0
  9
$PELEVATION
 40
0.0
  9
$THICKNESS
 40
0.0
  9
$LIMCHECK
 70
     0
  9
$BLIPMODE
 70
     1
  9
$CHAMFERA
 40
0.0
  9
$CHAMFERB
 40
0.0
  9
$CHAMFERC
 40
0.0
  9
$CHAMFERD
 40
0.0
  9
$SKPOLY
 70
     0
  9
$TDCREATE
 40
0.000000000
  9
$TDUPDATE
 40
0.000000000
  9
$TDINDWG
 40
0.0000000000
  9
$TDUSRTIMER
 40
0.0000000000
  9
$USRTIMER
 70
     1
  9
$ANGBASE
 50
0.0
  9
$ANGDIR
 70
     0
  9
$PDMODE
 70
     0
  9
$PDSIZE
 40
0.0
  9
$PLINEWID
 40
0.0
  9
$COORDS
 70
     0
  9
$SPLFRAME
 70
     0
  9
$SPLINETYPE
 70
     6
  9
$SPLINESEGS
 70
     8
  9
$ATTDIA
 70
     0
  9
$ATTREQ
 70
     1
  9
$HANDLING
 70
     1
  9
$HANDSEED
  5
2C3
  9
$SURFTAB1
 70
     6
  9
$SURFTAB2
 70
     6
  9
$SURFTYPE
 70
     6
  9
$SURFU
 70
     6
  9
$SURFV
 70
     6
  9
$UCSNAME
  2

  9
$UCSORG
 10
0.0
 20
0.0
 30
0.0
  9
$UCSXDIR
 10
1.0
 20
0.0
 30
0.0
  9
$UCSYDIR
 10
0.0
 20
1.0
 30
0.0
  9
$PUCSNAME
  2

  9
$PUCSORG
 10
0.0
 20
0.0
 30
0.0
  9
$PUCSXDIR
 10
1.0
 20
0.0
 30
0.0
  9
$PUCSYDIR
 10
0.0
 20
1.0
 30
0.0
  9
$USERI1
 70
     0
  9
$USERI2
 70
     0
  9
$USERI3
 70
     0
  9
$USERI4
 70
     0
  9
$USERI5
 70
     0
  9
$USERR1
 40
0.0
  9
$USERR2
 40
0.0
  9
$USERR3
 40
0.0
  9
$USERR4
 40
0.0
  9
$USERR5
 40
0.0
  9
$WORLDVIEW
 70
     1
  9
$SHADEDGE
 70
     3
  9
$SHADEDIF
 70
    70
  9
$TILEMODE
 70
     1
  9
$MAXACTVP
 70
    16
  9
$PINSBASE
 10
0.0
 20
0.0
 30
0.0
  9
$PLIMCHECK
 70
     0
  9
$PEXTMIN
 10
1.000000E+20
 20
1.000000E+20
 30
1.000000E+20
  9
$PEXTMAX
 10
-1.000000E+20
 20
-1.000000E+20
 30
-1.000000E+20
  9
$PLIMMIN
 10
0.0
 20
0.0
  9
$PLIMMAX
 10
12.0
 20
9.0
  9
$UNITMODE
 70
     0
  9
$VISRETAIN
 70
     0
  9
$PLINEGEN
 70
     0
  9
$PSLTSCALE
 70
     0
  9
$TREEDEPTH
 70
  3020
  9
$PICKSTYLE
 70
     1
  9
$CMLSTYLE
  2
STANDARD
  9
$CMLJUST
 70
     0
  9
$CMLSCALE
 40
1.0
  9
$PROXYGRAPHICS
 70
     0
  9
$MEASUREMENT
 70
     0
  0
ENDSEC
  0
SECTION
  2
CLASSES
  0
CLASS
  1
LWPOLYLINE
  2
AcDbPolyline
  3
"AutoCAD"
 90
        0
280
     0
281
     1
  0
CLASS
  1
IMAGE
  2
AcDbRasterImage
  3
ISM
 90
      127
280
     0
281
     1
  0
CLASS
  1
OLE2FRAME
  2
AcDbOle2Frame
  3
""
 90
        0
280
     0
281
     1
  0
CLASS
  1
HATCH
  2
AcDbHatch
  3
"ACAD_SEDONA"
 90
        0
280
     0
281
     1
  0
CLASS
  1
DICTIONARYVAR
  2
AcDbDictionaryVar
  3
"AutoCAD"
 90
        0
280
     0
281
     0
  0
CLASS
  1
RASTERVARIABLES
  2
AcDbRasterVariables
  3
ISM
 90
        0
280
     0
281
     0
  0
CLASS
  1
IMAGEDEF
  2
AcDbRasterImageDef
  3
ISM
 90
        0
280
     0
281
     0
  0
CLASS
  1
IMAGEDEF_REACTOR
  2
AcDbRasterImageDefReactor
  3
ISM
 90
        1
280
     0
281
     0
  0
CLASS
  1
IDBUFFER
  2
AcDbIdBuffer
  3
"Acad"
 90
        0
280
     0
281
     0
  0
CLASS
  1
SPATIAL_FILTER
  2
AcDbSpatialFilter
  3
"Acad"
 90
        0
280
     0
281
     0
  0
CLASS
  1
XRECORD
  2
AcDbXrecord
  3
"<Built In>"
 90
        0
280
     0
281
     0
  0
CLASS
  1
SORTENTSTABLE
  2
AcDbSortentsTable
  3
"AutoCAD"
 90
        0
280
     0
281
     0
  0
CLASS
  1
LAYER_INDEX
  2
AcDbLayerIndex
  3
"Acad"
 90
        0
280
     0
281
     0
  0
CLASS
  1
SPATIAL_INDEX
  2
AcDbSpatialIndex
  3
"Acad"
 90
        0
280
     0
281
     0
  0
CLASS
  1
OBJECT_PTR
  2
CAseDLPNTableRecord
  3
"ASE-LPNTableRecord"
 90
        1
280
     0
281
     0
  0
CLASS
  1
LAYOUT
  2
AcDbLayout
  3
"AutoCAD 2000"
 90
        1
280
     0
281
     0
  0
CLASS
  1
PLOTSETTINGS
  2
AcDbPlotSettings
  3
"AutoCAD 2000"
 90
        1
280
     0
281
     0
  0
CLASS
  1
ACDBDICTIONARYWDFLT
  2
AcDbDictionaryWithDefault
  3
"AutoCAD 2000"
 90
        1
280
     0
281
     0
  0
CLASS
  1
ACDBPLACEHOLDER
  2
AcDbPlaceHolder
  3
"AutoCAD 2000"
 90
        1
280
     0
281
     0
  0
CLASS
  1
VBA_PROJECT
  2
AcDbVbaProject
  3
"acadvba"
 90
        1
280
     0
281
     0
  0
CLASS
  1
WIPEOUT
  2
AcDbWipeout
  3
WipeOut|AutoCAD Express Tool|expresstools@autodesk.com
 90
      127
280
     0
281
     1
  0
CLASS
  1
WIPEOUTVARIABLES
  2
AcDbWipeoutVariables
  3
WipeOut|AutoCAD Express Tool|expresstools@autodesk.com
 90
        0
280
     0
281
     0
  0
CLASS
  1
RTEXT
  2
RText
  3
RText|AutoCAD Express Tool|expresstools@autodesk.com
 90
        0
280
     0
281
     1
  0
CLASS
  1
ARCALIGNEDTEXT
  2
AcDbArcAlignedText
  3
ATEXT|AutoCAD Express Tool|expresstools@autodesk.com
 90
        0
280
     0
281
     1
  0
ENDSEC
  0
SECTION
  2
TABLES
  0
TABLE
  2
VPORT
  5
7
100
AcDbSymbolTable
 70
     2
  0
VPORT
  5
15
100
AcDbSymbolTableRecord
100
AcDbViewportTableRecord
  2
*ACTIVE
 70
     0
 10
0.0
 20
0.0
 11
1.0
 21
1.0
 12
6.591288
 22
4.579184
 13
0.0
 23
0.0
 14
1.0
 24
1.0
 15
0.0
 25
0.0
 16
0.0
 26
0.0
 36
1.0
 17
0.0
 27
0.0
 37
0.0
 40
9.158369
 41
0.688564
 42
50.0
 43
0.0
 44
0.0
 50
0.0
 51
0.0
 71
     0
 72
   100
 73
     1
 74
     1
 75
     0
 76
     0
 77
     0
 78
     0
  0
VPORT
  5
2C
100
AcDbSymbolTableRecord
100
AcDbViewportTableRecord
  2
DCADVPORT
 70
     0
 10
-266.892196
 20
0.67897
 11
305.744828
 21
241.438392
 12
6.21
 22
9.02
 13
0.0
 23
0.0
 14
1.0
 24
1.0
 15
0.0
 25
0.0
 16
0.0
 26
0.0
 36
1.0
 17
0.0
 27
0.0
 37
0.0
 40
18.04
 41
0.688564
 42
50.0
 43
1.0
 44
1.0
 50
0.0
 51
0.0
 71
     0
 72
   100
 73
     1
 74
     1
 75
     0
 76
     0
 77
     0
 78
     0
  0
ENDTAB
  0
TABLE
  2
LTYPE
  5
4
100
AcDbSymbolTable
 70
    15
  0
LTYPE
  5
11
100
AcDbSymbolTableRecord
100
AcDbLinetypeTableRecord
  2
BYBLOCK
 70
    64
  3

 72
    65
 73
     0
 40
0.0
  0
LTYPE
  5
12
100
AcDbSymbolTableRecord
100
AcDbLinetypeTableRecord
  2
BYLAYER
 70
    64
  3

 72
    65
 73
     0
 40
0.0
  0
LTYPE
  5
13
100
AcDbSymbolTableRecord
100
AcDbLinetypeTableRecord
  2
CONTINUOUS
 70
    64
  3
Solid line
 72
    65
 73
     0
 40
0.0
  0
LTYPE
  5
1E
100
AcDbSymbolTableRecord
100
AcDbLinetypeTableRecord
  2
CONTINUOUS
 70
     0
  3
Solid line
 72
    65
 73
     0
 40
0.0
  0
LTYPE
  5
1F
100
AcDbSymbolTableRecord
100
AcDbLinetypeTableRecord
  2
BORDER
 70
    64
  3
__ __ . __ __ . __ __ . __ __ . __ __ . __ __ .
 72
    65
 73
     6
 40
1.75
 49
0.5
 74
     0
 49
-0.25
 74
     0
 49
0.5
 74
     0
 49
-0.25
 74
     0
 49
0.0
 74
     0
 49
-0.25
 74
     0
  0
LTYPE
  5
20
100
AcDbSymbolTableRecord
100
AcDbLinetypeTableRecord
  2
BORDER2
 70
    64
  3
__.__.__.__.__.__.__.__.__.__.__.__.__.__.__.__
 72
    65
 73
     6
 40
0.875
 49
0.25
 74
     0
 49
-0.125
 74
     0
 49
0.25
 74
     0
 49
-0.125
 74
     0
 49
0.0
 74
     0
 49
-0.125
 74
     0
  0
LTYPE
  5
21
100
AcDbSymbolTableRecord
100
AcDbLinetypeTableRecord
  2
CENTER
 70
    64
  3
____ _ ____ _ ____ _ ____ _ ____ _ ____ _ ____ 
 72
    65
 73
     4
 40
2.0
 49
1.25
 74
     0
 49
-0.25
 74
     0
 49
0.25
 74
     0
 49
-0.25
 74
     0
  0
LTYPE
  5
22
100
AcDbSymbolTableRecord
100
AcDbLinetypeTableRecord
  2
DASHDOT
 70
    64
  3
__ . __ . __ . __ . __ . __ . __ . __ . __ . __
 72
    65
 73
     4
 40
1.0
 49
0.5
 74
     0
 49
-0.25
 74
     0
 49
0.0
 74
     0
 49
-0.25
 74
     0
  0
LTYPE
  5
23
100
AcDbSymbolTableRecord
100
AcDbLinetypeTableRecord
  2
DASHDOT2
 70
    64
  3
_._._._._._._._._._._._._._._._._._._._._._._._
 72
    65
 73
     4
 40
0.5
 49
0.25
 74
     0
 49
-0.125
 74
     0
 49
0.0
 74
     0
 49
-0.125
 74
     0
  0
LTYPE
  5
24
100
AcDbSymbolTableRecord
100
AcDbLinetypeTableRecord
  2
DASHED
 70
    64
  3
__ __ __ __ __ __ __ __ __ __ __ __ __ __ __ __
 72
    65
 73
     2
 40
0.75
 49
0.5
 74
     0
 49
-0.25
 74
     0
  0
LTYPE
  5
25
100
AcDbSymbolTableRecord
100
AcDbLinetypeTableRecord
  2
DIVIDE
 70
    64
  3
____ . . ____ . . ____ . . ____ . . ____ . . __
 72
    65
 73
     6
 40
1.25
 49
0.5
 74
     0
 49
-0.25
 74
     0
 49
0.0
 74
     0
 49
-0.25
 74
     0
 49
0.0
 74
     0
 49
-0.25
 74
     0
  0
LTYPE
  5
26
100
AcDbSymbolTableRecord
100
AcDbLinetypeTableRecord
  2
DIVIDE2
 70
    64
  3
__..__..__..__..__..__..__..__..__..__..__..__.
 72
    65
 73
     6
 40
0.625
 49
0.25
 74
     0
 49
-0.125
 74
     0
 49
0.0
 74
     0
 49
-0.125
 74
     0
 49
0.0
 74
     0
 49
-0.125
 74
     0
  0
LTYPE
  5
27
100
AcDbSymbolTableRecord
100
AcDbLinetypeTableRecord
  2
DOT
 70
    64
  3
. . . . . . . . . . . . . . . . . . . . . . . .
 72
    65
 73
     2
 40
0.25
 49
0.0
 74
     0
 49
-0.25
 74
     0
  0
LTYPE
  5
28
100
AcDbSymbolTableRecord
100
AcDbLinetypeTableRecord
  2
HIDDEN
 70
    64
  3
__ __ __ __ __ __ __ __ __ __ __ __ __ __ __ __
 72
    65
 73
     2
 40
0.375
 49
0.25
 74
     0
 49
-0.125
 74
     0
  0
LTYPE
  5
29
100
AcDbSymbolTableRecord
100
AcDbLinetypeTableRecord
  2
PHANTOM
 70
    64
  3
______  __  __  ______  __  __  ______  __  __ 
 72
    65
 73
     6
 40
2.5
 49
1.25
 74
     0
 49
-0.25
 74
     0
 49
0.25
 74
     0
 49
-0.25
 74
     0
 49
0.25
 74
     0
 49
-0.25
 74
     0
  0
ENDTAB
  0
TABLE
  2
LAYER
  5
2
100
AcDbSymbolTable
 70
     3
  0
LAYER
  5
14
100
AcDbSymbolTableRecord
100
AcDbLayerTableRecord
  2
0
 70
     0
 62
     7
  6
CONTINUOUS
  0
LAYER
  5
2A
100
AcDbSymbolTableRecord
100
AcDbLayerTableRecord
  2
0
 70
     0
 62
     7
  6
CONTINUOUS
  0
LAYER
  5
2B
100
AcDbSymbolTableRecord
100
AcDbLayerTableRecord
  2
1
 70
     0
 62
     7
  6
CONTINUOUS
  0
ENDTAB
  0
TABLE
  2
STYLE
  5
3
100
AcDbSymbolTable
 70
     2
  0
STYLE
  5
17
100
AcDbSymbolTableRecord
100
AcDbTextStyleTableRecord
  2
STANDARD
 70
     0
 40
0.0
 41
1.0
 50
0.0
 71
     0
 42
0.0
  3
txt
  4

  0
STYLE
  5
1D
100
AcDbSymbolTableRecord
100
AcDbTextStyleTableRecord
  2
BIGFONT
 70
    64
 40
3.0
 41
1.0
 50
0.0
 71
     0
 42
0.2
  3

  4
BIGFONT
  0
ENDTAB
  0
TABLE
  2
VIEW
  5
5
100
AcDbSymbolTable
 70
     0
  0
ENDTAB
  0
TABLE
  2
UCS
  5
6
100
AcDbSymbolTable
 70
     0
  0
ENDTAB
  0
TABLE
  2
APPID
  5
8
100
AcDbSymbolTable
 70
     1
  0
APPID
  5
16
100
AcDbSymbolTableRecord
100
AcDbRegAppTableRecord
  2
ACAD
 70
     0
  0
ENDTAB
  0
TABLE
  2
DIMSTYLE
  5
9
100
AcDbSymbolTable
 70
     1
  0
DIMSTYLE
105
18
100
AcDbSymbolTableRecord
100
AcDbDimStyleTableRecord
  2
STANDARD
 70
     0
  3

  4

  5

  6

  7

 40
1.0
 41
0.18
 42
0.0625
 43
0.38
 44
0.18
 45
0.0
 46
0.0
 47
0.0
 48
0.0
 71
     0
 72
     0
 73
     1
 74
     1
 75
     0
 76
     0
 77
     0
 78
     0
140
0.18
141
0.09
142
0.0
143
25.4
144
1.0
145
0.0
146
1.0
147
0.09
170
     0
171
     2
172
     0
173
     0
174
     0
175
     0
176
     0
177
     0
178
     0
270
     2
271
     4
272
     4
273
     2
274
     2
275
     0
280
     0
281
     0
282
     0
283
     1
284
     0
285
     0
286
     0
287
     0
288
     0
340
17
  0
ENDTAB
  0
TABLE
  2
BLOCK_RECORD
  5
1
100
AcDbSymbolTable
 70
     0
  0
BLOCK_RECORD
  5
A
100
AcDbSymbolTableRecord
100
AcDbBlockTableRecord
  2
*MODEL_SPACE
  0
BLOCK_RECORD
  5
B
100
AcDbSymbolTableRecord
100
AcDbBlockTableRecord
  2
*PAPER_SPACE
  0
ENDTAB
  0
ENDSEC
  0
SECTION
  2
BLOCKS
  0
BLOCK
  5
D
100
AcDbEntity
  8
0
100
AcDbBlockBegin
  2
*MODEL_SPACE
 70
     0
 10
0.0
 20
0.0
 30
0.0
  3
*MODEL_SPACE
  1

  0
ENDBLK
  5
E
100
AcDbEntity
  8
0
100
AcDbBlockEnd
  0
BLOCK
  5
F
100
AcDbEntity
 67
     1
  8
0
100
AcDbBlockBegin
  2
*PAPER_SPACE
 70
     0
 10
0.0
 20
0.0
 30
0.0
  3
*PAPER_SPACE
  1

  0
ENDBLK
  5
10
100
AcDbEntity
 67
     1
  8
0
100
AcDbBlockEnd
  0
ENDSEC
  0
SECTION
  2
ENTITIES
  0
POLYLINE
  5
2D
100
AcDbEntity
  8
1
  6
CONTINUOUS
 62
   150
 48
0.75
100
AcDb2dPolyline
 66
     1
 10
0.0
 20
0.0
 30
0.0
 70
   128
  0
VERTEX
  5
2E
100
AcDbEntity
  8
1
  6
CONTINUOUS
 62
   150
 48
0.75
100
AcDbVertex
100
AcDb2dVertex
 10
147.169686
 20
89.862639
 30
0.0
 40
0.0
 41
0.0
  0
VERTEX
  5
2F
100
AcDbEntity
  8
1
  6
CONTINUOUS
 62
   150
 48
0.75
100
AcDbVertex
100
AcDb2dVertex
 10
147.169686
 20
108.782639
 30
0.0
 40
0.0
 41
0.0
  0
SEQEND
  5
30
100
AcDbEntity
  8
0
  0
POLYLINE
  5
31
100
AcDbEntity
  8
1
  6
CONTINUOUS
 62
   150
 48
0.75
100
AcDb2dPolyline
 66
     1
 10
0.0
 20
0.0
 30
0.0
 70
   128
  0
VERTEX
  5
32
100
AcDbEntity
  8
1
  6
CONTINUOUS
 62
   150
 48
0.75
100
AcDbVertex
100
AcDb2dVertex
 10
134.670686
 20
89.862639
 30
0.0
 40
0.0
 41
0.0
  0
VERTEX
  5
33
100
AcDbEntity
  8
1
  6
CONTINUOUS
 62
   150
 48
0.75
100
AcDbVertex
100
AcDb2dVertex
 10
134.670686
 20
115.222639
 30
0.0
 40
0.0
 41
0.0
  0
SEQEND
  5
34
100
AcDbEntity
  8
0
  0
POLYLINE
  5
35
100
AcDbEntity
  8
1
  6
CONTINUOUS
 62
   150
 48
0.75
100
AcDb2dPolyline
 66
     1
 10
0.0
 20
0.0
 30
0.0
 70
   128
  0
VERTEX
  5
36
100
AcDbEntity
  8
1
  6
CONTINUOUS
 62
   150
 48
0.75
100
AcDbVertex
100
AcDb2dVertex
 10
122.170686
 20
89.862639
 30
0.0
 40
0.0
 41
0.0
  0
VERTEX
  5
37
100
AcDbEntity
  8
1
  6
CONTINUOUS
 62
   150
 48
0.75
100
AcDbVertex
100
AcDb2dVertex
 10
122.170686
 20
118.562639
 30
0.0
 40
0.0
 41
0.0
  0
SEQEND
  5
38
100
AcDbEntity
  8
0
  0
POLYLINE
  5
39
100
AcDbEntity
  8
1
  6
CONTINUOUS
 62
   150
 48
0.75
100
AcDb2dPolyline
 66
     1
 10
0.0
 20
0.0
 30
0.0
 70
   128
  0
VERTEX
  5
3A
100
AcDbEntity
  8
1
  6
CONTINUOUS
 62
   150
 48
0.75
100
AcDbVertex
100
AcDb2dVertex
 10
97.170686
 20
89.862639
 30
0.0
 40
0.0
 41
0.0
  0
VERTEX
  5
3B
100
AcDbEntity
  8
1
  6
CONTINUOUS
 62
   150
 48
0.75
100
AcDbVertex
100
AcDb2dVertex
 10
97.170686
 20
121.892639
 30
0.0
 40
0.0
 41
0.0
  0
SEQEND
  5
3C
100
AcDbEntity
  8
0
  0
POLYLINE
  5
3D
100
AcDbEntity
  8
1
  6
CONTINUOUS
 62
   150
 48
0.75
100
AcDb2dPolyline
 66
     1
 10
0.0
 20
0.0
 30
0.0
 70
   128
  0
VERTEX
  5
3E
100
AcDbEntity
  8
1
  6
CONTINUOUS
 62
   150
 48
0.75
100
AcDbVertex
100
AcDb2dVertex
 10
72.170686
 20
89.862639
 30
0.0
 40
0.0
 41
0.0
  0
VERTEX
  5
3F
100
AcDbEntity
  8
1
  6
CONTINUOUS
 62
   150
 48
0.75
100
AcDbVertex
100
AcDb2dVertex
 10
72.170686
 20
123.322639
 30
0.0
 40
0.0
 41
0.0
  0
SEQEND
  5
40
100
AcDbEntity
  8
0
  0
POLYLINE
  5
41
100
AcDbEntity
  8
1
  6
CONTINUOUS
 62
   150
 48
0.75
100
AcDb2dPolyline
 66
     1
 10
0.0
 20
0.0
 30
0.0
 70
   128
  0
VERTEX
  5
42
100
AcDbEntity
  8
1
  6
CONTINUOUS
 62
   150
 48
0.75
100
AcDbVertex
100
AcDb2dVertex
 10
47.170686
 20
89.862639
 30
0.0
 40
0.0
 41
0.0
  0
VERTEX
  5
43
100
AcDbEntity
  8
1
  6
CONTINUOUS
 62
   150
 48
0.75
100
AcDbVertex
100
AcDb2dVertex
 10
47.170686
 20
124.232639
 30
0.0
 40
0.0
 41
0.0
  0
SEQEND
  5
44
100
AcDbEntity
  8
0
  0
POLYLINE
  5
45
100
AcDbEntity
  8
1
  6
CONTINUOUS
 62
   150
 48
0.75
100
AcDb2dPolyline
 66
     1
 10
0.0
 20
0.0
 30
0.0
 70
   128
  0
VERTEX
  5
46
100
AcDbEntity
  8
1
  6
CONTINUOUS
 62
   150
 48
0.75
100
AcDbVertex
100
AcDb2dVertex
 10
22.170686
 20
89.862639
 30
0.0
 40
0.0
 41
0.0
  0
VERTEX
  5
47
100
AcDbEntity
  8
1
  6
CONTINUOUS
 62
   150
 48
0.75
100
AcDbVertex
100
AcDb2dVertex
 10
22.170686
 20
124.342639
 30
0.0
 40
0.0
 41
0.0
  0
SEQEND
  5
48
100
AcDbEntity
  8
0
  0
POLYLINE
  5
49
100
AcDbEntity
  8
1
  6
CONTINUOUS
 62
   150
 48
0.75
100
AcDb2dPolyline
 66
     1
 10
0.0
 20
0.0
 30
0.0
 70
   128
  0
VERTEX
  5
4A
100
AcDbEntity
  8
1
  6
CONTINUOUS
 62
   150
 48
0.75
100
AcDbVertex
100
AcDb2dVertex
 10
-2.829314
 20
89.862639
 30
0.0
 40
0.0
 41
0.0
  0
VERTEX
  5
4B
100
AcDbEntity
  8
1
  6
CONTINUOUS
 62
   150
 48
0.75
100
AcDbVertex
100
AcDb2dVertex
 10
-2.829314
 20
124.142639
 30
0.0
 40
0.0
 41
0.0
  0
SEQEND
  5
4C
100
AcDbEntity
  8
0
  0
POLYLINE
  5
4D
100
AcDbEntity
  8
1
  6
CONTINUOUS
 62
   150
 48
0.75
100
AcDb2dPolyline
 66
     1
 10
0.0
 20
0.0
 30
0.0
 70
   128
  0
VERTEX
  5
4E
100
AcDbEntity
  8
1
  6
CONTINUOUS
 62
   150
 48
0.75
100
AcDbVertex
100
AcDb2dVertex
 10
-27.829314
 20
89.862639
 30
0.0
 40
0.0
 41
0.0
  0
VERTEX
  5
4F
100
AcDbEntity
  8
1
  6
CONTINUOUS
 62
   150
 48
0.75
100
AcDbVertex
100
AcDb2dVertex
 10
-27.829314
 20
123.292639
 30
0.0
 40
0.0
 41
0.0
  0
SEQEND
  5
50
100
AcDbEntity
  8
0
  0
POLYLINE
  5
51
100
AcDbEntity
  8
1
  6
CONTINUOUS
 62
   150
 48
0.75
100
AcDb2dPolyline
 66
     1
 10
0.0
 20
0.0
 30
0.0
 70
   128
  0
VERTEX
  5
52
100
AcDbEntity
  8
1
  6
CONTINUOUS
 62
   150
 48
0.75
100
AcDbVertex
100
AcDb2dVertex
 10
-52.829314
 20
89.862639
 30
0.0
 40
0.0
 41
0.0
  0
VERTEX
  5
53
100
AcDbEntity
  8
1
  6
CONTINUOUS
 62
   150
 48
0.75
100
AcDbVertex
100
AcDb2dVertex
 10
-52.829314
 20
122.242639
 30
0.0
 40
0.0
 41
0.0
  0
SEQEND
  5
54
100
AcDbEntity
  8
0
  0
POLYLINE
  5
55
100
AcDbEntity
  8
1
  6
CONTINUOUS
 62
   150
 48
0.75
100
AcDb2dPolyline
 66
     1
 10
0.0
 20
0.0
 30
0.0
 70
   128
  0
VERTEX
  5
56
100
AcDbEntity
  8
1
  6
CONTINUOUS
 62
   150
 48
0.75
100
AcDbVertex
100
AcDb2dVertex
 10
-77.829314
 20
89.862639
 30
0.0
 40
0.0
 41
0.0
  0
VERTEX
  5
57
100
AcDbEntity
  8
1
  6
CONTINUOUS
 62
   150
 48
0.75
100
AcDbVertex
100
AcDb2dVertex
 10
-77.829314
 20
121.212639
 30
0.0
 40
0.0
 41
0.0
  0
SEQEND
  5
58
100
AcDbEntity
  8
0
  0
POLYLINE
  5
59
100
AcDbEntity
  8
1
  6
CONTINUOUS
 62
   150
 48
0.75
100
AcDb2dPolyline
 66
     1
 10
0.0
 20
0.0
 30
0.0
 70
   128
  0
VERTEX
  5
5A
100
AcDbEntity
  8
1
  6
CONTINUOUS
 62
   150
 48
0.75
100
AcDbVertex
100
AcDb2dVertex
 10
-102.829314
 20
89.862639
 30
0.0
 40
0.0
 41
0.0
  0
VERTEX
  5
5B
100
AcDbEntity
  8
1
  6
CONTINUOUS
 62
   150
 48
0.75
100
AcDbVertex
100
AcDb2dVertex
 10
-102.829314
 20
120.122639
 30
0.0
 40
0.0
 41
0.0
  0
SEQEND
  5
5C
100
AcDbEntity
  8
0
  0
POLYLINE
  5
5D
100
AcDbEntity
  8
1
  6
CONTINUOUS
 62
   150
 48
0.75
100
AcDb2dPolyline
 66
     1
 10
0.0
 20
0.0
 30
0.0
 70
   128
  0
VERTEX
  5
5E
100
AcDbEntity
  8
1
  6
CONTINUOUS
 62
   150
 48
0.75
100
AcDbVertex
100
AcDb2dVertex
 10
173.570686
 20
89.862639
 30
0.0
 40
0.0
 41
0.0
  0
VERTEX
  5
5F
100
AcDbEntity
  8
1
  6
CONTINUOUS
 62
   150
 48
0.75
100
AcDbVertex
100
AcDb2dVertex
 10
147.169686
 20
108.782639
 30
0.0
 40
0.0
 41
0.0
  0
VERTEX
  5
60
100
AcDbEntity
  8
1
  6
CONTINUOUS
 62
   150
 48
0.75
100
AcDbVertex
100
AcDb2dVertex
 10
134.670686
 20
115.221639
 30
0.0
 40
0.0
 41
0.0
  0
VERTEX
  5
61
100
AcDbEntity
  8
1
  6
CONTINUOUS
 62
   150
 48
0.75
100
AcDbVertex
100
AcDb2dVertex
 10
122.170686
 20
118.562639
 30
0.0
 40
0.0
 41
0.0
  0
VERTEX
  5
62
100
AcDbEntity
  8
1
  6
CONTINUOUS
 62
   150
 48
0.75
100
AcDbVertex
100
AcDb2dVertex
 10
97.170686
 20
121.891639
 30
0.0
 40
0.0
 41
0.0
  0
VERTEX
  5
63
100
AcDbEntity
  8
1
  6
CONTINUOUS
 62
   150
 48
0.75
100
AcDbVertex
100
AcDb2dVertex
 10
72.170686
 20
123.321639
 30
0.0
 40
0.0
 41
0.0
  0
VERTEX
  5
64
100
AcDbEntity
  8
1
  6
CONTINUOUS
 62
   150
 48
0.75
100
AcDbVertex
100
AcDb2dVertex
 10
47.170686
 20
124.232639
 30
0.0
 40
0.0
 41
0.0
  0
VERTEX
  5
65
100
AcDbEntity
  8
1
  6
CONTINUOUS
 62
   150
 48
0.75
100
AcDbVertex
100
AcDb2dVertex
 10
22.170686
 20
124.342639
 30
0.0
 40
0.0
 41
0.0
  0
VERTEX
  5
66
100
AcDbEntity
  8
1
  6
CONTINUOUS
 62
   150
 48
0.75
100
AcDbVertex
100
AcDb2dVertex
 10
-2.829314
 20
124.142639
 30
0.0
 40
0.0
 41
0.0
  0
VERTEX
  5
67
100
AcDbEntity
  8
1
  6
CONTINUOUS
 62
   150
 48
0.75
100
AcDbVertex
100
AcDb2dVertex
 10
-27.829314
 20
123.292639
 30
0.0
 40
0.0
 41
0.0
  0
VERTEX
  5
68
100
AcDbEntity
  8
1
  6
CONTINUOUS
 62
   150
 48
0.75
100
AcDbVertex
100
AcDb2dVertex
 10
-52.829314
 20
122.242639
 30
0.0
 40
0.0
 41
0.0
  0
VERTEX
  5
69
100
AcDbEntity
  8
1
  6
CONTINUOUS
 62
   150
 48
0.75
100
AcDbVertex
100
AcDb2dVertex
 10
-77.829314
 20
121.211639
 30
0.0
 40
0.0
 41
0.0
  0
VERTEX
  5
6A
100
AcDbEntity
  8
1
  6
CONTINUOUS
 62
   150
 48
0.75
100
AcDbVertex
100
AcDb2dVertex
 10
-102.829314
 20
120.121639
 30
0.0
 40
0.0
 41
0.0
  0
SEQEND
  5
6B
100
AcDbEntity
  8
0
  0
POLYLINE
  5
6C
100
AcDbEntity
  8
1
  6
CONTINUOUS
 62
   150
 48
0.75
100
AcDb2dPolyline
 66
     1
 10
0.0
 20
0.0
 30
0.0
 70
   128
  0
VERTEX
  5
6D
100
AcDbEntity
  8
1
  6
CONTINUOUS
 62
   150
 48
0.75
100
AcDbVertex
100
AcDb2dVertex
 10
156.170686
 20
89.862639
 30
0.0
 40
0.0
 41
0.0
  0
VERTEX
  5
6E
100
AcDbEntity
  8
1
  6
CONTINUOUS
 62
   150
 48
0.75
100
AcDbVertex
100
AcDb2dVertex
 10
147.169686
 20
96.902639
 30
0.0
 40
0.0
 41
0.0
  0
VERTEX
  5
6F
100
AcDbEntity
  8
1
  6
CONTINUOUS
 62
   150
 48
0.75
100
AcDbVertex
100
AcDb2dVertex
 10
134.670686
 20
103.882639
 30
0.0
 40
0.0
 41
0.0
  0
VERTEX
  5
70
100
AcDbEntity
  8
1
  6
CONTINUOUS
 62
   150
 48
0.75
100
AcDbVertex
100
AcDb2dVertex
 10
122.170686
 20
109.132639
 30
0.0
 40
0.0
 41
0.0
  0
VERTEX
  5
71
100
AcDbEntity
  8
1
  6
CONTINUOUS
 62
   150
 48
0.75
100
AcDbVertex
100
AcDb2dVertex
 10
97.170686
 20
115.032639
 30
0.0
 40
0.0
 41
0.0
  0
VERTEX
  5
72
100
AcDbEntity
  8
1
  6
CONTINUOUS
 62
   150
 48
0.75
100
AcDbVertex
100
AcDb2dVertex
 10
72.170686
 20
117.762639
 30
0.0
 40
0.0
 41
0.0
  0
VERTEX
  5
73
100
AcDbEntity
  8
1
  6
CONTINUOUS
 62
   150
 48
0.75
100
AcDbVertex
100
AcDb2dVertex
 10
47.170686
 20
118.932639
 30
0.0
 40
0.0
 41
0.0
  0
VERTEX
  5
74
100
AcDbEntity
  8
1
  6
CONTINUOUS
 62
   150
 48
0.75
100
AcDbVertex
100
AcDb2dVertex
 10
22.170686
 20
119.322639
 30
0.0
 40
0.0
 41
0.0
  0
VERTEX
  5
75
100
AcDbEntity
  8
1
  6
CONTINUOUS
 62
   150
 48
0.75
100
AcDbVertex
100
AcDb2dVertex
 10
-2.829314
 20
119.202639
 30
0.0
 40
0.0
 41
0.0
  0
VERTEX
  5
76
100
AcDbEntity
  8
1
  6
CONTINUOUS
 62
   150
 48
0.75
100
AcDbVertex
100
AcDb2dVertex
 10
-27.829314
 20
118.492639
 30
0.0
 40
0.0
 41
0.0
  0
VERTEX
  5
77
100
AcDbEntity
  8
1
  6
CONTINUOUS
 62
   150
 48
0.75
100
AcDbVertex
100
AcDb2dVertex
 10
-52.829314
 20
117.642639
 30
0.0
 40
0.0
 41
0.0
  0
VERTEX
  5
78
100
AcDbEntity
  8
1
  6
CONTINUOUS
 62
   150
 48
0.75
100
AcDbVertex
100
AcDb2dVertex
 10
-77.829314
 20
116.592639
 30
0.0
 40
0.0
 41
0.0
  0
VERTEX
  5
79
100
AcDbEntity
  8
1
  6
CONTINUOUS
 62
   150
 48
0.75
100
AcDbVertex
100
AcDb2dVertex
 10
-102.829314
 20
115.641639
 30
0.0
 40
0.0
 41
0.0
  0
SEQEND
  5
7A
100
AcDbEntity
  8
0
  0
POLYLINE
  5
7B
100
AcDbEntity
  8
1
  6
CONTINUOUS
 62
   150
 48
0.75
100
AcDb2dPolyline
 66
     1
 10
0.0
 20
0.0
 30
0.0
 70
   128
  0
VERTEX
  5
7C
100
AcDbEntity
  8
1
  6
CONTINUOUS
 62
   150
 48
0.75
100
AcDbVertex
100
AcDb2dVertex
 10
156.170686
 20
89.862639
 30
0.0
 40
0.0
 41
0.0
  0
VERTEX
  5
7D
100
AcDbEntity
  8
1
  6
CONTINUOUS
 62
   150
 48
0.75
100
AcDbVertex
100
AcDb2dVertex
 10
147.169686
 20
95.382639
 30
0.0
 40
0.0
 41
0.0
  0
VERTEX
  5
7E
100
AcDbEntity
  8
1
  6
CONTINUOUS
 62
   150
 48
0.75
100
AcDbVertex
100
AcDb2dVertex
 10
134.670686
 20
101.452639
 30
0.0
 40
0.0
 41
0.0
  0
VERTEX
  5
7F
100
AcDbEntity
  8
1
  6
CONTINUOUS
 62
   150
 48
0.75
100
AcDbVertex
100
AcDb2dVertex
 10
122.170686
 20
106.572639
 30
0.0
 40
0.0
 41
0.0
  0
VERTEX
  5
80
100
AcDbEntity
  8
1
  6
CONTINUOUS
 62
   150
 48
0.75
100
AcDbVertex
100
AcDb2dVertex
 10
97.170686
 20
112.862639
 30
0.0
 40
0.0
 41
0.0
  0
VERTEX
  5
81
100
AcDbEntity
  8
1
  6
CONTINUOUS
 62
   150
 48
0.75
100
AcDbVertex
100
AcDb2dVertex
 10
72.170686
 20
115.852639
 30
0.0
 40
0.0
 41
0.0
  0
VERTEX
  5
82
100
AcDbEntity
  8
1
  6
CONTINUOUS
 62
   150
 48
0.75
100
AcDbVertex
100
AcDb2dVertex
 10
47.170686
 20
117.432639
 30
0.0
 40
0.0
 41
0.0
  0
VERTEX
  5
83
100
AcDbEntity
  8
1
  6
CONTINUOUS
 62
   150
 48
0.75
100
AcDbVertex
100
AcDb2dVertex
 10
22.170686
 20
117.742639
 30
0.0
 40
0.0
 41
0.0
  0
VERTEX
  5
84
100
AcDbEntity
  8
1
  6
CONTINUOUS
 62
   150
 48
0.75
100
AcDbVertex
100
AcDb2dVertex
 10
-2.829314
 20
117.402639
 30
0.0
 40
0.0
 41
0.0
  0
VERTEX
  5
85
100
AcDbEntity
  8
1
  6
CONTINUOUS
 62
   150
 48
0.75
100
AcDbVertex
100
AcDb2dVertex
 10
-27.829314
 20
116.692639
 30
0.0
 40
0.0
 41
0.0
  0
VERTEX
  5
86
100
AcDbEntity
  8
1
  6
CONTINUOUS
 62
   150
 48
0.75
100
AcDbVertex
100
AcDb2dVertex
 10
-52.829314
 20
115.842639
 30
0.0
 40
0.0
 41
0.0
  0
VERTEX
  5
87
100
AcDbEntity
  8
1
  6
CONTINUOUS
 62
   150
 48
0.75
100
AcDbVertex
100
AcDb2dVertex
 10
-77.829314
 20
114.991639
 30
0.0
 40
0.0
 41
0.0
  0
VERTEX
  5
88
100
AcDbEntity
  8
1
  6
CONTINUOUS
 62
   150
 48
0.75
100
AcDbVertex
100
AcDb2dVertex
 10
-102.829314
 20
113.841639
 30
0.0
 40
0.0
 41
0.0
  0
SEQEND
  5
89
100
AcDbEntity
  8
0
  0
POLYLINE
  5
8A
100
AcDbEntity
  8
1
  6
CONTINUOUS
 62
   150
 48
0.75
100
AcDb2dPolyline
 66
     1
 10
0.0
 20
0.0
 30
0.0
 70
   128
  0
VERTEX
  5
8B
100
AcDbEntity
  8
1
  6
CONTINUOUS
 62
   150
 48
0.75
100
AcDbVertex
100
AcDb2dVertex
 10
147.170686
 20
89.862639
 30
0.0
 40
0.0
 41
0.0
  0
VERTEX
  5
8C
100
AcDbEntity
  8
1
  6
CONTINUOUS
 62
   150
 48
0.75
100
AcDbVertex
100
AcDb2dVertex
 10
147.169686
 20
89.862639
 30
0.0
 40
0.0
 41
0.0
  0
VERTEX
  5
8D
100
AcDbEntity
  8
1
  6
CONTINUOUS
 62
   150
 48
0.75
100
AcDbVertex
100
AcDb2dVertex
 10
134.670686
 20
89.862639
 30
0.0
 40
0.0
 41
0.0
  0
VERTEX
  5
8E
100
AcDbEntity
  8
1
  6
CONTINUOUS
 62
   150
 48
0.75
100
AcDbVertex
100
AcDb2dVertex
 10
122.170686
 20
89.862639
 30
0.0
 40
0.0
 41
0.0
  0
VERTEX
  5
8F
100
AcDbEntity
  8
1
  6
CONTINUOUS
 62
   150
 48
0.75
100
AcDbVertex
100
AcDb2dVertex
 10
97.170686
 20
89.862639
 30
0.0
 40
0.0
 41
0.0
  0
VERTEX
  5
90
100
AcDbEntity
  8
1
  6
CONTINUOUS
 62
   150
 48
0.75
100
AcDbVertex
100
AcDb2dVertex
 10
72.170686
 20
89.862639
 30
0.0
 40
0.0
 41
0.0
  0
VERTEX
  5
91
100
AcDbEntity
  8
1
  6
CONTINUOUS
 62
   150
 48
0.75
100
AcDbVertex
100
AcDb2dVertex
 10
47.170686
 20
89.862639
 30
0.0
 40
0.0
 41
0.0
  0
VERTEX
  5
92
100
AcDbEntity
  8
1
  6
CONTINUOUS
 62
   150
 48
0.75
100
AcDbVertex
100
AcDb2dVertex
 10
22.170686
 20
89.862639
 30
0.0
 40
0.0
 41
0.0
  0
VERTEX
  5
93
100
AcDbEntity
  8
1
  6
CONTINUOUS
 62
   150
 48
0.75
100
AcDbVertex
100
AcDb2dVertex
 10
-2.829314
 20
89.862639
 30
0.0
 40
0.0
 41
0.0
  0
VERTEX
  5
94
100
AcDbEntity
  8
1
  6
CONTINUOUS
 62
   150
 48
0.75
100
AcDbVertex
100
AcDb2dVertex
 10
-27.829314
 20
89.862639
 30
0.0
 40
0.0
 41
0.0
  0
VERTEX
  5
95
100
AcDbEntity
  8
1
  6
CONTINUOUS
 62
   150
 48
0.75
100
AcDbVertex
100
AcDb2dVertex
 10
-52.829314
 20
89.862639
 30
0.0
 40
0.0
 41
0.0
  0
VERTEX
  5
96
100
AcDbEntity
  8
1
  6
CONTINUOUS
 62
   150
 48
0.75
100
AcDbVertex
100
AcDb2dVertex
 10
-77.829314
 20
89.862639
 30
0.0
 40
0.0
 41
0.0
  0
VERTEX
  5
97
100
AcDbEntity
  8
1
  6
CONTINUOUS
 62
   150
 48
0.75
100
AcDbVertex
100
AcDb2dVertex
 10
-102.829314
 20
89.862639
 30
0.0
 40
0.0
 41
0.0
  0
SEQEND
  5
98
100
AcDbEntity
  8
0
  0
POLYLINE
  5
99
100
AcDbEntity
  8
1
  6
CONTINUOUS
 62
   150
 48
0.75
100
AcDb2dPolyline
 66
     1
 10
0.0
 20
0.0
 30
0.0
 70
   128
  0
VERTEX
  5
9A
100
AcDbEntity
  8
1
  6
CONTINUOUS
 62
   150
 48
0.75
100
AcDbVertex
100
AcDb2dVertex
 10
173.570686
 20
89.862639
 30
0.0
 40
0.0
 41
0.0
  0
VERTEX
  5
9B
100
AcDbEntity
  8
1
  6
CONTINUOUS
 62
   150
 48
0.75
100
AcDbVertex
100
AcDb2dVertex
 10
-102.829314
 20
89.862639
 30
0.0
 40
0.0
 41
0.0
  0
SEQEND
  5
9C
100
AcDbEntity
  8
0
  0
POLYLINE
  5
9D
100
AcDbEntity
  8
1
  6
CONTINUOUS
 62
   150
 48
0.75
100
AcDb2dPolyline
 66
     1
 10
0.0
 20
0.0
 30
0.0
 70
   128
  0
VERTEX
  5
9E
100
AcDbEntity
  8
1
  6
CONTINUOUS
 62
   150
 48
0.75
100
AcDbVertex
100
AcDb2dVertex
 10
173.570686
 20
89.862639
 30
0.0
 40
0.0
 41
0.0
  0
VERTEX
  5
9F
100
AcDbEntity
  8
1
  6
CONTINUOUS
 62
   150
 48
0.75
100
AcDbVertex
100
AcDb2dVertex
 10
147.170686
 20
89.862639
 30
0.0
 40
0.0
 41
0.0
  0
SEQEND
  5
A0
100
AcDbEntity
  8
0
  0
POLYLINE
  5
A1
100
AcDbEntity
  8
1
  6
CONTINUOUS
 62
   150
 48
0.75
100
AcDb2dPolyline
 66
     1
 10
0.0
 20
0.0
 30
0.0
 70
   128
  0
VERTEX
  5
A2
100
AcDbEntity
  8
1
  6
CONTINUOUS
 62
   150
 48
0.75
100
AcDbVertex
100
AcDb2dVertex
 10
146.832341
 20
198.090635
 30
0.0
 40
0.0
 41
0.0
  0
VERTEX
  5
A3
100
AcDbEntity
  8
1
  6
CONTINUOUS
 62
   150
 48
0.75
100
AcDbVertex
100
AcDb2dVertex
 10
146.832341
 20
171.742635
 30
0.0
 40
0.0
 41
0.0
  0
SEQEND
  5
A4
100
AcDbEntity
  8
0
  0
POLYLINE
  5
A5
100
AcDbEntity
  8
1
  6
CONTINUOUS
 62
   150
 48
0.75
100
AcDb2dPolyline
 66
     1
 10
0.0
 20
0.0
 30
0.0
 70
   128
  0
VERTEX
  5
A6
100
AcDbEntity
  8
1
  6
CONTINUOUS
 62
   150
 48
0.75
100
AcDbVertex
100
AcDb2dVertex
 10
134.333341
 20
197.725635
 30
0.0
 40
0.0
 41
0.0
  0
VERTEX
  5
A7
100
AcDbEntity
  8
1
  6
CONTINUOUS
 62
   150
 48
0.75
100
AcDbVertex
100
AcDb2dVertex
 10
134.333341
 20
164.782635
 30
0.0
 40
0.0
 41
0.0
  0
SEQEND
  5
A8
100
AcDbEntity
  8
0
  0
POLYLINE
  5
A9
100
AcDbEntity
  8
1
  6
CONTINUOUS
 62
   150
 48
0.75
100
AcDb2dPolyline
 66
     1
 10
0.0
 20
0.0
 30
0.0
 70
   128
  0
VERTEX
  5
AA
100
AcDbEntity
  8
1
  6
CONTINUOUS
 62
   150
 48
0.75
100
AcDbVertex
100
AcDb2dVertex
 10
121.833341
 20
197.387635
 30
0.0
 40
0.0
 41
0.0
  0
VERTEX
  5
AB
100
AcDbEntity
  8
1
  6
CONTINUOUS
 62
   150
 48
0.75
100
AcDbVertex
100
AcDb2dVertex
 10
121.833341
 20
161.252635
 30
0.0
 40
0.0
 41
0.0
  0
SEQEND
  5
AC
100
AcDbEntity
  8
0
  0
POLYLINE
  5
AD
100
AcDbEntity
  8
1
  6
CONTINUOUS
 62
   150
 48
0.75
100
AcDb2dPolyline
 66
     1
 10
0.0
 20
0.0
 30
0.0
 70
   128
  0
VERTEX
  5
AE
100
AcDbEntity
  8
1
  6
CONTINUOUS
 62
   150
 48
0.75
100
AcDbVertex
100
AcDb2dVertex
 10
96.833341
 20
196.742635
 30
0.0
 40
0.0
 41
0.0
  0
VERTEX
  5
AF
100
AcDbEntity
  8
1
  6
CONTINUOUS
 62
   150
 48
0.75
100
AcDbVertex
100
AcDb2dVertex
 10
96.833341
 20
159.242635
 30
0.0
 40
0.0
 41
0.0
  0
SEQEND
  5
B0
100
AcDbEntity
  8
0
  0
POLYLINE
  5
B1
100
AcDbEntity
  8
1
  6
CONTINUOUS
 62
   150
 48
0.75
100
AcDb2dPolyline
 66
     1
 10
0.0
 20
0.0
 30
0.0
 70
   128
  0
VERTEX
  5
B2
100
AcDbEntity
  8
1
  6
CONTINUOUS
 62
   150
 48
0.75
100
AcDbVertex
100
AcDb2dVertex
 10
71.833341
 20
196.352635
 30
0.0
 40
0.0
 41
0.0
  0
VERTEX
  5
B3
100
AcDbEntity
  8
1
  6
CONTINUOUS
 62
   150
 48
0.75
100
AcDbVertex
100
AcDb2dVertex
 10
71.833341
 20
159.592635
 30
0.0
 40
0.0
 41
0.0
  0
SEQEND
  5
B4
100
AcDbEntity
  8
0
  0
POLYLINE
  5
B5
100
AcDbEntity
  8
1
  6
CONTINUOUS
 62
   150
 48
0.75
100
AcDb2dPolyline
 66
     1
 10
0.0
 20
0.0
 30
0.0
 70
   128
  0
VERTEX
  5
B6
100
AcDbEntity
  8
1
  6
CONTINUOUS
 62
   150
 48
0.75
100
AcDbVertex
100
AcDb2dVertex
 10
46.833341
 20
196.022635
 30
0.0
 40
0.0
 41
0.0
  0
VERTEX
  5
B7
100
AcDbEntity
  8
1
  6
CONTINUOUS
 62
   150
 48
0.75
100
AcDbVertex
100
AcDb2dVertex
 10
46.833341
 20
160.192635
 30
0.0
 40
0.0
 41
0.0
  0
SEQEND
  5
B8
100
AcDbEntity
  8
0
  0
POLYLINE
  5
B9
100
AcDbEntity
  8
1
  6
CONTINUOUS
 62
   150
 48
0.75
100
AcDb2dPolyline
 66
     1
 10
0.0
 20
0.0
 30
0.0
 70
   128
  0
VERTEX
  5
BA
100
AcDbEntity
  8
1
  6
CONTINUOUS
 62
   150
 48
0.75
100
AcDbVertex
100
AcDb2dVertex
 10
21.833341
 20
195.726635
 30
0.0
 40
0.0
 41
0.0
  0
VERTEX
  5
BB
100
AcDbEntity
  8
1
  6
CONTINUOUS
 62
   150
 48
0.75
100
AcDbVertex
100
AcDb2dVertex
 10
21.833341
 20
161.082635
 30
0.0
 40
0.0
 41
0.0
  0
SEQEND
  5
BC
100
AcDbEntity
  8
0
  0
POLYLINE
  5
BD
100
AcDbEntity
  8
1
  6
CONTINUOUS
 62
   150
 48
0.75
100
AcDb2dPolyline
 66
     1
 10
0.0
 20
0.0
 30
0.0
 70
   128
  0
VERTEX
  5
BE
100
AcDbEntity
  8
1
  6
CONTINUOUS
 62
   150
 48
0.75
100
AcDbVertex
100
AcDb2dVertex
 10
-3.166659
 20
195.332635
 30
0.0
 40
0.0
 41
0.0
  0
VERTEX
  5
BF
100
AcDbEntity
  8
1
  6
CONTINUOUS
 62
   150
 48
0.75
100
AcDbVertex
100
AcDb2dVertex
 10
-3.166659
 20
161.862635
 30
0.0
 40
0.0
 41
0.0
  0
SEQEND
  5
C0
100
AcDbEntity
  8
0
  0
POLYLINE
  5
C1
100
AcDbEntity
  8
1
  6
CONTINUOUS
 62
   150
 48
0.75
100
AcDb2dPolyline
 66
     1
 10
0.0
 20
0.0
 30
0.0
 70
   128
  0
VERTEX
  5
C2
100
AcDbEntity
  8
1
  6
CONTINUOUS
 62
   150
 48
0.75
100
AcDbVertex
100
AcDb2dVertex
 10
-28.166659
 20
195.162635
 30
0.0
 40
0.0
 41
0.0
  0
VERTEX
  5
C3
100
AcDbEntity
  8
1
  6
CONTINUOUS
 62
   150
 48
0.75
100
AcDbVertex
100
AcDb2dVertex
 10
-28.166659
 20
162.812635
 30
0.0
 40
0.0
 41
0.0
  0
SEQEND
  5
C4
100
AcDbEntity
  8
0
  0
POLYLINE
  5
C5
100
AcDbEntity
  8
1
  6
CONTINUOUS
 62
   150
 48
0.75
100
AcDb2dPolyline
 66
     1
 10
0.0
 20
0.0
 30
0.0
 70
   128
  0
VERTEX
  5
C6
100
AcDbEntity
  8
1
  6
CONTINUOUS
 62
   150
 48
0.75
100
AcDbVertex
100
AcDb2dVertex
 10
-53.166659
 20
194.912635
 30
0.0
 40
0.0
 41
0.0
  0
VERTEX
  5
C7
100
AcDbEntity
  8
1
  6
CONTINUOUS
 62
   150
 48
0.75
100
AcDbVertex
100
AcDb2dVertex
 10
-53.166659
 20
164.052635
 30
0.0
 40
0.0
 41
0.0
  0
SEQEND
  5
C8
100
AcDbEntity
  8
0
  0
POLYLINE
  5
C9
100
AcDbEntity
  8
1
  6
CONTINUOUS
 62
   150
 48
0.75
100
AcDb2dPolyline
 66
     1
 10
0.0
 20
0.0
 30
0.0
 70
   128
  0
VERTEX
  5
CA
100
AcDbEntity
  8
1
  6
CONTINUOUS
 62
   150
 48
0.75
100
AcDbVertex
100
AcDb2dVertex
 10
-78.166659
 20
194.702635
 30
0.0
 40
0.0
 41
0.0
  0
VERTEX
  5
CB
100
AcDbEntity
  8
1
  6
CONTINUOUS
 62
   150
 48
0.75
100
AcDbVertex
100
AcDb2dVertex
 10
-78.166659
 20
165.132635
 30
0.0
 40
0.0
 41
0.0
  0
SEQEND
  5
CC
100
AcDbEntity
  8
0
  0
POLYLINE
  5
CD
100
AcDbEntity
  8
1
  6
CONTINUOUS
 62
   150
 48
0.75
100
AcDb2dPolyline
 66
     1
 10
0.0
 20
0.0
 30
0.0
 70
   128
  0
VERTEX
  5
CE
100
AcDbEntity
  8
1
  6
CONTINUOUS
 62
   150
 48
0.75
100
AcDbVertex
100
AcDb2dVertex
 10
-103.166659
 20
194.422635
 30
0.0
 40
0.0
 41
0.0
  0
VERTEX
  5
CF
100
AcDbEntity
  8
1
  6
CONTINUOUS
 62
   150
 48
0.75
100
AcDbVertex
100
AcDb2dVertex
 10
-103.166659
 20
166.742635
 30
0.0
 40
0.0
 41
0.0
  0
SEQEND
  5
D0
100
AcDbEntity
  8
0
  0
POLYLINE
  5
D1
100
AcDbEntity
  8
1
  6
CONTINUOUS
 62
   150
 48
0.75
100
AcDb2dPolyline
 66
     1
 10
0.0
 20
0.0
 30
0.0
 70
   128
  0
VERTEX
  5
D2
100
AcDbEntity
  8
1
  6
CONTINUOUS
 62
   150
 48
0.75
100
AcDbVertex
100
AcDb2dVertex
 10
173.233341
 20
199.020635
 30
0.0
 40
0.0
 41
0.0
  0
VERTEX
  5
D3
100
AcDbEntity
  8
1
  6
CONTINUOUS
 62
   150
 48
0.75
100
AcDbVertex
100
AcDb2dVertex
 10
146.832341
 20
198.090635
 30
0.0
 40
0.0
 41
0.0
  0
VERTEX
  5
D4
100
AcDbEntity
  8
1
  6
CONTINUOUS
 62
   150
 48
0.75
100
AcDbVertex
100
AcDb2dVertex
 10
134.333341
 20
197.725635
 30
0.0
 40
0.0
 41
0.0
  0
VERTEX
  5
D5
100
AcDbEntity
  8
1
  6
CONTINUOUS
 62
   150
 48
0.75
100
AcDbVertex
100
AcDb2dVertex
 10
121.833341
 20
197.387635
 30
0.0
 40
0.0
 41
0.0
  0
VERTEX
  5
D6
100
AcDbEntity
  8
1
  6
CONTINUOUS
 62
   150
 48
0.75
100
AcDbVertex
100
AcDb2dVertex
 10
96.833341
 20
196.742635
 30
0.0
 40
0.0
 41
0.0
  0
VERTEX
  5
D7
100
AcDbEntity
  8
1
  6
CONTINUOUS
 62
   150
 48
0.75
100
AcDbVertex
100
AcDb2dVertex
 10
71.833341
 20
196.352635
 30
0.0
 40
0.0
 41
0.0
  0
VERTEX
  5
D8
100
AcDbEntity
  8
1
  6
CONTINUOUS
 62
   150
 48
0.75
100
AcDbVertex
100
AcDb2dVertex
 10
46.833341
 20
196.022635
 30
0.0
 40
0.0
 41
0.0
  0
VERTEX
  5
D9
100
AcDbEntity
  8
1
  6
CONTINUOUS
 62
   150
 48
0.75
100
AcDbVertex
100
AcDb2dVertex
 10
21.833341
 20
195.726635
 30
0.0
 40
0.0
 41
0.0
  0
VERTEX
  5
DA
100
AcDbEntity
  8
1
  6
CONTINUOUS
 62
   150
 48
0.75
100
AcDbVertex
100
AcDb2dVertex
 10
-3.166659
 20
195.332635
 30
0.0
 40
0.0
 41
0.0
  0
VERTEX
  5
DB
100
AcDbEntity
  8
1
  6
CONTINUOUS
 62
   150
 48
0.75
100
AcDbVertex
100
AcDb2dVertex
 10
-28.166659
 20
195.162635
 30
0.0
 40
0.0
 41
0.0
  0
VERTEX
  5
DC
100
AcDbEntity
  8
1
  6
CONTINUOUS
 62
   150
 48
0.75
100
AcDbVertex
100
AcDb2dVertex
 10
-53.166659
 20
194.912635
 30
0.0
 40
0.0
 41
0.0
  0
VERTEX
  5
DD
100
AcDbEntity
  8
1
  6
CONTINUOUS
 62
   150
 48
0.75
100
AcDbVertex
100
AcDb2dVertex
 10
-78.166659
 20
194.702635
 30
0.0
 40
0.0
 41
0.0
  0
VERTEX
  5
DE
100
AcDbEntity
  8
1
  6
CONTINUOUS
 62
   150
 48
0.75
100
AcDbVertex
100
AcDb2dVertex
 10
-103.166659
 20
194.422635
 30
0.0
 40
0.0
 41
0.0
  0
SEQEND
  5
DF
100
AcDbEntity
  8
0
  0
POLYLINE
  5
E0
100
AcDbEntity
  8
1
  6
CONTINUOUS
 62
   150
 48
0.75
100
AcDb2dPolyline
 66
     1
 10
0.0
 20
0.0
 30
0.0
 70
   128
  0
VERTEX
  5
E1
100
AcDbEntity
  8
1
  6
CONTINUOUS
 62
   150
 48
0.75
100
AcDbVertex
100
AcDb2dVertex
 10
155.833341
 20
180.862635
 30
0.0
 40
0.0
 41
0.0
  0
VERTEX
  5
E2
100
AcDbEntity
  8
1
  6
CONTINUOUS
 62
   150
 48
0.75
100
AcDbVertex
100
AcDb2dVertex
 10
146.832341
 20
180.262635
 30
0.0
 40
0.0
 41
0.0
  0
VERTEX
  5
E3
100
AcDbEntity
  8
1
  6
CONTINUOUS
 62
   150
 48
0.75
100
AcDbVertex
100
AcDb2dVertex
 10
134.333341
 20
179.142635
 30
0.0
 40
0.0
 41
0.0
  0
VERTEX
  5
E4
100
AcDbEntity
  8
1
  6
CONTINUOUS
 62
   150
 48
0.75
100
AcDbVertex
100
AcDb2dVertex
 10
121.833341
 20
177.782635
 30
0.0
 40
0.0
 41
0.0
  0
VERTEX
  5
E5
100
AcDbEntity
  8
1
  6
CONTINUOUS
 62
   150
 48
0.75
100
AcDbVertex
100
AcDb2dVertex
 10
96.833341
 20
174.892635
 30
0.0
 40
0.0
 41
0.0
  0
VERTEX
  5
E6
100
AcDbEntity
  8
1
  6
CONTINUOUS
 62
   150
 48
0.75
100
AcDbVertex
100
AcDb2dVertex
 10
71.833341
 20
172.862635
 30
0.0
 40
0.0
 41
0.0
  0
VERTEX
  5
E7
100
AcDbEntity
  8
1
  6
CONTINUOUS
 62
   150
 48
0.75
100
AcDbVertex
100
AcDb2dVertex
 10
46.833341
 20
171.742635
 30
0.0
 40
0.0
 41
0.0
  0
VERTEX
  5
E8
100
AcDbEntity
  8
1
  6
CONTINUOUS
 62
   150
 48
0.75
100
AcDbVertex
100
AcDb2dVertex
 10
21.833341
 20
170.932635
 30
0.0
 40
0.0
 41
0.0
  0
VERTEX
  5
E9
100
AcDbEntity
  8
1
  6
CONTINUOUS
 62
   150
 48
0.75
100
AcDbVertex
100
AcDb2dVertex
 10
-3.166659
 20
170.442635
 30
0.0
 40
0.0
 41
0.0
  0
VERTEX
  5
EA
100
AcDbEntity
  8
1
  6
CONTINUOUS
 62
   150
 48
0.75
100
AcDbVertex
100
AcDb2dVertex
 10
-28.166659
 20
170.092635
 30
0.0
 40
0.0
 41
0.0
  0
VERTEX
  5
EB
100
AcDbEntity
  8
1
  6
CONTINUOUS
 62
   150
 48
0.75
100
AcDbVertex
100
AcDb2dVertex
 10
-53.166659
 20
169.872635
 30
0.0
 40
0.0
 41
0.0
  0
VERTEX
  5
EC
100
AcDbEntity
  8
1
  6
CONTINUOUS
 62
   150
 48
0.75
100
AcDbVertex
100
AcDb2dVertex
 10
-78.166659
 20
169.632635
 30
0.0
 40
0.0
 41
0.0
  0
VERTEX
  5
ED
100
AcDbEntity
  8
1
  6
CONTINUOUS
 62
   150
 48
0.75
100
AcDbVertex
100
AcDb2dVertex
 10
-103.166659
 20
169.372635
 30
0.0
 40
0.0
 41
0.0
  0
SEQEND
  5
EE
100
AcDbEntity
  8
0
  0
POLYLINE
  5
EF
100
AcDbEntity
  8
1
  6
CONTINUOUS
 62
   150
 48
0.75
100
AcDb2dPolyline
 66
     1
 10
0.0
 20
0.0
 30
0.0
 70
   128
  0
VERTEX
  5
F0
100
AcDbEntity
  8
1
  6
CONTINUOUS
 62
   150
 48
0.75
100
AcDbVertex
100
AcDb2dVertex
 10
155.833341
 20
180.862635
 30
0.0
 40
0.0
 41
0.0
  0
VERTEX
  5
F1
100
AcDbEntity
  8
1
  6
CONTINUOUS
 62
   150
 48
0.75
100
AcDbVertex
100
AcDb2dVertex
 10
146.832341
 20
180.162635
 30
0.0
 40
0.0
 41
0.0
  0
VERTEX
  5
F2
100
AcDbEntity
  8
1
  6
CONTINUOUS
 62
   150
 48
0.75
100
AcDbVertex
100
AcDb2dVertex
 10
134.333341
 20
179.002635
 30
0.0
 40
0.0
 41
0.0
  0
VERTEX
  5
F3
100
AcDbEntity
  8
1
  6
CONTINUOUS
 62
   150
 48
0.75
100
AcDbVertex
100
AcDb2dVertex
 10
121.833341
 20
177.712635
 30
0.0
 40
0.0
 41
0.0
  0
VERTEX
  5
F4
100
AcDbEntity
  8
1
  6
CONTINUOUS
 62
   150
 48
0.75
100
AcDbVertex
100
AcDb2dVertex
 10
96.833341
 20
174.802635
 30
0.0
 40
0.0
 41
0.0
  0
VERTEX
  5
F5
100
AcDbEntity
  8
1
  6
CONTINUOUS
 62
   150
 48
0.75
100
AcDbVertex
100
AcDb2dVertex
 10
71.833341
 20
172.752635
 30
0.0
 40
0.0
 41
0.0
  0
VERTEX
  5
F6
100
AcDbEntity
  8
1
  6
CONTINUOUS
 62
   150
 48
0.75
100
AcDbVertex
100
AcDb2dVertex
 10
46.833341
 20
171.692635
 30
0.0
 40
0.0
 41
0.0
  0
VERTEX
  5
F7
100
AcDbEntity
  8
1
  6
CONTINUOUS
 62
   150
 48
0.75
100
AcDbVertex
100
AcDb2dVertex
 10
21.833341
 20
170.932635
 30
0.0
 40
0.0
 41
0.0
  0
VERTEX
  5
F8
100
AcDbEntity
  8
1
  6
CONTINUOUS
 62
   150
 48
0.75
100
AcDbVertex
100
AcDb2dVertex
 10
-3.166659
 20
170.442635
 30
0.0
 40
0.0
 41
0.0
  0
VERTEX
  5
F9
100
AcDbEntity
  8
1
  6
CONTINUOUS
 62
   150
 48
0.75
100
AcDbVertex
100
AcDb2dVertex
 10
-28.166659
 20
170.092635
 30
0.0
 40
0.0
 41
0.0
  0
VERTEX
  5
FA
100
AcDbEntity
  8
1
  6
CONTINUOUS
 62
   150
 48
0.75
100
AcDbVertex
100
AcDb2dVertex
 10
-53.166659
 20
169.872635
 30
0.0
 40
0.0
 41
0.0
  0
VERTEX
  5
FB
100
AcDbEntity
  8
1
  6
CONTINUOUS
 62
   150
 48
0.75
100
AcDbVertex
100
AcDb2dVertex
 10
-78.166659
 20
169.632635
 30
0.0
 40
0.0
 41
0.0
  0
VERTEX
  5
FC
100
AcDbEntity
  8
1
  6
CONTINUOUS
 62
   150
 48
0.75
100
AcDbVertex
100
AcDb2dVertex
 10
-103.166659
 20
169.372635
 30
0.0
 40
0.0
 41
0.0
  0
SEQEND
  5
FD
100
AcDbEntity
  8
0
  0
POLYLINE
  5
FE
100
AcDbEntity
  8
1
  6
CONTINUOUS
 62
   150
 48
0.75
100
AcDb2dPolyline
 66
     1
 10
0.0
 20
0.0
 30
0.0
 70
   128
  0
VERTEX
  5
FF
100
AcDbEntity
  8
1
  6
CONTINUOUS
 62
   150
 48
0.75
100
AcDbVertex
100
AcDb2dVertex
 10
146.833341
 20
171.742635
 30
0.0
 40
0.0
 41
0.0
  0
VERTEX
  5
100
100
AcDbEntity
  8
1
  6
CONTINUOUS
 62
   150
 48
0.75
100
AcDbVertex
100
AcDb2dVertex
 10
146.832341
 20
171.742635
 30
0.0
 40
0.0
 41
0.0
  0
VERTEX
  5
101
100
AcDbEntity
  8
1
  6
CONTINUOUS
 62
   150
 48
0.75
100
AcDbVertex
100
AcDb2dVertex
 10
134.333341
 20
164.782635
 30
0.0
 40
0.0
 41
0.0
  0
VERTEX
  5
102
100
AcDbEntity
  8
1
  6
CONTINUOUS
 62
   150
 48
0.75
100
AcDbVertex
100
AcDb2dVertex
 10
121.833341
 20
161.252635
 30
0.0
 40
0.0
 41
0.0
  0
VERTEX
  5
103
100
AcDbEntity
  8
1
  6
CONTINUOUS
 62
   150
 48
0.75
100
AcDbVertex
100
AcDb2dVertex
 10
96.833341
 20
159.242635
 30
0.0
 40
0.0
 41
0.0
  0
VERTEX
  5
104
100
AcDbEntity
  8
1
  6
CONTINUOUS
 62
   150
 48
0.75
100
AcDbVertex
100
AcDb2dVertex
 10
71.833341
 20
159.592635
 30
0.0
 40
0.0
 41
0.0
  0
VERTEX
  5
105
100
AcDbEntity
  8
1
  6
CONTINUOUS
 62
   150
 48
0.75
100
AcDbVertex
100
AcDb2dVertex
 10
46.833341
 20
160.192635
 30
0.0
 40
0.0
 41
0.0
  0
VERTEX
  5
106
100
AcDbEntity
  8
1
  6
CONTINUOUS
 62
   150
 48
0.75
100
AcDbVertex
100
AcDb2dVertex
 10
21.833341
 20
161.082635
 30
0.0
 40
0.0
 41
0.0
  0
VERTEX
  5
107
100
AcDbEntity
  8
1
  6
CONTINUOUS
 62
   150
 48
0.75
100
AcDbVertex
100
AcDb2dVertex
 10
-3.166659
 20
161.862635
 30
0.0
 40
0.0
 41
0.0
  0
VERTEX
  5
108
100
AcDbEntity
  8
1
  6
CONTINUOUS
 62
   150
 48
0.75
100
AcDbVertex
100
AcDb2dVertex
 10
-28.166659
 20
162.812635
 30
0.0
 40
0.0
 41
0.0
  0
VERTEX
  5
109
100
AcDbEntity
  8
1
  6
CONTINUOUS
 62
   150
 48
0.75
100
AcDbVertex
100
AcDb2dVertex
 10
-53.166659
 20
164.052635
 30
0.0
 40
0.0
 41
0.0
  0
VERTEX
  5
10A
100
AcDbEntity
  8
1
  6
CONTINUOUS
 62
   150
 48
0.75
100
AcDbVertex
100
AcDb2dVertex
 10
-78.166659
 20
165.132635
 30
0.0
 40
0.0
 41
0.0
  0
VERTEX
  5
10B
100
AcDbEntity
  8
1
  6
CONTINUOUS
 62
   150
 48
0.75
100
AcDbVertex
100
AcDb2dVertex
 10
-103.166659
 20
166.742635
 30
0.0
 40
0.0
 41
0.0
  0
SEQEND
  5
10C
100
AcDbEntity
  8
0
  0
POLYLINE
  5
10D
100
AcDbEntity
  8
1
  6
CONTINUOUS
 62
   150
 48
0.75
100
AcDb2dPolyline
 66
     1
 10
0.0
 20
0.0
 30
0.0
 70
   128
  0
VERTEX
  5
10E
100
AcDbEntity
  8
1
  6
CONTINUOUS
 62
   150
 48
0.75
100
AcDbVertex
100
AcDb2dVertex
 10
173.233341
 20
199.020635
 30
0.0
 40
0.0
 41
0.0
  0
VERTEX
  5
10F
100
AcDbEntity
  8
1
  6
CONTINUOUS
 62
   150
 48
0.75
100
AcDbVertex
100
AcDb2dVertex
 10
155.833341
 20
180.862635
 30
0.0
 40
0.0
 41
0.0
  0
VERTEX
  5
110
100
AcDbEntity
  8
1
  6
CONTINUOUS
 62
   150
 48
0.75
100
AcDbVertex
100
AcDb2dVertex
 10
146.833341
 20
171.742635
 30
0.0
 40
0.0
 41
0.0
  0
SEQEND
  5
111
100
AcDbEntity
  8
0
  0
POLYLINE
  5
112
100
AcDbEntity
  8
1
  6
CONTINUOUS
 62
   150
 48
0.75
100
AcDb2dPolyline
 66
     1
 10
0.0
 20
0.0
 30
0.0
 70
   128
  0
VERTEX
  5
113
100
AcDbEntity
  8
1
  6
CONTINUOUS
 62
   150
 48
0.75
100
AcDbVertex
100
AcDb2dVertex
 10
-194.228231
 20
179.377267
 30
0.0
 40
0.0
 41
0.0
  0
VERTEX
  5
114
100
AcDbEntity
  8
1
  6
CONTINUOUS
 62
   150
 48
0.75
100
AcDbVertex
100
AcDb2dVertex
 10
-156.388231
 20
177.517267
 30
0.0
 40
0.0
 41
0.0
  0
VERTEX
  5
115
100
AcDbEntity
  8
1
  6
CONTINUOUS
 62
   150
 48
0.75
100
AcDbVertex
100
AcDb2dVertex
 10
-143.510231
 20
176.787267
 30
0.0
 40
0.0
 41
0.0
  0
VERTEX
  5
116
100
AcDbEntity
  8
1
  6
CONTINUOUS
 62
   150
 48
0.75
100
AcDbVertex
100
AcDb2dVertex
 10
-136.828231
 20
176.111267
 30
0.0
 40
0.0
 41
0.0
  0
VERTEX
  5
117
100
AcDbEntity
  8
1
  6
CONTINUOUS
 62
   150
 48
0.75
100
AcDbVertex
100
AcDb2dVertex
 10
-130.170231
 20
174.821267
 30
0.0
 40
0.0
 41
0.0
  0
VERTEX
  5
118
100
AcDbEntity
  8
1
  6
CONTINUOUS
 62
   150
 48
0.75
100
AcDbVertex
100
AcDb2dVertex
 10
-127.310231
 20
174.041267
 30
0.0
 40
0.0
 41
0.0
  0
VERTEX
  5
119
100
AcDbEntity
  8
1
  6
CONTINUOUS
 62
   150
 48
0.75
100
AcDbVertex
100
AcDb2dVertex
 10
-125.488231
 20
173.381267
 30
0.0
 40
0.0
 41
0.0
  0
VERTEX
  5
11A
100
AcDbEntity
  8
1
  6
CONTINUOUS
 62
   150
 48
0.75
100
AcDbVertex
100
AcDb2dVertex
 10
-125.268231
 20
172.789267
 30
0.0
 40
0.0
 41
0.0
  0
VERTEX
  5
11B
100
AcDbEntity
  8
1
  6
CONTINUOUS
 62
   150
 48
0.75
100
AcDbVertex
100
AcDb2dVertex
 10
-125.668231
 20
172.001267
 30
0.0
 40
0.0
 41
0.0
  0
VERTEX
  5
11C
100
AcDbEntity
  8
1
  6
CONTINUOUS
 62
   150
 48
0.75
100
AcDbVertex
100
AcDb2dVertex
 10
-127.368231
 20
171.661267
 30
0.0
 40
0.0
 41
0.0
  0
VERTEX
  5
11D
100
AcDbEntity
  8
1
  6
CONTINUOUS
 62
   150
 48
0.75
100
AcDbVertex
100
AcDb2dVertex
 10
-129.468231
 20
171.161267
 30
0.0
 40
0.0
 41
0.0
  0
VERTEX
  5
11E
100
AcDbEntity
  8
1
  6
CONTINUOUS
 62
   150
 48
0.75
100
AcDbVertex
100
AcDb2dVertex
 10
-131.530231
 20
170.741267
 30
0.0
 40
0.0
 41
0.0
  0
VERTEX
  5
11F
100
AcDbEntity
  8
1
  6
CONTINUOUS
 62
   150
 48
0.75
100
AcDbVertex
100
AcDb2dVertex
 10
-133.710231
 20
170.181267
 30
0.0
 40
0.0
 41
0.0
  0
SEQEND
  5
120
100
AcDbEntity
  8
0
  0
POLYLINE
  5
121
100
AcDbEntity
  8
1
  6
CONTINUOUS
 62
   150
 48
0.75
100
AcDb2dPolyline
 66
     1
 10
0.0
 20
0.0
 30
0.0
 70
   128
  0
VERTEX
  5
122
100
AcDbEntity
  8
1
  6
CONTINUOUS
 62
   150
 48
0.75
100
AcDbVertex
100
AcDb2dVertex
 10
-194.228231
 20
179.377267
 30
0.0
 40
0.0
 41
0.0
  0
VERTEX
  5
123
100
AcDbEntity
  8
1
  6
CONTINUOUS
 62
   150
 48
0.75
100
AcDbVertex
100
AcDb2dVertex
 10
-232.068231
 20
177.517267
 30
0.0
 40
0.0
 41
0.0
  0
VERTEX
  5
124
100
AcDbEntity
  8
1
  6
CONTINUOUS
 62
   150
 48
0.75
100
AcDbVertex
100
AcDb2dVertex
 10
-244.946231
 20
176.787267
 30
0.0
 40
0.0
 41
0.0
  0
VERTEX
  5
125
100
AcDbEntity
  8
1
  6
CONTINUOUS
 62
   150
 48
0.75
100
AcDbVertex
100
AcDb2dVertex
 10
-251.628231
 20
176.111267
 30
0.0
 40
0.0
 41
0.0
  0
VERTEX
  5
126
100
AcDbEntity
  8
1
  6
CONTINUOUS
 62
   150
 48
0.75
100
AcDbVertex
100
AcDb2dVertex
 10
-258.286231
 20
174.821267
 30
0.0
 40
0.0
 41
0.0
  0
VERTEX
  5
127
100
AcDbEntity
  8
1
  6
CONTINUOUS
 62
   150
 48
0.75
100
AcDbVertex
100
AcDb2dVertex
 10
-261.146231
 20
174.041267
 30
0.0
 40
0.0
 41
0.0
  0
VERTEX
  5
128
100
AcDbEntity
  8
1
  6
CONTINUOUS
 62
   150
 48
0.75
100
AcDbVertex
100
AcDb2dVertex
 10
-262.968231
 20
173.381267
 30
0.0
 40
0.0
 41
0.0
  0
VERTEX
  5
129
100
AcDbEntity
  8
1
  6
CONTINUOUS
 62
   150
 48
0.75
100
AcDbVertex
100
AcDb2dVertex
 10
-263.188231
 20
172.789267
 30
0.0
 40
0.0
 41
0.0
  0
VERTEX
  5
12A
100
AcDbEntity
  8
1
  6
CONTINUOUS
 62
   150
 48
0.75
100
AcDbVertex
100
AcDb2dVertex
 10
-262.788231
 20
172.001267
 30
0.0
 40
0.0
 41
0.0
  0
VERTEX
  5
12B
100
AcDbEntity
  8
1
  6
CONTINUOUS
 62
   150
 48
0.75
100
AcDbVertex
100
AcDb2dVertex
 10
-261.088231
 20
171.661267
 30
0.0
 40
0.0
 41
0.0
  0
VERTEX
  5
12C
100
AcDbEntity
  8
1
  6
CONTINUOUS
 62
   150
 48
0.75
100
AcDbVertex
100
AcDb2dVertex
 10
-258.988231
 20
171.161267
 30
0.0
 40
0.0
 41
0.0
  0
VERTEX
  5
12D
100
AcDbEntity
  8
1
  6
CONTINUOUS
 62
   150
 48
0.75
100
AcDbVertex
100
AcDb2dVertex
 10
-256.926231
 20
170.741267
 30
0.0
 40
0.0
 41
0.0
  0
VERTEX
  5
12E
100
AcDbEntity
  8
1
  6
CONTINUOUS
 62
   150
 48
0.75
100
AcDbVertex
100
AcDb2dVertex
 10
-254.746231
 20
170.181267
 30
0.0
 40
0.0
 41
0.0
  0
SEQEND
  5
12F
100
AcDbEntity
  8
0
  0
POLYLINE
  5
130
100
AcDbEntity
  8
1
  6
CONTINUOUS
 62
   150
 48
0.75
100
AcDb2dPolyline
 66
     1
 10
0.0
 20
0.0
 30
0.0
 70
   128
  0
VERTEX
  5
131
100
AcDbEntity
  8
1
  6
CONTINUOUS
 62
   150
 48
0.75
100
AcDbVertex
100
AcDb2dVertex
 10
-194.228231
 20
143.061267
 30
0.0
 40
0.0
 41
0.0
  0
VERTEX
  5
132
100
AcDbEntity
  8
1
  6
CONTINUOUS
 62
   150
 48
0.75
100
AcDbVertex
100
AcDb2dVertex
 10
-180.148231
 20
141.861267
 30
0.0
 40
0.0
 41
0.0
  0
VERTEX
  5
133
100
AcDbEntity
  8
1
  6
CONTINUOUS
 62
   150
 48
0.75
100
AcDbVertex
100
AcDb2dVertex
 10
-166.188231
 20
139.621267
 30
0.0
 40
0.0
 41
0.0
  0
VERTEX
  5
134
100
AcDbEntity
  8
1
  6
CONTINUOUS
 62
   150
 48
0.75
100
AcDbVertex
100
AcDb2dVertex
 10
-155.688231
 20
136.901267
 30
0.0
 40
0.0
 41
0.0
  0
VERTEX
  5
135
100
AcDbEntity
  8
1
  6
CONTINUOUS
 62
   150
 48
0.75
100
AcDbVertex
100
AcDb2dVertex
 10
-143.888231
 20
131.121267
 30
0.0
 40
0.0
 41
0.0
  0
VERTEX
  5
136
100
AcDbEntity
  8
1
  6
CONTINUOUS
 62
   150
 48
0.75
100
AcDbVertex
100
AcDb2dVertex
 10
-138.428231
 20
127.061267
 30
0.0
 40
0.0
 41
0.0
  0
VERTEX
  5
137
100
AcDbEntity
  8
1
  6
CONTINUOUS
 62
   150
 48
0.75
100
AcDbVertex
100
AcDb2dVertex
 10
-136.088231
 20
124.821267
 30
0.0
 40
0.0
 41
0.0
  0
VERTEX
  5
138
100
AcDbEntity
  8
1
  6
CONTINUOUS
 62
   150
 48
0.75
100
AcDbVertex
100
AcDb2dVertex
 10
-135.308231
 20
123.201267
 30
0.0
 40
0.0
 41
0.0
  0
VERTEX
  5
139
100
AcDbEntity
  8
1
  6
CONTINUOUS
 62
   150
 48
0.75
100
AcDbVertex
100
AcDb2dVertex
 10
-135.548231
 20
122.221267
 30
0.0
 40
0.0
 41
0.0
  0
VERTEX
  5
13A
100
AcDbEntity
  8
1
  6
CONTINUOUS
 62
   150
 48
0.75
100
AcDbVertex
100
AcDb2dVertex
 10
-136.968231
 20
121.521267
 30
0.0
 40
0.0
 41
0.0
  0
VERTEX
  5
13B
100
AcDbEntity
  8
1
  6
CONTINUOUS
 62
   150
 48
0.75
100
AcDbVertex
100
AcDb2dVertex
 10
-138.668231
 20
121.081267
 30
0.0
 40
0.0
 41
0.0
  0
VERTEX
  5
13C
100
AcDbEntity
  8
1
  6
CONTINUOUS
 62
   150
 48
0.75
100
AcDbVertex
100
AcDb2dVertex
 10
-140.768231
 20
120.601267
 30
0.0
 40
0.0
 41
0.0
  0
VERTEX
  5
13D
100
AcDbEntity
  8
1
  6
CONTINUOUS
 62
   150
 48
0.75
100
AcDbVertex
100
AcDb2dVertex
 10
-142.670231
 20
120.081267
 30
0.0
 40
0.0
 41
0.0
  0
SEQEND
  5
13E
100
AcDbEntity
  8
0
  0
POLYLINE
  5
13F
100
AcDbEntity
  8
1
  6
CONTINUOUS
 62
   150
 48
0.75
100
AcDb2dPolyline
 66
     1
 10
0.0
 20
0.0
 30
0.0
 70
   128
  0
VERTEX
  5
140
100
AcDbEntity
  8
1
  6
CONTINUOUS
 62
   150
 48
0.75
100
AcDbVertex
100
AcDb2dVertex
 10
-194.228231
 20
143.061267
 30
0.0
 40
0.0
 41
0.0
  0
VERTEX
  5
141
100
AcDbEntity
  8
1
  6
CONTINUOUS
 62
   150
 48
0.75
100
AcDbVertex
100
AcDb2dVertex
 10
-208.308231
 20
141.861267
 30
0.0
 40
0.0
 41
0.0
  0
VERTEX
  5
142
100
AcDbEntity
  8
1
  6
CONTINUOUS
 62
   150
 48
0.75
100
AcDbVertex
100
AcDb2dVertex
 10
-222.268231
 20
139.621267
 30
0.0
 40
0.0
 41
0.0
  0
VERTEX
  5
143
100
AcDbEntity
  8
1
  6
CONTINUOUS
 62
   150
 48
0.75
100
AcDbVertex
100
AcDb2dVertex
 10
-232.768231
 20
136.901267
 30
0.0
 40
0.0
 41
0.0
  0
VERTEX
  5
144
100
AcDbEntity
  8
1
  6
CONTINUOUS
 62
   150
 48
0.75
100
AcDbVertex
100
AcDb2dVertex
 10
-244.568231
 20
131.121267
 30
0.0
 40
0.0
 41
0.0
  0
VERTEX
  5
145
100
AcDbEntity
  8
1
  6
CONTINUOUS
 62
   150
 48
0.75
100
AcDbVertex
100
AcDb2dVertex
 10
-250.028231
 20
127.061267
 30
0.0
 40
0.0
 41
0.0
  0
VERTEX
  5
146
100
AcDbEntity
  8
1
  6
CONTINUOUS
 62
   150
 48
0.75
100
AcDbVertex
100
AcDb2dVertex
 10
-252.368231
 20
124.821267
 30
0.0
 40
0.0
 41
0.0
  0
VERTEX
  5
147
100
AcDbEntity
  8
1
  6
CONTINUOUS
 62
   150
 48
0.75
100
AcDbVertex
100
AcDb2dVertex
 10
-253.148231
 20
123.201267
 30
0.0
 40
0.0
 41
0.0
  0
VERTEX
  5
148
100
AcDbEntity
  8
1
  6
CONTINUOUS
 62
   150
 48
0.75
100
AcDbVertex
100
AcDb2dVertex
 10
-252.908231
 20
122.221267
 30
0.0
 40
0.0
 41
0.0
  0
VERTEX
  5
149
100
AcDbEntity
  8
1
  6
CONTINUOUS
 62
   150
 48
0.75
100
AcDbVertex
100
AcDb2dVertex
 10
-251.488231
 20
121.521267
 30
0.0
 40
0.0
 41
0.0
  0
VERTEX
  5
14A
100
AcDbEntity
  8
1
  6
CONTINUOUS
 62
   150
 48
0.75
100
AcDbVertex
100
AcDb2dVertex
 10
-249.788231
 20
121.081267
 30
0.0
 40
0.0
 41
0.0
  0
VERTEX
  5
14B
100
AcDbEntity
  8
1
  6
CONTINUOUS
 62
   150
 48
0.75
100
AcDbVertex
100
AcDb2dVertex
 10
-247.688231
 20
120.601267
 30
0.0
 40
0.0
 41
0.0
  0
VERTEX
  5
14C
100
AcDbEntity
  8
1
  6
CONTINUOUS
 62
   150
 48
0.75
100
AcDbVertex
100
AcDb2dVertex
 10
-245.786231
 20
120.081267
 30
0.0
 40
0.0
 41
0.0
  0
SEQEND
  5
14D
100
AcDbEntity
  8
0
  0
POLYLINE
  5
14E
100
AcDbEntity
  8
1
  6
CONTINUOUS
 62
   150
 48
0.75
100
AcDb2dPolyline
 66
     1
 10
0.0
 20
0.0
 30
0.0
 70
   128
  0
VERTEX
  5
14F
100
AcDbEntity
  8
1
  6
CONTINUOUS
 62
   150
 48
0.75
100
AcDbVertex
100
AcDb2dVertex
 10
-194.228231
 20
143.061267
 30
0.0
 40
0.0
 41
0.0
  0
VERTEX
  5
150
100
AcDbEntity
  8
1
  6
CONTINUOUS
 62
   150
 48
0.75
100
AcDbVertex
100
AcDb2dVertex
 10
-183.188231
 20
141.661267
 30
0.0
 40
0.0
 41
0.0
  0
VERTEX
  5
151
100
AcDbEntity
  8
1
  6
CONTINUOUS
 62
   150
 48
0.75
100
AcDbVertex
100
AcDb2dVertex
 10
-171.048231
 20
139.341267
 30
0.0
 40
0.0
 41
0.0
  0
VERTEX
  5
152
100
AcDbEntity
  8
1
  6
CONTINUOUS
 62
   150
 48
0.75
100
AcDbVertex
100
AcDb2dVertex
 10
-160.808231
 20
136.761267
 30
0.0
 40
0.0
 41
0.0
  0
VERTEX
  5
153
100
AcDbEntity
  8
1
  6
CONTINUOUS
 62
   150
 48
0.75
100
AcDbVertex
100
AcDb2dVertex
 10
-148.228231
 20
130.941267
 30
0.0
 40
0.0
 41
0.0
  0
VERTEX
  5
154
100
AcDbEntity
  8
1
  6
CONTINUOUS
 62
   150
 48
0.75
100
AcDbVertex
100
AcDb2dVertex
 10
-142.248231
 20
126.841267
 30
0.0
 40
0.0
 41
0.0
  0
VERTEX
  5
155
100
AcDbEntity
  8
1
  6
CONTINUOUS
 62
   150
 48
0.75
100
AcDbVertex
100
AcDb2dVertex
 10
-139.088231
 20
124.721267
 30
0.0
 40
0.0
 41
0.0
  0
VERTEX
  5
156
100
AcDbEntity
  8
1
  6
CONTINUOUS
 62
   150
 48
0.75
100
AcDbVertex
100
AcDb2dVertex
 10
-138.468231
 20
123.201267
 30
0.0
 40
0.0
 41
0.0
  0
VERTEX
  5
157
100
AcDbEntity
  8
1
  6
CONTINUOUS
 62
   150
 48
0.75
100
AcDbVertex
100
AcDb2dVertex
 10
-139.148231
 20
122.221267
 30
0.0
 40
0.0
 41
0.0
  0
VERTEX
  5
158
100
AcDbEntity
  8
1
  6
CONTINUOUS
 62
   150
 48
0.75
100
AcDbVertex
100
AcDb2dVertex
 10
-140.568231
 20
121.521267
 30
0.0
 40
0.0
 41
0.0
  0
VERTEX
  5
159
100
AcDbEntity
  8
1
  6
CONTINUOUS
 62
   150
 48
0.75
100
AcDbVertex
100
AcDb2dVertex
 10
-142.268231
 20
121.081267
 30
0.0
 40
0.0
 41
0.0
  0
VERTEX
  5
15A
100
AcDbEntity
  8
1
  6
CONTINUOUS
 62
   150
 48
0.75
100
AcDbVertex
100
AcDb2dVertex
 10
-143.970231
 20
120.601267
 30
0.0
 40
0.0
 41
0.0
  0
VERTEX
  5
15B
100
AcDbEntity
  8
1
  6
CONTINUOUS
 62
   150
 48
0.75
100
AcDbVertex
100
AcDb2dVertex
 10
-146.270231
 20
120.081267
 30
0.0
 40
0.0
 41
0.0
  0
SEQEND
  5
15C
100
AcDbEntity
  8
0
  0
POLYLINE
  5
15D
100
AcDbEntity
  8
1
  6
CONTINUOUS
 62
   150
 48
0.75
100
AcDb2dPolyline
 66
     1
 10
0.0
 20
0.0
 30
0.0
 70
   128
  0
VERTEX
  5
15E
100
AcDbEntity
  8
1
  6
CONTINUOUS
 62
   150
 48
0.75
100
AcDbVertex
100
AcDb2dVertex
 10
-194.228231
 20
143.061267
 30
0.0
 40
0.0
 41
0.0
  0
VERTEX
  5
15F
100
AcDbEntity
  8
1
  6
CONTINUOUS
 62
   150
 48
0.75
100
AcDbVertex
100
AcDb2dVertex
 10
-205.268231
 20
141.661267
 30
0.0
 40
0.0
 41
0.0
  0
VERTEX
  5
160
100
AcDbEntity
  8
1
  6
CONTINUOUS
 62
   150
 48
0.75
100
AcDbVertex
100
AcDb2dVertex
 10
-217.408231
 20
139.341267
 30
0.0
 40
0.0
 41
0.0
  0
VERTEX
  5
161
100
AcDbEntity
  8
1
  6
CONTINUOUS
 62
   150
 48
0.75
100
AcDbVertex
100
AcDb2dVertex
 10
-227.648231
 20
136.761267
 30
0.0
 40
0.0
 41
0.0
  0
VERTEX
  5
162
100
AcDbEntity
  8
1
  6
CONTINUOUS
 62
   150
 48
0.75
100
AcDbVertex
100
AcDb2dVertex
 10
-240.228231
 20
130.941267
 30
0.0
 40
0.0
 41
0.0
  0
VERTEX
  5
163
100
AcDbEntity
  8
1
  6
CONTINUOUS
 62
   150
 48
0.75
100
AcDbVertex
100
AcDb2dVertex
 10
-246.208231
 20
126.841267
 30
0.0
 40
0.0
 41
0.0
  0
VERTEX
  5
164
100
AcDbEntity
  8
1
  6
CONTINUOUS
 62
   150
 48
0.75
100
AcDbVertex
100
AcDb2dVertex
 10
-249.368231
 20
124.721267
 30
0.0
 40
0.0
 41
0.0
  0
VERTEX
  5
165
100
AcDbEntity
  8
1
  6
CONTINUOUS
 62
   150
 48
0.75
100
AcDbVertex
100
AcDb2dVertex
 10
-249.988231
 20
123.201267
 30
0.0
 40
0.0
 41
0.0
  0
VERTEX
  5
166
100
AcDbEntity
  8
1
  6
CONTINUOUS
 62
   150
 48
0.75
100
AcDbVertex
100
AcDb2dVertex
 10
-249.308231
 20
122.221267
 30
0.0
 40
0.0
 41
0.0
  0
VERTEX
  5
167
100
AcDbEntity
  8
1
  6
CONTINUOUS
 62
   150
 48
0.75
100
AcDbVertex
100
AcDb2dVertex
 10
-247.888231
 20
121.521267
 30
0.0
 40
0.0
 41
0.0
  0
VERTEX
  5
168
100
AcDbEntity
  8
1
  6
CONTINUOUS
 62
   150
 48
0.75
100
AcDbVertex
100
AcDb2dVertex
 10
-246.188231
 20
121.081267
 30
0.0
 40
0.0
 41
0.0
  0
VERTEX
  5
169
100
AcDbEntity
  8
1
  6
CONTINUOUS
 62
   150
 48
0.75
100
AcDbVertex
100
AcDb2dVertex
 10
-244.486231
 20
120.601267
 30
0.0
 40
0.0
 41
0.0
  0
VERTEX
  5
16A
100
AcDbEntity
  8
1
  6
CONTINUOUS
 62
   150
 48
0.75
100
AcDbVertex
100
AcDb2dVertex
 10
-242.186231
 20
120.081267
 30
0.0
 40
0.0
 41
0.0
  0
SEQEND
  5
16B
100
AcDbEntity
  8
0
  0
POLYLINE
  5
16C
100
AcDbEntity
  8
1
  6
CONTINUOUS
 62
   150
 48
0.75
100
AcDb2dPolyline
 66
     1
 10
0.0
 20
0.0
 30
0.0
 70
   128
  0
VERTEX
  5
16D
100
AcDbEntity
  8
1
  6
CONTINUOUS
 62
   150
 48
0.75
100
AcDbVertex
100
AcDb2dVertex
 10
-194.228231
 20
124.821267
 30
0.0
 40
0.0
 41
0.0
  0
VERTEX
  5
16E
100
AcDbEntity
  8
1
  6
CONTINUOUS
 62
   150
 48
0.75
100
AcDbVertex
100
AcDb2dVertex
 10
-194.228231
 20
110.901267
 30
0.0
 40
0.0
 41
0.0
  0
VERTEX
  5
16F
100
AcDbEntity
  8
1
  6
CONTINUOUS
 62
   150
 48
0.75
100
AcDbVertex
100
AcDb2dVertex
 10
-194.228231
 20
103.841267
 30
0.0
 40
0.0
 41
0.0
  0
VERTEX
  5
170
100
AcDbEntity
  8
1
  6
CONTINUOUS
 62
   150
 48
0.75
100
AcDbVertex
100
AcDb2dVertex
 10
-194.228231
 20
99.821267
 30
0.0
 40
0.0
 41
0.0
  0
VERTEX
  5
171
100
AcDbEntity
  8
1
  6
CONTINUOUS
 62
   150
 48
0.75
100
AcDbVertex
100
AcDb2dVertex
 10
-194.228231
 20
100.521267
 30
0.0
 40
0.0
 41
0.0
  0
VERTEX
  5
172
100
AcDbEntity
  8
1
  6
CONTINUOUS
 62
   150
 48
0.75
100
AcDbVertex
100
AcDb2dVertex
 10
-194.228231
 20
101.721267
 30
0.0
 40
0.0
 41
0.0
  0
VERTEX
  5
173
100
AcDbEntity
  8
1
  6
CONTINUOUS
 62
   150
 48
0.75
100
AcDbVertex
100
AcDb2dVertex
 10
-194.228231
 20
103.501267
 30
0.0
 40
0.0
 41
0.0
  0
VERTEX
  5
174
100
AcDbEntity
  8
1
  6
CONTINUOUS
 62
   150
 48
0.75
100
AcDbVertex
100
AcDb2dVertex
 10
-194.228231
 20
105.061267
 30
0.0
 40
0.0
 41
0.0
  0
VERTEX
  5
175
100
AcDbEntity
  8
1
  6
CONTINUOUS
 62
   150
 48
0.75
100
AcDbVertex
100
AcDb2dVertex
 10
-194.228231
 20
106.961267
 30
0.0
 40
0.0
 41
0.0
  0
VERTEX
  5
176
100
AcDbEntity
  8
1
  6
CONTINUOUS
 62
   150
 48
0.75
100
AcDbVertex
100
AcDb2dVertex
 10
-194.228231
 20
109.441267
 30
0.0
 40
0.0
 41
0.0
  0
VERTEX
  5
177
100
AcDbEntity
  8
1
  6
CONTINUOUS
 62
   150
 48
0.75
100
AcDbVertex
100
AcDb2dVertex
 10
-194.228231
 20
111.601267
 30
0.0
 40
0.0
 41
0.0
  0
VERTEX
  5
178
100
AcDbEntity
  8
1
  6
CONTINUOUS
 62
   150
 48
0.75
100
AcDbVertex
100
AcDb2dVertex
 10
-194.228231
 20
114.821267
 30
0.0
 40
0.0
 41
0.0
  0
SEQEND
  5
179
100
AcDbEntity
  8
0
  0
POLYLINE
  5
17A
100
AcDbEntity
  8
1
  6
CONTINUOUS
 62
   150
 48
0.75
100
AcDb2dPolyline
 66
     1
 10
0.0
 20
0.0
 30
0.0
 70
   128
  0
VERTEX
  5
17B
100
AcDbEntity
  8
1
  6
CONTINUOUS
 62
   150
 48
0.75
100
AcDbVertex
100
AcDb2dVertex
 10
-194.228231
 20
124.821267
 30
0.0
 40
0.0
 41
0.0
  0
VERTEX
  5
17C
100
AcDbEntity
  8
1
  6
CONTINUOUS
 62
   150
 48
0.75
100
AcDbVertex
100
AcDb2dVertex
 10
-194.228231
 20
110.901267
 30
0.0
 40
0.0
 41
0.0
  0
VERTEX
  5
17D
100
AcDbEntity
  8
1
  6
CONTINUOUS
 62
   150
 48
0.75
100
AcDbVertex
100
AcDb2dVertex
 10
-194.228231
 20
103.841267
 30
0.0
 40
0.0
 41
0.0
  0
VERTEX
  5
17E
100
AcDbEntity
  8
1
  6
CONTINUOUS
 62
   150
 48
0.75
100
AcDbVertex
100
AcDb2dVertex
 10
-194.228231
 20
99.821267
 30
0.0
 40
0.0
 41
0.0
  0
VERTEX
  5
17F
100
AcDbEntity
  8
1
  6
CONTINUOUS
 62
   150
 48
0.75
100
AcDbVertex
100
AcDb2dVertex
 10
-194.228231
 20
100.521267
 30
0.0
 40
0.0
 41
0.0
  0
VERTEX
  5
180
100
AcDbEntity
  8
1
  6
CONTINUOUS
 62
   150
 48
0.75
100
AcDbVertex
100
AcDb2dVertex
 10
-194.228231
 20
101.721267
 30
0.0
 40
0.0
 41
0.0
  0
VERTEX
  5
181
100
AcDbEntity
  8
1
  6
CONTINUOUS
 62
   150
 48
0.75
100
AcDbVertex
100
AcDb2dVertex
 10
-194.228231
 20
103.501267
 30
0.0
 40
0.0
 41
0.0
  0
VERTEX
  5
182
100
AcDbEntity
  8
1
  6
CONTINUOUS
 62
   150
 48
0.75
100
AcDbVertex
100
AcDb2dVertex
 10
-194.228231
 20
105.061267
 30
0.0
 40
0.0
 41
0.0
  0
VERTEX
  5
183
100
AcDbEntity
  8
1
  6
CONTINUOUS
 62
   150
 48
0.75
100
AcDbVertex
100
AcDb2dVertex
 10
-194.228231
 20
106.961267
 30
0.0
 40
0.0
 41
0.0
  0
VERTEX
  5
184
100
AcDbEntity
  8
1
  6
CONTINUOUS
 62
   150
 48
0.75
100
AcDbVertex
100
AcDb2dVertex
 10
-194.228231
 20
109.441267
 30
0.0
 40
0.0
 41
0.0
  0
VERTEX
  5
185
100
AcDbEntity
  8
1
  6
CONTINUOUS
 62
   150
 48
0.75
100
AcDbVertex
100
AcDb2dVertex
 10
-194.228231
 20
111.601267
 30
0.0
 40
0.0
 41
0.0
  0
VERTEX
  5
186
100
AcDbEntity
  8
1
  6
CONTINUOUS
 62
   150
 48
0.75
100
AcDbVertex
100
AcDb2dVertex
 10
-194.228231
 20
114.821267
 30
0.0
 40
0.0
 41
0.0
  0
SEQEND
  5
187
100
AcDbEntity
  8
0
  0
POLYLINE
  5
188
100
AcDbEntity
  8
1
  6
CONTINUOUS
 62
   150
 48
0.75
100
AcDb2dPolyline
 66
     1
 10
0.0
 20
0.0
 30
0.0
 70
   128
  0
VERTEX
  5
189
100
AcDbEntity
  8
1
  6
CONTINUOUS
 62
   150
 48
0.75
100
AcDbVertex
100
AcDb2dVertex
 10
-232.068231
 20
177.517267
 30
0.0
 40
0.0
 41
0.0
  0
VERTEX
  5
18A
100
AcDbEntity
  8
1
  6
CONTINUOUS
 62
   150
 48
0.75
100
AcDbVertex
100
AcDb2dVertex
 10
-208.308231
 20
141.861267
 30
0.0
 40
0.0
 41
0.0
  0
VERTEX
  5
18B
100
AcDbEntity
  8
1
  6
CONTINUOUS
 62
   150
 48
0.75
100
AcDbVertex
100
AcDb2dVertex
 10
-205.268231
 20
141.661267
 30
0.0
 40
0.0
 41
0.0
  0
VERTEX
  5
18C
100
AcDbEntity
  8
1
  6
CONTINUOUS
 62
   150
 48
0.75
100
AcDbVertex
100
AcDb2dVertex
 10
-194.228231
 20
124.821267
 30
0.0
 40
0.0
 41
0.0
  0
SEQEND
  5
18D
100
AcDbEntity
  8
0
  0
POLYLINE
  5
18E
100
AcDbEntity
  8
1
  6
CONTINUOUS
 62
   150
 48
0.75
100
AcDb2dPolyline
 66
     1
 10
0.0
 20
0.0
 30
0.0
 70
   128
  0
VERTEX
  5
18F
100
AcDbEntity
  8
1
  6
CONTINUOUS
 62
   150
 48
0.75
100
AcDbVertex
100
AcDb2dVertex
 10
-232.068231
 20
177.517267
 30
0.0
 40
0.0
 41
0.0
  0
VERTEX
  5
190
100
AcDbEntity
  8
1
  6
CONTINUOUS
 62
   150
 48
0.75
100
AcDbVertex
100
AcDb2dVertex
 10
-208.308231
 20
141.861267
 30
0.0
 40
0.0
 41
0.0
  0
VERTEX
  5
191
100
AcDbEntity
  8
1
  6
CONTINUOUS
 62
   150
 48
0.75
100
AcDbVertex
100
AcDb2dVertex
 10
-205.268231
 20
141.661267
 30
0.0
 40
0.0
 41
0.0
  0
VERTEX
  5
192
100
AcDbEntity
  8
1
  6
CONTINUOUS
 62
   150
 48
0.75
100
AcDbVertex
100
AcDb2dVertex
 10
-194.228231
 20
124.821267
 30
0.0
 40
0.0
 41
0.0
  0
SEQEND
  5
193
100
AcDbEntity
  8
0
  0
POLYLINE
  5
194
100
AcDbEntity
  8
1
  6
CONTINUOUS
 62
   150
 48
0.75
100
AcDb2dPolyline
 66
     1
 10
0.0
 20
0.0
 30
0.0
 70
   128
  0
VERTEX
  5
195
100
AcDbEntity
  8
1
  6
CONTINUOUS
 62
   150
 48
0.75
100
AcDbVertex
100
AcDb2dVertex
 10
-156.388231
 20
177.517267
 30
0.0
 40
0.0
 41
0.0
  0
VERTEX
  5
196
100
AcDbEntity
  8
1
  6
CONTINUOUS
 62
   150
 48
0.75
100
AcDbVertex
100
AcDb2dVertex
 10
-180.148231
 20
141.861267
 30
0.0
 40
0.0
 41
0.0
  0
VERTEX
  5
197
100
AcDbEntity
  8
1
  6
CONTINUOUS
 62
   150
 48
0.75
100
AcDbVertex
100
AcDb2dVertex
 10
-183.188231
 20
141.661267
 30
0.0
 40
0.0
 41
0.0
  0
VERTEX
  5
198
100
AcDbEntity
  8
1
  6
CONTINUOUS
 62
   150
 48
0.75
100
AcDbVertex
100
AcDb2dVertex
 10
-194.228231
 20
124.821267
 30
0.0
 40
0.0
 41
0.0
  0
SEQEND
  5
199
100
AcDbEntity
  8
0
  0
POLYLINE
  5
19A
100
AcDbEntity
  8
1
  6
CONTINUOUS
 62
   150
 48
0.75
100
AcDb2dPolyline
 66
     1
 10
0.0
 20
0.0
 30
0.0
 70
   128
  0
VERTEX
  5
19B
100
AcDbEntity
  8
1
  6
CONTINUOUS
 62
   150
 48
0.75
100
AcDbVertex
100
AcDb2dVertex
 10
-244.946231
 20
176.787267
 30
0.0
 40
0.0
 41
0.0
  0
VERTEX
  5
19C
100
AcDbEntity
  8
1
  6
CONTINUOUS
 62
   150
 48
0.75
100
AcDbVertex
100
AcDb2dVertex
 10
-222.268231
 20
139.621267
 30
0.0
 40
0.0
 41
0.0
  0
VERTEX
  5
19D
100
AcDbEntity
  8
1
  6
CONTINUOUS
 62
   150
 48
0.75
100
AcDbVertex
100
AcDb2dVertex
 10
-217.408231
 20
139.341267
 30
0.0
 40
0.0
 41
0.0
  0
VERTEX
  5
19E
100
AcDbEntity
  8
1
  6
CONTINUOUS
 62
   150
 48
0.75
100
AcDbVertex
100
AcDb2dVertex
 10
-194.228231
 20
110.901267
 30
0.0
 40
0.0
 41
0.0
  0
SEQEND
  5
19F
100
AcDbEntity
  8
0
  0
POLYLINE
  5
1A0
100
AcDbEntity
  8
1
  6
CONTINUOUS
 62
   150
 48
0.75
100
AcDb2dPolyline
 66
     1
 10
0.0
 20
0.0
 30
0.0
 70
   128
  0
VERTEX
  5
1A1
100
AcDbEntity
  8
1
  6
CONTINUOUS
 62
   150
 48
0.75
100
AcDbVertex
100
AcDb2dVertex
 10
-244.948231
 20
176.787267
 30
0.0
 40
0.0
 41
0.0
  0
VERTEX
  5
1A2
100
AcDbEntity
  8
1
  6
CONTINUOUS
 62
   150
 48
0.75
100
AcDbVertex
100
AcDb2dVertex
 10
-222.268231
 20
139.621267
 30
0.0
 40
0.0
 41
0.0
  0
VERTEX
  5
1A3
100
AcDbEntity
  8
1
  6
CONTINUOUS
 62
   150
 48
0.75
100
AcDbVertex
100
AcDb2dVertex
 10
-217.408231
 20
139.341267
 30
0.0
 40
0.0
 41
0.0
  0
VERTEX
  5
1A4
100
AcDbEntity
  8
1
  6
CONTINUOUS
 62
   150
 48
0.75
100
AcDbVertex
100
AcDb2dVertex
 10
-194.228231
 20
110.901267
 30
0.0
 40
0.0
 41
0.0
  0
SEQEND
  5
1A5
100
AcDbEntity
  8
0
  0
POLYLINE
  5
1A6
100
AcDbEntity
  8
1
  6
CONTINUOUS
 62
   150
 48
0.75
100
AcDb2dPolyline
 66
     1
 10
0.0
 20
0.0
 30
0.0
 70
   128
  0
VERTEX
  5
1A7
100
AcDbEntity
  8
1
  6
CONTINUOUS
 62
   150
 48
0.75
100
AcDbVertex
100
AcDb2dVertex
 10
-143.510231
 20
176.787267
 30
0.0
 40
0.0
 41
0.0
  0
VERTEX
  5
1A8
100
AcDbEntity
  8
1
  6
CONTINUOUS
 62
   150
 48
0.75
100
AcDbVertex
100
AcDb2dVertex
 10
-166.188231
 20
139.621267
 30
0.0
 40
0.0
 41
0.0
  0
VERTEX
  5
1A9
100
AcDbEntity
  8
1
  6
CONTINUOUS
 62
   150
 48
0.75
100
AcDbVertex
100
AcDb2dVertex
 10
-171.048231
 20
139.341267
 30
0.0
 40
0.0
 41
0.0
  0
VERTEX
  5
1AA
100
AcDbEntity
  8
1
  6
CONTINUOUS
 62
   150
 48
0.75
100
AcDbVertex
100
AcDb2dVertex
 10
-194.228231
 20
110.901267
 30
0.0
 40
0.0
 41
0.0
  0
SEQEND
  5
1AB
100
AcDbEntity
  8
0
  0
POLYLINE
  5
1AC
100
AcDbEntity
  8
1
  6
CONTINUOUS
 62
   150
 48
0.75
100
AcDb2dPolyline
 66
     1
 10
0.0
 20
0.0
 30
0.0
 70
   128
  0
VERTEX
  5
1AD
100
AcDbEntity
  8
1
  6
CONTINUOUS
 62
   150
 48
0.75
100
AcDbVertex
100
AcDb2dVertex
 10
-251.628231
 20
176.111267
 30
0.0
 40
0.0
 41
0.0
  0
VERTEX
  5
1AE
100
AcDbEntity
  8
1
  6
CONTINUOUS
 62
   150
 48
0.75
100
AcDbVertex
100
AcDb2dVertex
 10
-232.766231
 20
136.899267
 30
0.0
 40
0.0
 41
0.0
  0
VERTEX
  5
1AF
100
AcDbEntity
  8
1
  6
CONTINUOUS
 62
   150
 48
0.75
100
AcDbVertex
100
AcDb2dVertex
 10
-227.648231
 20
136.759267
 30
0.0
 40
0.0
 41
0.0
  0
VERTEX
  5
1B0
100
AcDbEntity
  8
1
  6
CONTINUOUS
 62
   150
 48
0.75
100
AcDbVertex
100
AcDb2dVertex
 10
-194.228231
 20
103.841267
 30
0.0
 40
0.0
 41
0.0
  0
SEQEND
  5
1B1
100
AcDbEntity
  8
0
  0
POLYLINE
  5
1B2
100
AcDbEntity
  8
1
  6
CONTINUOUS
 62
   150
 48
0.75
100
AcDb2dPolyline
 66
     1
 10
0.0
 20
0.0
 30
0.0
 70
   128
  0
VERTEX
  5
1B3
100
AcDbEntity
  8
1
  6
CONTINUOUS
 62
   150
 48
0.75
100
AcDbVertex
100
AcDb2dVertex
 10
-251.630231
 20
176.111267
 30
0.0
 40
0.0
 41
0.0
  0
VERTEX
  5
1B4
100
AcDbEntity
  8
1
  6
CONTINUOUS
 62
   150
 48
0.75
100
AcDbVertex
100
AcDb2dVertex
 10
-232.768231
 20
136.901267
 30
0.0
 40
0.0
 41
0.0
  0
VERTEX
  5
1B5
100
AcDbEntity
  8
1
  6
CONTINUOUS
 62
   150
 48
0.75
100
AcDbVertex
100
AcDb2dVertex
 10
-227.648231
 20
136.761267
 30
0.0
 40
0.0
 41
0.0
  0
VERTEX
  5
1B6
100
AcDbEntity
  8
1
  6
CONTINUOUS
 62
   150
 48
0.75
100
AcDbVertex
100
AcDb2dVertex
 10
-194.228231
 20
103.841267
 30
0.0
 40
0.0
 41
0.0
  0
SEQEND
  5
1B7
100
AcDbEntity
  8
0
  0
POLYLINE
  5
1B8
100
AcDbEntity
  8
1
  6
CONTINUOUS
 62
   150
 48
0.75
100
AcDb2dPolyline
 66
     1
 10
0.0
 20
0.0
 30
0.0
 70
   128
  0
VERTEX
  5
1B9
100
AcDbEntity
  8
1
  6
CONTINUOUS
 62
   150
 48
0.75
100
AcDbVertex
100
AcDb2dVertex
 10
-136.828231
 20
176.111267
 30
0.0
 40
0.0
 41
0.0
  0
VERTEX
  5
1BA
100
AcDbEntity
  8
1
  6
CONTINUOUS
 62
   150
 48
0.75
100
AcDbVertex
100
AcDb2dVertex
 10
-155.690231
 20
136.899267
 30
0.0
 40
0.0
 41
0.0
  0
VERTEX
  5
1BB
100
AcDbEntity
  8
1
  6
CONTINUOUS
 62
   150
 48
0.75
100
AcDbVertex
100
AcDb2dVertex
 10
-160.808231
 20
136.759267
 30
0.0
 40
0.0
 41
0.0
  0
VERTEX
  5
1BC
100
AcDbEntity
  8
1
  6
CONTINUOUS
 62
   150
 48
0.75
100
AcDbVertex
100
AcDb2dVertex
 10
-194.228231
 20
103.841267
 30
0.0
 40
0.0
 41
0.0
  0
SEQEND
  5
1BD
100
AcDbEntity
  8
0
  0
POLYLINE
  5
1BE
100
AcDbEntity
  8
1
  6
CONTINUOUS
 62
   150
 48
0.75
100
AcDb2dPolyline
 66
     1
 10
0.0
 20
0.0
 30
0.0
 70
   128
  0
VERTEX
  5
1BF
100
AcDbEntity
  8
1
  6
CONTINUOUS
 62
   150
 48
0.75
100
AcDbVertex
100
AcDb2dVertex
 10
-258.286231
 20
174.821267
 30
0.0
 40
0.0
 41
0.0
  0
VERTEX
  5
1C0
100
AcDbEntity
  8
1
  6
CONTINUOUS
 62
   150
 48
0.75
100
AcDbVertex
100
AcDb2dVertex
 10
-244.568231
 20
131.119267
 30
0.0
 40
0.0
 41
0.0
  0
VERTEX
  5
1C1
100
AcDbEntity
  8
1
  6
CONTINUOUS
 62
   150
 48
0.75
100
AcDbVertex
100
AcDb2dVertex
 10
-240.228231
 20
130.939267
 30
0.0
 40
0.0
 41
0.0
  0
VERTEX
  5
1C2
100
AcDbEntity
  8
1
  6
CONTINUOUS
 62
   150
 48
0.75
100
AcDbVertex
100
AcDb2dVertex
 10
-194.228231
 20
99.819267
 30
0.0
 40
0.0
 41
0.0
  0
SEQEND
  5
1C3
100
AcDbEntity
  8
0
  0
POLYLINE
  5
1C4
100
AcDbEntity
  8
1
  6
CONTINUOUS
 62
   150
 48
0.75
100
AcDb2dPolyline
 66
     1
 10
0.0
 20
0.0
 30
0.0
 70
   128
  0
VERTEX
  5
1C5
100
AcDbEntity
  8
1
  6
CONTINUOUS
 62
   150
 48
0.75
100
AcDbVertex
100
AcDb2dVertex
 10
-258.288231
 20
174.823267
 30
0.0
 40
0.0
 41
0.0
  0
VERTEX
  5
1C6
100
AcDbEntity
  8
1
  6
CONTINUOUS
 62
   150
 48
0.75
100
AcDbVertex
100
AcDb2dVertex
 10
-244.568231
 20
131.121267
 30
0.0
 40
0.0
 41
0.0
  0
VERTEX
  5
1C7
100
AcDbEntity
  8
1
  6
CONTINUOUS
 62
   150
 48
0.75
100
AcDbVertex
100
AcDb2dVertex
 10
-240.228231
 20
130.941267
 30
0.0
 40
0.0
 41
0.0
  0
VERTEX
  5
1C8
100
AcDbEntity
  8
1
  6
CONTINUOUS
 62
   150
 48
0.75
100
AcDbVertex
100
AcDb2dVertex
 10
-194.228231
 20
99.821267
 30
0.0
 40
0.0
 41
0.0
  0
SEQEND
  5
1C9
100
AcDbEntity
  8
0
  0
POLYLINE
  5
1CA
100
AcDbEntity
  8
1
  6
CONTINUOUS
 62
   150
 48
0.75
100
AcDb2dPolyline
 66
     1
 10
0.0
 20
0.0
 30
0.0
 70
   128
  0
VERTEX
  5
1CB
100
AcDbEntity
  8
1
  6
CONTINUOUS
 62
   150
 48
0.75
100
AcDbVertex
100
AcDb2dVertex
 10
-130.170231
 20
174.821267
 30
0.0
 40
0.0
 41
0.0
  0
VERTEX
  5
1CC
100
AcDbEntity
  8
1
  6
CONTINUOUS
 62
   150
 48
0.75
100
AcDbVertex
100
AcDb2dVertex
 10
-143.888231
 20
131.119267
 30
0.0
 40
0.0
 41
0.0
  0
VERTEX
  5
1CD
100
AcDbEntity
  8
1
  6
CONTINUOUS
 62
   150
 48
0.75
100
AcDbVertex
100
AcDb2dVertex
 10
-148.228231
 20
130.939267
 30
0.0
 40
0.0
 41
0.0
  0
VERTEX
  5
1CE
100
AcDbEntity
  8
1
  6
CONTINUOUS
 62
   150
 48
0.75
100
AcDbVertex
100
AcDb2dVertex
 10
-194.228231
 20
99.819267
 30
0.0
 40
0.0
 41
0.0
  0
SEQEND
  5
1CF
100
AcDbEntity
  8
0
  0
POLYLINE
  5
1D0
100
AcDbEntity
  8
1
  6
CONTINUOUS
 62
   150
 48
0.75
100
AcDb2dPolyline
 66
     1
 10
0.0
 20
0.0
 30
0.0
 70
   128
  0
VERTEX
  5
1D1
100
AcDbEntity
  8
1
  6
CONTINUOUS
 62
   150
 48
0.75
100
AcDbVertex
100
AcDb2dVertex
 10
-261.146231
 20
174.041267
 30
0.0
 40
0.0
 41
0.0
  0
VERTEX
  5
1D2
100
AcDbEntity
  8
1
  6
CONTINUOUS
 62
   150
 48
0.75
100
AcDbVertex
100
AcDb2dVertex
 10
-250.028231
 20
127.061267
 30
0.0
 40
0.0
 41
0.0
  0
VERTEX
  5
1D3
100
AcDbEntity
  8
1
  6
CONTINUOUS
 62
   150
 48
0.75
100
AcDbVertex
100
AcDb2dVertex
 10
-246.208231
 20
126.841267
 30
0.0
 40
0.0
 41
0.0
  0
VERTEX
  5
1D4
100
AcDbEntity
  8
1
  6
CONTINUOUS
 62
   150
 48
0.75
100
AcDbVertex
100
AcDb2dVertex
 10
-194.228231
 20
100.521267
 30
0.0
 40
0.0
 41
0.0
  0
SEQEND
  5
1D5
100
AcDbEntity
  8
0
  0
POLYLINE
  5
1D6
100
AcDbEntity
  8
1
  6
CONTINUOUS
 62
   150
 48
0.75
100
AcDb2dPolyline
 66
     1
 10
0.0
 20
0.0
 30
0.0
 70
   128
  0
VERTEX
  5
1D7
100
AcDbEntity
  8
1
  6
CONTINUOUS
 62
   150
 48
0.75
100
AcDbVertex
100
AcDb2dVertex
 10
-261.148231
 20
174.041267
 30
0.0
 40
0.0
 41
0.0
  0
VERTEX
  5
1D8
100
AcDbEntity
  8
1
  6
CONTINUOUS
 62
   150
 48
0.75
100
AcDbVertex
100
AcDb2dVertex
 10
-250.028231
 20
127.061267
 30
0.0
 40
0.0
 41
0.0
  0
VERTEX
  5
1D9
100
AcDbEntity
  8
1
  6
CONTINUOUS
 62
   150
 48
0.75
100
AcDbVertex
100
AcDb2dVertex
 10
-246.208231
 20
126.841267
 30
0.0
 40
0.0
 41
0.0
  0
VERTEX
  5
1DA
100
AcDbEntity
  8
1
  6
CONTINUOUS
 62
   150
 48
0.75
100
AcDbVertex
100
AcDb2dVertex
 10
-194.228231
 20
100.521267
 30
0.0
 40
0.0
 41
0.0
  0
SEQEND
  5
1DB
100
AcDbEntity
  8
0
  0
POLYLINE
  5
1DC
100
AcDbEntity
  8
1
  6
CONTINUOUS
 62
   150
 48
0.75
100
AcDb2dPolyline
 66
     1
 10
0.0
 20
0.0
 30
0.0
 70
   128
  0
VERTEX
  5
1DD
100
AcDbEntity
  8
1
  6
CONTINUOUS
 62
   150
 48
0.75
100
AcDbVertex
100
AcDb2dVertex
 10
-127.310231
 20
174.041267
 30
0.0
 40
0.0
 41
0.0
  0
VERTEX
  5
1DE
100
AcDbEntity
  8
1
  6
CONTINUOUS
 62
   150
 48
0.75
100
AcDbVertex
100
AcDb2dVertex
 10
-138.428231
 20
127.061267
 30
0.0
 40
0.0
 41
0.0
  0
VERTEX
  5
1DF
100
AcDbEntity
  8
1
  6
CONTINUOUS
 62
   150
 48
0.75
100
AcDbVertex
100
AcDb2dVertex
 10
-142.248231
 20
126.841267
 30
0.0
 40
0.0
 41
0.0
  0
VERTEX
  5
1E0
100
AcDbEntity
  8
1
  6
CONTINUOUS
 62
   150
 48
0.75
100
AcDbVertex
100
AcDb2dVertex
 10
-194.228231
 20
100.521267
 30
0.0
 40
0.0
 41
0.0
  0
SEQEND
  5
1E1
100
AcDbEntity
  8
0
  0
POLYLINE
  5
1E2
100
AcDbEntity
  8
1
  6
CONTINUOUS
 62
   150
 48
0.75
100
AcDb2dPolyline
 66
     1
 10
0.0
 20
0.0
 30
0.0
 70
   128
  0
VERTEX
  5
1E3
100
AcDbEntity
  8
1
  6
CONTINUOUS
 62
   150
 48
0.75
100
AcDbVertex
100
AcDb2dVertex
 10
-262.968231
 20
173.381267
 30
0.0
 40
0.0
 41
0.0
  0
VERTEX
  5
1E4
100
AcDbEntity
  8
1
  6
CONTINUOUS
 62
   150
 48
0.75
100
AcDbVertex
100
AcDb2dVertex
 10
-252.368231
 20
124.821267
 30
0.0
 40
0.0
 41
0.0
  0
VERTEX
  5
1E5
100
AcDbEntity
  8
1
  6
CONTINUOUS
 62
   150
 48
0.75
100
AcDbVertex
100
AcDb2dVertex
 10
-249.368231
 20
124.721267
 30
0.0
 40
0.0
 41
0.0
  0
VERTEX
  5
1E6
100
AcDbEntity
  8
1
  6
CONTINUOUS
 62
   150
 48
0.75
100
AcDbVertex
100
AcDb2dVertex
 10
-194.228231
 20
101.721267
 30
0.0
 40
0.0
 41
0.0
  0
SEQEND
  5
1E7
100
AcDbEntity
  8
0
  0
POLYLINE
  5
1E8
100
AcDbEntity
  8
1
  6
CONTINUOUS
 62
   150
 48
0.75
100
AcDb2dPolyline
 66
     1
 10
0.0
 20
0.0
 30
0.0
 70
   128
  0
VERTEX
  5
1E9
100
AcDbEntity
  8
1
  6
CONTINUOUS
 62
   150
 48
0.75
100
AcDbVertex
100
AcDb2dVertex
 10
-262.968231
 20
173.381267
 30
0.0
 40
0.0
 41
0.0
  0
VERTEX
  5
1EA
100
AcDbEntity
  8
1
  6
CONTINUOUS
 62
   150
 48
0.75
100
AcDbVertex
100
AcDb2dVertex
 10
-252.368231
 20
124.821267
 30
0.0
 40
0.0
 41
0.0
  0
VERTEX
  5
1EB
100
AcDbEntity
  8
1
  6
CONTINUOUS
 62
   150
 48
0.75
100
AcDbVertex
100
AcDb2dVertex
 10
-249.368231
 20
124.721267
 30
0.0
 40
0.0
 41
0.0
  0
VERTEX
  5
1EC
100
AcDbEntity
  8
1
  6
CONTINUOUS
 62
   150
 48
0.75
100
AcDbVertex
100
AcDb2dVertex
 10
-194.228231
 20
101.721267
 30
0.0
 40
0.0
 41
0.0
  0
SEQEND
  5
1ED
100
AcDbEntity
  8
0
  0
POLYLINE
  5
1EE
100
AcDbEntity
  8
1
  6
CONTINUOUS
 62
   150
 48
0.75
100
AcDb2dPolyline
 66
     1
 10
0.0
 20
0.0
 30
0.0
 70
   128
  0
VERTEX
  5
1EF
100
AcDbEntity
  8
1
  6
CONTINUOUS
 62
   150
 48
0.75
100
AcDbVertex
100
AcDb2dVertex
 10
-125.488231
 20
173.381267
 30
0.0
 40
0.0
 41
0.0
  0
VERTEX
  5
1F0
100
AcDbEntity
  8
1
  6
CONTINUOUS
 62
   150
 48
0.75
100
AcDbVertex
100
AcDb2dVertex
 10
-136.088231
 20
124.821267
 30
0.0
 40
0.0
 41
0.0
  0
VERTEX
  5
1F1
100
AcDbEntity
  8
1
  6
CONTINUOUS
 62
   150
 48
0.75
100
AcDbVertex
100
AcDb2dVertex
 10
-139.088231
 20
124.721267
 30
0.0
 40
0.0
 41
0.0
  0
VERTEX
  5
1F2
100
AcDbEntity
  8
1
  6
CONTINUOUS
 62
   150
 48
0.75
100
AcDbVertex
100
AcDb2dVertex
 10
-194.228231
 20
101.721267
 30
0.0
 40
0.0
 41
0.0
  0
SEQEND
  5
1F3
100
AcDbEntity
  8
0
  0
POLYLINE
  5
1F4
100
AcDbEntity
  8
1
  6
CONTINUOUS
 62
   150
 48
0.75
100
AcDb2dPolyline
 66
     1
 10
0.0
 20
0.0
 30
0.0
 70
   128
  0
VERTEX
  5
1F5
100
AcDbEntity
  8
1
  6
CONTINUOUS
 62
   150
 48
0.75
100
AcDbVertex
100
AcDb2dVertex
 10
-263.188231
 20
172.789267
 30
0.0
 40
0.0
 41
0.0
  0
VERTEX
  5
1F6
100
AcDbEntity
  8
1
  6
CONTINUOUS
 62
   150
 48
0.75
100
AcDbVertex
100
AcDb2dVertex
 10
-253.148231
 20
123.201267
 30
0.0
 40
0.0
 41
0.0
  0
VERTEX
  5
1F7
100
AcDbEntity
  8
1
  6
CONTINUOUS
 62
   150
 48
0.75
100
AcDbVertex
100
AcDb2dVertex
 10
-249.988231
 20
123.201267
 30
0.0
 40
0.0
 41
0.0
  0
VERTEX
  5
1F8
100
AcDbEntity
  8
1
  6
CONTINUOUS
 62
   150
 48
0.75
100
AcDbVertex
100
AcDb2dVertex
 10
-194.228231
 20
103.501267
 30
0.0
 40
0.0
 41
0.0
  0
SEQEND
  5
1F9
100
AcDbEntity
  8
0
  0
POLYLINE
  5
1FA
100
AcDbEntity
  8
1
  6
CONTINUOUS
 62
   150
 48
0.75
100
AcDb2dPolyline
 66
     1
 10
0.0
 20
0.0
 30
0.0
 70
   128
  0
VERTEX
  5
1FB
100
AcDbEntity
  8
1
  6
CONTINUOUS
 62
   150
 48
0.75
100
AcDbVertex
100
AcDb2dVertex
 10
-263.188231
 20
172.789267
 30
0.0
 40
0.0
 41
0.0
  0
VERTEX
  5
1FC
100
AcDbEntity
  8
1
  6
CONTINUOUS
 62
   150
 48
0.75
100
AcDbVertex
100
AcDb2dVertex
 10
-253.148231
 20
123.201267
 30
0.0
 40
0.0
 41
0.0
  0
VERTEX
  5
1FD
100
AcDbEntity
  8
1
  6
CONTINUOUS
 62
   150
 48
0.75
100
AcDbVertex
100
AcDb2dVertex
 10
-249.988231
 20
123.201267
 30
0.0
 40
0.0
 41
0.0
  0
VERTEX
  5
1FE
100
AcDbEntity
  8
1
  6
CONTINUOUS
 62
   150
 48
0.75
100
AcDbVertex
100
AcDb2dVertex
 10
-194.228231
 20
103.501267
 30
0.0
 40
0.0
 41
0.0
  0
SEQEND
  5
1FF
100
AcDbEntity
  8
0
  0
POLYLINE
  5
200
100
AcDbEntity
  8
1
  6
CONTINUOUS
 62
   150
 48
0.75
100
AcDb2dPolyline
 66
     1
 10
0.0
 20
0.0
 30
0.0
 70
   128
  0
VERTEX
  5
201
100
AcDbEntity
  8
1
  6
CONTINUOUS
 62
   150
 48
0.75
100
AcDbVertex
100
AcDb2dVertex
 10
-125.268231
 20
172.789267
 30
0.0
 40
0.0
 41
0.0
  0
VERTEX
  5
202
100
AcDbEntity
  8
1
  6
CONTINUOUS
 62
   150
 48
0.75
100
AcDbVertex
100
AcDb2dVertex
 10
-135.308231
 20
123.201267
 30
0.0
 40
0.0
 41
0.0
  0
VERTEX
  5
203
100
AcDbEntity
  8
1
  6
CONTINUOUS
 62
   150
 48
0.75
100
AcDbVertex
100
AcDb2dVertex
 10
-138.468231
 20
123.201267
 30
0.0
 40
0.0
 41
0.0
  0
VERTEX
  5
204
100
AcDbEntity
  8
1
  6
CONTINUOUS
 62
   150
 48
0.75
100
AcDbVertex
100
AcDb2dVertex
 10
-194.228231
 20
103.501267
 30
0.0
 40
0.0
 41
0.0
  0
SEQEND
  5
205
100
AcDbEntity
  8
0
  0
POLYLINE
  5
206
100
AcDbEntity
  8
1
  6
CONTINUOUS
 62
   150
 48
0.75
100
AcDb2dPolyline
 66
     1
 10
0.0
 20
0.0
 30
0.0
 70
   128
  0
VERTEX
  5
207
100
AcDbEntity
  8
1
  6
CONTINUOUS
 62
   150
 48
0.75
100
AcDbVertex
100
AcDb2dVertex
 10
-262.788231
 20
172.001267
 30
0.0
 40
0.0
 41
0.0
  0
VERTEX
  5
208
100
AcDbEntity
  8
1
  6
CONTINUOUS
 62
   150
 48
0.75
100
AcDbVertex
100
AcDb2dVertex
 10
-252.908231
 20
122.223267
 30
0.0
 40
0.0
 41
0.0
  0
VERTEX
  5
209
100
AcDbEntity
  8
1
  6
CONTINUOUS
 62
   150
 48
0.75
100
AcDbVertex
100
AcDb2dVertex
 10
-249.308231
 20
122.223267
 30
0.0
 40
0.0
 41
0.0
  0
VERTEX
  5
20A
100
AcDbEntity
  8
1
  6
CONTINUOUS
 62
   150
 48
0.75
100
AcDbVertex
100
AcDb2dVertex
 10
-194.228231
 20
105.063267
 30
0.0
 40
0.0
 41
0.0
  0
SEQEND
  5
20B
100
AcDbEntity
  8
0
  0
POLYLINE
  5
20C
100
AcDbEntity
  8
1
  6
CONTINUOUS
 62
   150
 48
0.75
100
AcDb2dPolyline
 66
     1
 10
0.0
 20
0.0
 30
0.0
 70
   128
  0
VERTEX
  5
20D
100
AcDbEntity
  8
1
  6
CONTINUOUS
 62
   150
 48
0.75
100
AcDbVertex
100
AcDb2dVertex
 10
-262.788231
 20
171.999267
 30
0.0
 40
0.0
 41
0.0
  0
VERTEX
  5
20E
100
AcDbEntity
  8
1
  6
CONTINUOUS
 62
   150
 48
0.75
100
AcDbVertex
100
AcDb2dVertex
 10
-252.908231
 20
122.221267
 30
0.0
 40
0.0
 41
0.0
  0
VERTEX
  5
20F
100
AcDbEntity
  8
1
  6
CONTINUOUS
 62
   150
 48
0.75
100
AcDbVertex
100
AcDb2dVertex
 10
-249.308231
 20
122.221267
 30
0.0
 40
0.0
 41
0.0
  0
VERTEX
  5
210
100
AcDbEntity
  8
1
  6
CONTINUOUS
 62
   150
 48
0.75
100
AcDbVertex
100
AcDb2dVertex
 10
-194.228231
 20
105.061267
 30
0.0
 40
0.0
 41
0.0
  0
SEQEND
  5
211
100
AcDbEntity
  8
0
  0
POLYLINE
  5
212
100
AcDbEntity
  8
1
  6
CONTINUOUS
 62
   150
 48
0.75
100
AcDb2dPolyline
 66
     1
 10
0.0
 20
0.0
 30
0.0
 70
   128
  0
VERTEX
  5
213
100
AcDbEntity
  8
1
  6
CONTINUOUS
 62
   150
 48
0.75
100
AcDbVertex
100
AcDb2dVertex
 10
-125.668231
 20
172.001267
 30
0.0
 40
0.0
 41
0.0
  0
VERTEX
  5
214
100
AcDbEntity
  8
1
  6
CONTINUOUS
 62
   150
 48
0.75
100
AcDbVertex
100
AcDb2dVertex
 10
-135.548231
 20
122.223267
 30
0.0
 40
0.0
 41
0.0
  0
VERTEX
  5
215
100
AcDbEntity
  8
1
  6
CONTINUOUS
 62
   150
 48
0.75
100
AcDbVertex
100
AcDb2dVertex
 10
-139.148231
 20
122.223267
 30
0.0
 40
0.0
 41
0.0
  0
VERTEX
  5
216
100
AcDbEntity
  8
1
  6
CONTINUOUS
 62
   150
 48
0.75
100
AcDbVertex
100
AcDb2dVertex
 10
-194.228231
 20
105.063267
 30
0.0
 40
0.0
 41
0.0
  0
SEQEND
  5
217
100
AcDbEntity
  8
0
  0
POLYLINE
  5
218
100
AcDbEntity
  8
1
  6
CONTINUOUS
 62
   150
 48
0.75
100
AcDb2dPolyline
 66
     1
 10
0.0
 20
0.0
 30
0.0
 70
   128
  0
VERTEX
  5
219
100
AcDbEntity
  8
1
  6
CONTINUOUS
 62
   150
 48
0.75
100
AcDbVertex
100
AcDb2dVertex
 10
-261.088231
 20
171.661267
 30
0.0
 40
0.0
 41
0.0
  0
VERTEX
  5
21A
100
AcDbEntity
  8
1
  6
CONTINUOUS
 62
   150
 48
0.75
100
AcDbVertex
100
AcDb2dVertex
 10
-251.488231
 20
121.521267
 30
0.0
 40
0.0
 41
0.0
  0
VERTEX
  5
21B
100
AcDbEntity
  8
1
  6
CONTINUOUS
 62
   150
 48
0.75
100
AcDbVertex
100
AcDb2dVertex
 10
-247.888231
 20
121.521267
 30
0.0
 40
0.0
 41
0.0
  0
VERTEX
  5
21C
100
AcDbEntity
  8
1
  6
CONTINUOUS
 62
   150
 48
0.75
100
AcDbVertex
100
AcDb2dVertex
 10
-194.228231
 20
106.961267
 30
0.0
 40
0.0
 41
0.0
  0
SEQEND
  5
21D
100
AcDbEntity
  8
0
  0
POLYLINE
  5
21E
100
AcDbEntity
  8
1
  6
CONTINUOUS
 62
   150
 48
0.75
100
AcDb2dPolyline
 66
     1
 10
0.0
 20
0.0
 30
0.0
 70
   128
  0
VERTEX
  5
21F
100
AcDbEntity
  8
1
  6
CONTINUOUS
 62
   150
 48
0.75
100
AcDbVertex
100
AcDb2dVertex
 10
-261.088231
 20
171.661267
 30
0.0
 40
0.0
 41
0.0
  0
VERTEX
  5
220
100
AcDbEntity
  8
1
  6
CONTINUOUS
 62
   150
 48
0.75
100
AcDbVertex
100
AcDb2dVertex
 10
-251.488231
 20
121.521267
 30
0.0
 40
0.0
 41
0.0
  0
VERTEX
  5
221
100
AcDbEntity
  8
1
  6
CONTINUOUS
 62
   150
 48
0.75
100
AcDbVertex
100
AcDb2dVertex
 10
-247.888231
 20
121.521267
 30
0.0
 40
0.0
 41
0.0
  0
VERTEX
  5
222
100
AcDbEntity
  8
1
  6
CONTINUOUS
 62
   150
 48
0.75
100
AcDbVertex
100
AcDb2dVertex
 10
-194.228231
 20
106.961267
 30
0.0
 40
0.0
 41
0.0
  0
SEQEND
  5
223
100
AcDbEntity
  8
0
  0
POLYLINE
  5
224
100
AcDbEntity
  8
1
  6
CONTINUOUS
 62
   150
 48
0.75
100
AcDb2dPolyline
 66
     1
 10
0.0
 20
0.0
 30
0.0
 70
   128
  0
VERTEX
  5
225
100
AcDbEntity
  8
1
  6
CONTINUOUS
 62
   150
 48
0.75
100
AcDbVertex
100
AcDb2dVertex
 10
-127.368231
 20
171.661267
 30
0.0
 40
0.0
 41
0.0
  0
VERTEX
  5
226
100
AcDbEntity
  8
1
  6
CONTINUOUS
 62
   150
 48
0.75
100
AcDbVertex
100
AcDb2dVertex
 10
-136.968231
 20
121.521267
 30
0.0
 40
0.0
 41
0.0
  0
VERTEX
  5
227
100
AcDbEntity
  8
1
  6
CONTINUOUS
 62
   150
 48
0.75
100
AcDbVertex
100
AcDb2dVertex
 10
-140.568231
 20
121.521267
 30
0.0
 40
0.0
 41
0.0
  0
VERTEX
  5
228
100
AcDbEntity
  8
1
  6
CONTINUOUS
 62
   150
 48
0.75
100
AcDbVertex
100
AcDb2dVertex
 10
-194.228231
 20
106.961267
 30
0.0
 40
0.0
 41
0.0
  0
SEQEND
  5
229
100
AcDbEntity
  8
0
  0
POLYLINE
  5
22A
100
AcDbEntity
  8
1
  6
CONTINUOUS
 62
   150
 48
0.75
100
AcDb2dPolyline
 66
     1
 10
0.0
 20
0.0
 30
0.0
 70
   128
  0
VERTEX
  5
22B
100
AcDbEntity
  8
1
  6
CONTINUOUS
 62
   150
 48
0.75
100
AcDbVertex
100
AcDb2dVertex
 10
-258.988231
 20
171.161267
 30
0.0
 40
0.0
 41
0.0
  0
VERTEX
  5
22C
100
AcDbEntity
  8
1
  6
CONTINUOUS
 62
   150
 48
0.75
100
AcDbVertex
100
AcDb2dVertex
 10
-249.788231
 20
121.081267
 30
0.0
 40
0.0
 41
0.0
  0
VERTEX
  5
22D
100
AcDbEntity
  8
1
  6
CONTINUOUS
 62
   150
 48
0.75
100
AcDbVertex
100
AcDb2dVertex
 10
-246.188231
 20
121.081267
 30
0.0
 40
0.0
 41
0.0
  0
VERTEX
  5
22E
100
AcDbEntity
  8
1
  6
CONTINUOUS
 62
   150
 48
0.75
100
AcDbVertex
100
AcDb2dVertex
 10
-194.228231
 20
109.441267
 30
0.0
 40
0.0
 41
0.0
  0
SEQEND
  5
22F
100
AcDbEntity
  8
0
  0
POLYLINE
  5
230
100
AcDbEntity
  8
1
  6
CONTINUOUS
 62
   150
 48
0.75
100
AcDb2dPolyline
 66
     1
 10
0.0
 20
0.0
 30
0.0
 70
   128
  0
VERTEX
  5
231
100
AcDbEntity
  8
1
  6
CONTINUOUS
 62
   150
 48
0.75
100
AcDbVertex
100
AcDb2dVertex
 10
-258.988231
 20
171.159267
 30
0.0
 40
0.0
 41
0.0
  0
VERTEX
  5
232
100
AcDbEntity
  8
1
  6
CONTINUOUS
 62
   150
 48
0.75
100
AcDbVertex
100
AcDb2dVertex
 10
-249.788231
 20
121.081267
 30
0.0
 40
0.0
 41
0.0
  0
VERTEX
  5
233
100
AcDbEntity
  8
1
  6
CONTINUOUS
 62
   150
 48
0.75
100
AcDbVertex
100
AcDb2dVertex
 10
-246.188231
 20
121.081267
 30
0.0
 40
0.0
 41
0.0
  0
VERTEX
  5
234
100
AcDbEntity
  8
1
  6
CONTINUOUS
 62
   150
 48
0.75
100
AcDbVertex
100
AcDb2dVertex
 10
-194.228231
 20
109.441267
 30
0.0
 40
0.0
 41
0.0
  0
SEQEND
  5
235
100
AcDbEntity
  8
0
  0
POLYLINE
  5
236
100
AcDbEntity
  8
1
  6
CONTINUOUS
 62
   150
 48
0.75
100
AcDb2dPolyline
 66
     1
 10
0.0
 20
0.0
 30
0.0
 70
   128
  0
VERTEX
  5
237
100
AcDbEntity
  8
1
  6
CONTINUOUS
 62
   150
 48
0.75
100
AcDbVertex
100
AcDb2dVertex
 10
-129.468231
 20
171.161267
 30
0.0
 40
0.0
 41
0.0
  0
VERTEX
  5
238
100
AcDbEntity
  8
1
  6
CONTINUOUS
 62
   150
 48
0.75
100
AcDbVertex
100
AcDb2dVertex
 10
-138.668231
 20
121.081267
 30
0.0
 40
0.0
 41
0.0
  0
VERTEX
  5
239
100
AcDbEntity
  8
1
  6
CONTINUOUS
 62
   150
 48
0.75
100
AcDbVertex
100
AcDb2dVertex
 10
-142.268231
 20
121.081267
 30
0.0
 40
0.0
 41
0.0
  0
VERTEX
  5
23A
100
AcDbEntity
  8
1
  6
CONTINUOUS
 62
   150
 48
0.75
100
AcDbVertex
100
AcDb2dVertex
 10
-194.228231
 20
109.441267
 30
0.0
 40
0.0
 41
0.0
  0
SEQEND
  5
23B
100
AcDbEntity
  8
0
  0
POLYLINE
  5
23C
100
AcDbEntity
  8
1
  6
CONTINUOUS
 62
   150
 48
0.75
100
AcDb2dPolyline
 66
     1
 10
0.0
 20
0.0
 30
0.0
 70
   128
  0
VERTEX
  5
23D
100
AcDbEntity
  8
1
  6
CONTINUOUS
 62
   150
 48
0.75
100
AcDbVertex
100
AcDb2dVertex
 10
-256.926231
 20
170.741267
 30
0.0
 40
0.0
 41
0.0
  0
VERTEX
  5
23E
100
AcDbEntity
  8
1
  6
CONTINUOUS
 62
   150
 48
0.75
100
AcDbVertex
100
AcDb2dVertex
 10
-247.688231
 20
120.601267
 30
0.0
 40
0.0
 41
0.0
  0
VERTEX
  5
23F
100
AcDbEntity
  8
1
  6
CONTINUOUS
 62
   150
 48
0.75
100
AcDbVertex
100
AcDb2dVertex
 10
-244.486231
 20
120.601267
 30
0.0
 40
0.0
 41
0.0
  0
VERTEX
  5
240
100
AcDbEntity
  8
1
  6
CONTINUOUS
 62
   150
 48
0.75
100
AcDbVertex
100
AcDb2dVertex
 10
-194.228231
 20
111.601267
 30
0.0
 40
0.0
 41
0.0
  0
SEQEND
  5
241
100
AcDbEntity
  8
0
  0
POLYLINE
  5
242
100
AcDbEntity
  8
1
  6
CONTINUOUS
 62
   150
 48
0.75
100
AcDb2dPolyline
 66
     1
 10
0.0
 20
0.0
 30
0.0
 70
   128
  0
VERTEX
  5
243
100
AcDbEntity
  8
1
  6
CONTINUOUS
 62
   150
 48
0.75
100
AcDbVertex
100
AcDb2dVertex
 10
-256.928231
 20
170.741267
 30
0.0
 40
0.0
 41
0.0
  0
VERTEX
  5
244
100
AcDbEntity
  8
1
  6
CONTINUOUS
 62
   150
 48
0.75
100
AcDbVertex
100
AcDb2dVertex
 10
-247.688231
 20
120.601267
 30
0.0
 40
0.0
 41
0.0
  0
VERTEX
  5
245
100
AcDbEntity
  8
1
  6
CONTINUOUS
 62
   150
 48
0.75
100
AcDbVertex
100
AcDb2dVertex
 10
-244.488231
 20
120.601267
 30
0.0
 40
0.0
 41
0.0
  0
VERTEX
  5
246
100
AcDbEntity
  8
1
  6
CONTINUOUS
 62
   150
 48
0.75
100
AcDbVertex
100
AcDb2dVertex
 10
-194.228231
 20
111.601267
 30
0.0
 40
0.0
 41
0.0
  0
SEQEND
  5
247
100
AcDbEntity
  8
0
  0
POLYLINE
  5
248
100
AcDbEntity
  8
1
  6
CONTINUOUS
 62
   150
 48
0.75
100
AcDb2dPolyline
 66
     1
 10
0.0
 20
0.0
 30
0.0
 70
   128
  0
VERTEX
  5
249
100
AcDbEntity
  8
1
  6
CONTINUOUS
 62
   150
 48
0.75
100
AcDbVertex
100
AcDb2dVertex
 10
-131.530231
 20
170.741267
 30
0.0
 40
0.0
 41
0.0
  0
VERTEX
  5
24A
100
AcDbEntity
  8
1
  6
CONTINUOUS
 62
   150
 48
0.75
100
AcDbVertex
100
AcDb2dVertex
 10
-140.768231
 20
120.601267
 30
0.0
 40
0.0
 41
0.0
  0
VERTEX
  5
24B
100
AcDbEntity
  8
1
  6
CONTINUOUS
 62
   150
 48
0.75
100
AcDbVertex
100
AcDb2dVertex
 10
-143.970231
 20
120.601267
 30
0.0
 40
0.0
 41
0.0
  0
VERTEX
  5
24C
100
AcDbEntity
  8
1
  6
CONTINUOUS
 62
   150
 48
0.75
100
AcDbVertex
100
AcDb2dVertex
 10
-194.228231
 20
111.601267
 30
0.0
 40
0.0
 41
0.0
  0
SEQEND
  5
24D
100
AcDbEntity
  8
0
  0
POLYLINE
  5
24E
100
AcDbEntity
  8
1
  6
CONTINUOUS
 62
   150
 48
0.75
100
AcDb2dPolyline
 66
     1
 10
0.0
 20
0.0
 30
0.0
 70
   128
  0
VERTEX
  5
24F
100
AcDbEntity
  8
1
  6
CONTINUOUS
 62
   150
 48
0.75
100
AcDbVertex
100
AcDb2dVertex
 10
-254.746231
 20
170.181267
 30
0.0
 40
0.0
 41
0.0
  0
VERTEX
  5
250
100
AcDbEntity
  8
1
  6
CONTINUOUS
 62
   150
 48
0.75
100
AcDbVertex
100
AcDb2dVertex
 10
-245.786231
 20
120.081267
 30
0.0
 40
0.0
 41
0.0
  0
VERTEX
  5
251
100
AcDbEntity
  8
1
  6
CONTINUOUS
 62
   150
 48
0.75
100
AcDbVertex
100
AcDb2dVertex
 10
-242.186231
 20
120.081267
 30
0.0
 40
0.0
 41
0.0
  0
VERTEX
  5
252
100
AcDbEntity
  8
1
  6
CONTINUOUS
 62
   150
 48
0.75
100
AcDbVertex
100
AcDb2dVertex
 10
-194.228231
 20
114.821267
 30
0.0
 40
0.0
 41
0.0
  0
SEQEND
  5
253
100
AcDbEntity
  8
0
  0
POLYLINE
  5
254
100
AcDbEntity
  8
1
  6
CONTINUOUS
 62
   150
 48
0.75
100
AcDb2dPolyline
 66
     1
 10
0.0
 20
0.0
 30
0.0
 70
   128
  0
VERTEX
  5
255
100
AcDbEntity
  8
1
  6
CONTINUOUS
 62
   150
 48
0.75
100
AcDbVertex
100
AcDb2dVertex
 10
-254.748231
 20
170.179267
 30
0.0
 40
0.0
 41
0.0
  0
VERTEX
  5
256
100
AcDbEntity
  8
1
  6
CONTINUOUS
 62
   150
 48
0.75
100
AcDbVertex
100
AcDb2dVertex
 10
-245.788231
 20
120.081267
 30
0.0
 40
0.0
 41
0.0
  0
VERTEX
  5
257
100
AcDbEntity
  8
1
  6
CONTINUOUS
 62
   150
 48
0.75
100
AcDbVertex
100
AcDb2dVertex
 10
-242.188231
 20
120.081267
 30
0.0
 40
0.0
 41
0.0
  0
VERTEX
  5
258
100
AcDbEntity
  8
1
  6
CONTINUOUS
 62
   150
 48
0.75
100
AcDbVertex
100
AcDb2dVertex
 10
-194.228231
 20
114.821267
 30
0.0
 40
0.0
 41
0.0
  0
SEQEND
  5
259
100
AcDbEntity
  8
0
  0
POLYLINE
  5
25A
100
AcDbEntity
  8
1
  6
CONTINUOUS
 62
   150
 48
0.75
100
AcDb2dPolyline
 66
     1
 10
0.0
 20
0.0
 30
0.0
 70
   128
  0
VERTEX
  5
25B
100
AcDbEntity
  8
1
  6
CONTINUOUS
 62
   150
 48
0.75
100
AcDbVertex
100
AcDb2dVertex
 10
-133.710231
 20
170.181267
 30
0.0
 40
0.0
 41
0.0
  0
VERTEX
  5
25C
100
AcDbEntity
  8
1
  6
CONTINUOUS
 62
   150
 48
0.75
100
AcDbVertex
100
AcDb2dVertex
 10
-142.670231
 20
120.081267
 30
0.0
 40
0.0
 41
0.0
  0
VERTEX
  5
25D
100
AcDbEntity
  8
1
  6
CONTINUOUS
 62
   150
 48
0.75
100
AcDbVertex
100
AcDb2dVertex
 10
-146.270231
 20
120.081267
 30
0.0
 40
0.0
 41
0.0
  0
VERTEX
  5
25E
100
AcDbEntity
  8
1
  6
CONTINUOUS
 62
   150
 48
0.75
100
AcDbVertex
100
AcDb2dVertex
 10
-194.228231
 20
114.821267
 30
0.0
 40
0.0
 41
0.0
  0
SEQEND
  5
25F
100
AcDbEntity
  8
0
  0
POLYLINE
  5
260
100
AcDbEntity
  8
0
  6
CONTINUOUS
 62
   150
 48
2.0
100
AcDb2dPolyline
 66
     1
 10
0.0
 20
0.0
 30
0.0
 70
   128
  0
VERTEX
  5
261
100
AcDbEntity
  8
0
  6
CONTINUOUS
 62
   150
 48
2.0
100
AcDbVertex
100
AcDb2dVertex
 10
-266.892196
 20
241.438392
 30
0.0
 40
0.0
 41
0.0
  0
VERTEX
  5
262
100
AcDbEntity
  8
0
  6
CONTINUOUS
 62
   150
 48
2.0
100
AcDbVertex
100
AcDb2dVertex
 10
305.744828
 20
241.438392
 30
0.0
 40
0.0
 41
0.0
  0
VERTEX
  5
263
100
AcDbEntity
  8
0
  6
CONTINUOUS
 62
   150
 48
2.0
100
AcDbVertex
100
AcDb2dVertex
 10
305.744828
 20
0.67897
 30
0.0
 40
0.0
 41
0.0
  0
VERTEX
  5
264
100
AcDbEntity
  8
0
  6
CONTINUOUS
 62
   150
 48
2.0
100
AcDbVertex
100
AcDb2dVertex
 10
-266.892196
 20
0.67897
 30
0.0
 40
0.0
 41
0.0
  0
VERTEX
  5
265
100
AcDbEntity
  8
0
  6
CONTINUOUS
 62
   150
 48
2.0
100
AcDbVertex
100
AcDb2dVertex
 10
-266.892196
 20
241.438392
 30
0.0
 40
0.0
 41
0.0
  0
SEQEND
  5
266
100
AcDbEntity
  8
0
  0
TEXT
  5
267
100
AcDbEntity
  8
0
 62
   150
 48
0.0
100
AcDbText
 10
-245.43896
 20
34.00797
 30
0.0
 40
5.0
  1
26 Kasim 2003 Çarsamba
 72
     5
 11
-174.307038
 21
34.00797
 31
0.0
210
0.0
220
0.0
230
1.0
100
AcDbText
  0
TEXT
  5
268
100
AcDbEntity
  8
0
 62
   150
 48
0.0
100
AcDbText
 10
-219.860074
 20
21.63109
 30
0.0
 40
5.0
  1
08:47:41
 72
     5
 11
-193.345416
 21
21.63109
 31
0.0
210
0.0
220
0.0
230
1.0
100
AcDbText
  0
TEXT
  5
269
100
AcDbEntity
  8
0
 62
   150
 48
0.0
100
AcDbText
 10
-68.037005
 20
212.235056
 30
0.0
 40
20.0
  1
itü - 884-025
 72
     5
 11
92.256155
 21
212.235056
 31
0.0
210
0.0
220
0.0
230
1.0
100
AcDbText
  0
TEXT
  5
26A
100
AcDbEntity
  8
0
 62
     7
 48
0.0
100
AcDbText
 10
-118.898425
 20
70.391748
 30
0.0
 40
1.6
  1
WATERL      -0.000 m
 72
     5
 11
-82.36509
 21
70.391748
 31
0.0
210
0.0
220
0.0
230
1.0
100
AcDbText
  0
TEXT
  5
26B
100
AcDbEntity
  8
0
 62
     7
 48
0.0
100
AcDbText
 10
-118.898425
 20
67.991748
 30
0.0
 40
1.6
  1
HEEL         0.000 deg
 72
     5
 11
-78.631756
 21
67.991748
 31
0.0
210
0.0
220
0.0
230
1.0
100
AcDbText
  0
TEXT
  5
26C
100
AcDbEntity
  8
0
 62
     7
 48
0.0
100
AcDbText
 10
-118.898425
 20
65.591748
 30
0.0
 40
1.6
  1
DISPLA      62.715 tonne
 72
     5
 11
-74.898425
 21
65.591748
 31
0.0
210
0.0
220
0.0
230
1.0
100
AcDbText
  0
TEXT
  5
26D
100
AcDbEntity
  8
0
 62
     7
 48
0.0
100
AcDbText
 10
-118.898425
 20
63.191748
 30
0.0
 40
1.6
  1
PITCH        0.000 deg
 72
     5
 11
-78.631756
 21
63.191748
 31
0.0
210
0.0
220
0.0
230
1.0
100
AcDbText
  0
TEXT
  5
26E
100
AcDbEntity
  8
0
 62
     7
 48
0.0
100
AcDbText
 10
-118.898425
 20
60.791748
 30
0.0
 40
1.6
  1
XCOFM       13.518 m
 72
     5
 11
-82.36509
 21
60.791748
 31
0.0
210
0.0
220
0.0
230
1.0
100
AcDbText
  0
TEXT
  5
26F
100
AcDbEntity
  8
0
 62
     7
 48
0.0
100
AcDbText
 10
-118.898425
 20
58.391748
 30
0.0
 40
1.6
  1
VOLUME      61.186 m
 72
     5
 11
-82.36509
 21
58.391748
 31
0.0
210
0.0
220
0.0
230
1.0
100
AcDbText
  0
TEXT
  5
270
100
AcDbEntity
  8
0
 62
     7
 48
0.0
100
AcDbText
 10
-118.898425
 20
55.991748
 30
0.0
 40
1.6
  1
LCB         54.071 %
 72
     5
 11
-82.36509
 21
55.991748
 31
0.0
210
0.0
220
0.0
230
1.0
100
AcDbText
  0
TEXT
  5
271
100
AcDbEntity
  8
0
 62
     7
 48
0.0
100
AcDbText
 10
-118.898425
 20
53.591748
 30
0.0
 40
1.6
  1
LCF         56.934 %
 72
     5
 11
-82.36509
 21
53.591748
 31
0.0
210
0.0
220
0.0
230
1.0
100
AcDbText
  0
TEXT
  5
272
100
AcDbEntity
  8
0
 62
     7
 48
0.0
100
AcDbText
 10
-118.898425
 20
51.191748
 30
0.0
 40
1.6
  1
GZ           0.000 m
 72
     5
 11
-82.36509
 21
51.191748
 31
0.0
210
0.0
220
0.0
230
1.0
100
AcDbText
  0
TEXT
  5
273
100
AcDbEntity
  8
0
 62
     7
 48
0.0
100
AcDbText
 10
-118.898425
 20
48.791748
 30
0.0
 40
1.6
  1
GM           4.381 m
 72
     5
 11
-82.36509
 21
48.791748
 31
0.0
210
0.0
220
0.0
230
1.0
100
AcDbText
  0
TEXT
  5
274
100
AcDbEntity
  8
0
 62
     7
 48
0.0
100
AcDbText
 10
-118.898425
 20
46.391748
 30
0.0
 40
1.6
  1
M            4.381 m
 72
     5
 11
-82.36509
 21
46.391748
 31
0.0
210
0.0
220
0.0
230
1.0
100
AcDbText
  0
TEXT
  5
275
100
AcDbEntity
  8
0
 62
     7
 48
0.0
100
AcDbText
 10
-118.898425
 20
43.991748
 30
0.0
 40
1.6
  1
MCT          1.738 tonne m per cm
 72
     5
 11
-58.098425
 21
43.991748
 31
0.0
210
0.0
220
0.0
230
1.0
100
AcDbText
  0
TEXT
  5
276
100
AcDbEntity
  8
0
 62
     7
 48
0.0
100
AcDbText
 10
-118.898425
 20
41.591748
 30
0.0
 40
1.6
  1
MPI        122.417 tonne per m
 72
     5
 11
-63.698425
 21
41.591748
 31
0.0
210
0.0
220
0.0
230
1.0
100
AcDbText
  0
TEXT
  5
277
100
AcDbEntity
  8
0
 62
     7
 48
0.0
100
AcDbText
 10
-118.898425
 20
39.191748
 30
0.0
 40
1.6
  1
WPLANE     119.432 sq m
 72
     5
 11
-76.76509
 21
39.191748
 31
0.0
210
0.0
220
0.0
230
1.0
100
AcDbText
  0
TEXT
  5
278
100
AcDbEntity
  8
0
 62
     7
 48
0.0
100
AcDbText
 10
-118.898425
 20
36.791748
 30
0.0
 40
1.6
  1
WETSUR     131.980 sq m
 72
     5
 11
-76.76509
 21
36.791748
 31
0.0
210
0.0
220
0.0
230
1.0
100
AcDbText
  0
TEXT
  5
279
100
AcDbEntity
  8
0
 62
     7
 48
0.0
100
AcDbText
 10
-118.898425
 20
34.391748
 30
0.0
 40
1.6
  1
LOA         27.640 m
 72
     5
 11
-82.36509
 21
34.391748
 31
0.0
210
0.0
220
0.0
230
1.0
100
AcDbText
  0
TEXT
  5
27A
100
AcDbEntity
  8
0
 62
     7
 48
0.0
100
AcDbText
 10
-118.898425
 20
31.991748
 30
0.0
 40
1.6
  1
LWL         25.000 m
 72
     5
 11
-82.36509
 21
31.991748
 31
0.0
210
0.0
220
0.0
230
1.0
100
AcDbText
  0
TEXT
  5
27B
100
AcDbEntity
  8
0
 62
     7
 48
0.0
100
AcDbText
 10
-118.898425
 20
29.591748
 30
0.0
 40
1.6
  1
BMAX         6.896 m
 72
     5
 11
-82.36509
 21
29.591748
 31
0.0
210
0.0
220
0.0
230
1.0
100
AcDbText
  0
TEXT
  5
27C
100
AcDbEntity
  8
0
 62
     7
 48
0.0
100
AcDbText
 10
-118.898425
 20
27.191748
 30
0.0
 40
1.6
  1
BWL          5.925 m
 72
     5
 11
-82.36509
 21
27.191748
 31
0.0
210
0.0
220
0.0
230
1.0
100
AcDbText
  0
TEXT
  5
27D
100
AcDbEntity
  8
0
 62
     7
 48
0.0
100
AcDbText
 10
-118.898425
 20
24.791748
 30
0.0
 40
1.6
  1
DRAFT        1.250 m
 72
     5
 11
-82.36509
 21
24.791748
 31
0.0
210
0.0
220
0.0
230
1.0
100
AcDbText
  0
TEXT
  5
27E
100
AcDbEntity
  8
0
 62
     7
 48
0.0
100
AcDbText
 10
-118.898425
 20
22.391748
 30
0.0
 40
1.6
  1
FREEBD       2.428 m
 72
     5
 11
-82.36509
 21
22.391748
 31
0.0
210
0.0
220
0.0
230
1.0
100
AcDbText
  0
TEXT
  5
27F
100
AcDbEntity
  8
0
 62
     7
 48
0.0
100
AcDbText
 10
-118.898425
 20
19.991748
 30
0.0
 40
1.6
  1
CM           0.435 
 72
     5
 11
-84.231756
 21
19.991748
 31
0.0
210
0.0
220
0.0
230
1.0
100
AcDbText
  0
TEXT
  5
280
100
AcDbEntity
  8
0
 62
     7
 48
0.0
100
AcDbText
 10
-118.898425
 20
17.591748
 30
0.0
 40
1.6
  1
CP           0.759 
 72
     5
 11
-84.231756
 21
17.591748
 31
0.0
210
0.0
220
0.0
230
1.0
100
AcDbText
  0
TEXT
  5
281
100
AcDbEntity
  8
0
 62
     7
 48
0.0
100
AcDbText
 10
-118.898425
 20
15.191748
 30
0.0
 40
1.6
  1
CB           0.330 
 72
     5
 11
-84.231756
 21
15.191748
 31
0.0
210
0.0
220
0.0
230
1.0
100
AcDbText
  0
TEXT
  5
282
100
AcDbEntity
  8
0
 62
     7
 48
0.0
100
AcDbText
 10
170.259081
 20
210.125001
 30
0.0
 40
2.0
  1
    SECTION NUMBER 0 AT    0.000 M
 72
     5
 11
248.592417
 21
210.125001
 31
0.0
210
0.0
220
0.0
230
1.0
100
AcDbText
  0
TEXT
  5
283
100
AcDbEntity
  8
0
 62
     7
 48
0.0
100
AcDbText
 10
170.259081
 20
207.125001
 30
0.0
 40
2.0
  1
      2.6400  2.7278     1
 72
     5
 11
229.925749
 21
207.125001
 31
0.0
210
0.0
220
0.0
230
1.0
100
AcDbText
  0
TEXT
  5
284
100
AcDbEntity
  8
0
 62
     7
 48
0.0
100
AcDbText
 10
170.259081
 20
204.125001
 30
0.0
 40
2.0
  1
      0.9000  0.9120     1
 72
     5
 11
229.925749
 21
204.125001
 31
0.0
210
0.0
220
0.0
230
1.0
100
AcDbText
  0
TEXT
  5
285
100
AcDbEntity
  8
0
 62
     7
 48
0.0
100
AcDbText
 10
170.259081
 20
201.125001
 30
0.0
 40
2.0
  1
      0.0000 -0.0000     3
 72
     5
 11
229.925749
 21
201.125001
 31
0.0
210
0.0
220
0.0
230
1.0
100
AcDbText
  0
TEXT
  5
286
100
AcDbEntity
  8
0
 62
     7
 48
0.0
100
AcDbText
 10
170.259081
 20
198.125001
 30
0.0
 40
2.0
  1
    SECTION NUMBER 1 AT    0.000 M
 72
     5
 11
248.592417
 21
198.125001
 31
0.0
210
0.0
220
0.0
230
1.0
100
AcDbText
  0
TEXT
  5
287
100
AcDbEntity
  8
0
 62
     7
 48
0.0
100
AcDbText
 10
170.259081
 20
195.125001
 30
0.0
 40
2.0
  1
      1.8920  2.6348     1
 72
     5
 11
229.925749
 21
195.125001
 31
0.0
210
0.0
220
0.0
230
1.0
100
AcDbText
  0
TEXT
  5
288
100
AcDbEntity
  8
0
 62
     7
 48
0.0
100
AcDbText
 10
170.259081
 20
192.125001
 30
0.0
 40
2.0
  1
      0.7040  0.8520     1
 72
     5
 11
229.925749
 21
192.125001
 31
0.0
210
0.0
220
0.0
230
1.0
100
AcDbText
  0
TEXT
  5
289
100
AcDbEntity
  8
0
 62
     7
 48
0.0
100
AcDbText
 10
170.259081
 20
189.125001
 30
0.0
 40
2.0
  1
      0.5520  0.8420     2
 72
     5
 11
229.925749
 21
189.125001
 31
0.0
210
0.0
220
0.0
230
1.0
100
AcDbText
  0
TEXT
  5
28A
100
AcDbEntity
  8
0
 62
     7
 48
0.0
100
AcDbText
 10
170.259081
 20
186.125001
 30
0.0
 40
2.0
  1
      0.0000 -0.0000     3
 72
     5
 11
229.925749
 21
186.125001
 31
0.0
210
0.0
220
0.0
230
1.0
100
AcDbText
  0
TEXT
  5
28B
100
AcDbEntity
  8
0
 62
     7
 48
0.0
100
AcDbText
 10
170.259081
 20
183.125001
 30
0.0
 40
2.0
  1
    SECTION NUMBER 2 AT    1.250 M
 72
     5
 11
248.592417
 21
183.125001
 31
0.0
210
0.0
220
0.0
230
1.0
100
AcDbText
  0
TEXT
  5
28C
100
AcDbEntity
  8
0
 62
     7
 48
0.0
100
AcDbText
 10
170.259081
 20
180.125001
 30
0.0
 40
2.0
  1
      2.5360  2.5983     1
 72
     5
 11
229.925749
 21
180.125001
 31
0.0
210
0.0
220
0.0
230
1.0
100
AcDbText
  0
TEXT
  5
28D
100
AcDbEntity
  8
0
 62
     7
 48
0.0
100
AcDbText
 10
170.259081
 20
177.125001
 30
0.0
 40
2.0
  1
      1.4020  0.7400     1
 72
     5
 11
229.925749
 21
177.125001
 31
0.0
210
0.0
220
0.0
230
1.0
100
AcDbText
  0
TEXT
  5
28E
100
AcDbEntity
  8
0
 62
     7
 48
0.0
100
AcDbText
 10
170.259081
 20
174.125001
 30
0.0
 40
2.0
  1
      1.1590  0.7260     2
 72
     5
 11
229.925749
 21
174.125001
 31
0.0
210
0.0
220
0.0
230
1.0
100
AcDbText
  0
TEXT
  5
28F
100
AcDbEntity
  8
0
 62
     7
 48
0.0
100
AcDbText
 10
170.259081
 20
171.125001
 30
0.0
 40
2.0
  1
      0.0000 -0.6960     3
 72
     5
 11
229.925749
 21
171.125001
 31
0.0
210
0.0
220
0.0
230
1.0
100
AcDbText
  0
TEXT
  5
290
100
AcDbEntity
  8
0
 62
     7
 48
0.0
100
AcDbText
 10
170.259081
 20
168.125001
 30
0.0
 40
2.0
  1
    SECTION NUMBER 3 AT    2.500 M
 72
     5
 11
248.592417
 21
168.125001
 31
0.0
210
0.0
220
0.0
230
1.0
100
AcDbText
  0
TEXT
  5
291
100
AcDbEntity
  8
0
 62
     7
 48
0.0
100
AcDbText
 10
170.259081
 20
165.125001
 30
0.0
 40
2.0
  1
      2.8701  2.5645     1
 72
     5
 11
229.925749
 21
165.125001
 31
0.0
210
0.0
220
0.0
230
1.0
100
AcDbText
  0
TEXT
  5
292
100
AcDbEntity
  8
0
 62
     7
 48
0.0
100
AcDbText
 10
170.259081
 20
162.125001
 30
0.0
 40
2.0
  1
      1.9270  0.6040     1
 72
     5
 11
229.925749
 21
162.125001
 31
0.0
210
0.0
220
0.0
230
1.0
100
AcDbText
  0
TEXT
  5
293
100
AcDbEntity
  8
0
 62
     7
 48
0.0
100
AcDbText
 10
170.259081
 20
159.125001
 30
0.0
 40
2.0
  1
      1.6710  0.5970     2
 72
     5
 11
229.925749
 21
159.125001
 31
0.0
210
0.0
220
0.0
230
1.0
100
AcDbText
  0
TEXT
  5
294
100
AcDbEntity
  8
0
 62
     7
 48
0.0
100
AcDbText
 10
170.259081
 20
156.125001
 30
0.0
 40
2.0
  1
      0.0000 -1.0490     3
 72
     5
 11
229.925749
 21
156.125001
 31
0.0
210
0.0
220
0.0
230
1.0
100
AcDbText
  0
TEXT
  5
295
100
AcDbEntity
  8
0
 62
     7
 48
0.0
100
AcDbText
 10
170.259081
 20
153.125001
 30
0.0
 40
2.0
  1
    SECTION NUMBER 4 AT    5.000 M
 72
     5
 11
248.592417
 21
153.125001
 31
0.0
210
0.0
220
0.0
230
1.0
100
AcDbText
  0
TEXT
  5
296
100
AcDbEntity
  8
0
 62
     7
 48
0.0
100
AcDbText
 10
170.259081
 20
150.125001
 30
0.0
 40
2.0
  1
      3.2030  2.5001     1
 72
     5
 11
229.925749
 21
150.125001
 31
0.0
210
0.0
220
0.0
230
1.0
100
AcDbText
  0
TEXT
  5
297
100
AcDbEntity
  8
0
 62
     7
 48
0.0
100
AcDbText
 10
170.259081
 20
147.125001
 30
0.0
 40
2.0
  1
      2.5170  0.3150     1
 72
     5
 11
229.925749
 21
147.125001
 31
0.0
210
0.0
220
0.0
230
1.0
100
AcDbText
  0
TEXT
  5
298
100
AcDbEntity
  8
0
 62
     7
 48
0.0
100
AcDbText
 10
170.259081
 20
144.125001
 30
0.0
 40
2.0
  1
      2.3000  0.3060     2
 72
     5
 11
229.925749
 21
144.125001
 31
0.0
210
0.0
220
0.0
230
1.0
100
AcDbText
  0
TEXT
  5
299
100
AcDbEntity
  8
0
 62
     7
 48
0.0
100
AcDbText
 10
170.259081
 20
141.125001
 30
0.0
 40
2.0
  1
      0.0000 -1.2500     3
 72
     5
 11
229.925749
 21
141.125001
 31
0.0
210
0.0
220
0.0
230
1.0
100
AcDbText
  0
TEXT
  5
29A
100
AcDbEntity
  8
0
 62
     7
 48
0.0
100
AcDbText
 10
170.259081
 20
138.125001
 30
0.0
 40
2.0
  1
    SECTION NUMBER 5 AT    7.500 M
 72
     5
 11
248.592417
 21
138.125001
 31
0.0
210
0.0
220
0.0
230
1.0
100
AcDbText
  0
TEXT
  5
29B
100
AcDbEntity
  8
0
 62
     7
 48
0.0
100
AcDbText
 10
170.259081
 20
135.125001
 30
0.0
 40
2.0
  1
      3.3460  2.4610     1
 72
     5
 11
229.925749
 21
135.125001
 31
0.0
210
0.0
220
0.0
230
1.0
100
AcDbText
  0
TEXT
  5
29C
100
AcDbEntity
  8
0
 62
     7
 48
0.0
100
AcDbText
 10
170.259081
 20
132.125001
 30
0.0
 40
2.0
  1
      2.7900  0.1120     1
 72
     5
 11
229.925749
 21
132.125001
 31
0.0
210
0.0
220
0.0
230
1.0
100
AcDbText
  0
TEXT
  5
29D
100
AcDbEntity
  8
0
 62
     7
 48
0.0
100
AcDbText
 10
170.259081
 20
129.125001
 30
0.0
 40
2.0
  1
      2.5990  0.1010     2
 72
     5
 11
229.925749
 21
129.125001
 31
0.0
210
0.0
220
0.0
230
1.0
100
AcDbText
  0
TEXT
  5
29E
100
AcDbEntity
  8
0
 62
     7
 48
0.0
100
AcDbText
 10
170.259081
 20
126.125001
 30
0.0
 40
2.0
  1
      0.0000 -1.2150     3
 72
     5
 11
229.925749
 21
126.125001
 31
0.0
210
0.0
220
0.0
230
1.0
100
AcDbText
  0
TEXT
  5
29F
100
AcDbEntity
  8
0
 62
     7
 48
0.0
100
AcDbText
 10
170.259081
 20
123.125001
 30
0.0
 40
2.0
  1
    SECTION NUMBER 6 AT   10.000 M
 72
     5
 11
248.592417
 21
123.125001
 31
0.0
210
0.0
220
0.0
230
1.0
100
AcDbText
  0
TEXT
  5
2A0
100
AcDbEntity
  8
0
 62
     7
 48
0.0
100
AcDbText
 10
170.259081
 20
120.125001
 30
0.0
 40
2.0
  1
      3.4370  2.4280     1
 72
     5
 11
229.925749
 21
120.125001
 31
0.0
210
0.0
220
0.0
230
1.0
100
AcDbText
  0
TEXT
  5
2A1
100
AcDbEntity
  8
0
 62
     7
 48
0.0
100
AcDbText
 10
170.259081
 20
117.125001
 30
0.0
 40
2.0
  1
      2.9070  0.0000     1
 72
     5
 11
229.925749
 21
117.125001
 31
0.0
210
0.0
220
0.0
230
1.0
100
AcDbText
  0
TEXT
  5
2A2
100
AcDbEntity
  8
0
 62
     7
 48
0.0
100
AcDbText
 10
170.259081
 20
114.125001
 30
0.0
 40
2.0
  1
      2.7570 -0.0050     2
 72
     5
 11
229.925749
 21
114.125001
 31
0.0
210
0.0
220
0.0
230
1.0
100
AcDbText
  0
TEXT
  5
2A3
100
AcDbEntity
  8
0
 62
     7
 48
0.0
100
AcDbText
 10
170.259081
 20
111.125001
 30
0.0
 40
2.0
  1
      0.0000 -1.1550     3
 72
     5
 11
229.925749
 21
111.125001
 31
0.0
210
0.0
220
0.0
230
1.0
100
AcDbText
  0
TEXT
  5
2A4
100
AcDbEntity
  8
0
 62
     7
 48
0.0
100
AcDbText
 10
170.259081
 20
108.125001
 30
0.0
 40
2.0
  1
    SECTION NUMBER 7 AT   12.500 M
 72
     5
 11
248.592417
 21
108.125001
 31
0.0
210
0.0
220
0.0
230
1.0
100
AcDbText
  0
TEXT
  5
2A5
100
AcDbEntity
  8
0
 62
     7
 48
0.0
100
AcDbText
 10
170.259081
 20
105.125001
 30
0.0
 40
2.0
  1
      3.4480  2.3984     1
 72
     5
 11
229.925749
 21
105.125001
 31
0.0
210
0.0
220
0.0
230
1.0
100
AcDbText
  0
TEXT
  5
2A6
100
AcDbEntity
  8
0
 62
     7
 48
0.0
100
AcDbText
 10
170.259081
 20
102.125001
 30
0.0
 40
2.0
  1
      2.9460 -0.0810     1
 72
     5
 11
229.925749
 21
102.125001
 31
0.0
210
0.0
220
0.0
230
1.0
100
AcDbText
  0
TEXT
  5
2A7
100
AcDbEntity
  8
0
 62
     7
 48
0.0
100
AcDbText
 10
170.259081
 20
99.125001
 30
0.0
 40
2.0
  1
      2.7880 -0.0810     2
 72
     5
 11
229.925749
 21
99.125001
 31
0.0
210
0.0
220
0.0
230
1.0
100
AcDbText
  0
TEXT
  5
2A8
100
AcDbEntity
  8
0
 62
     7
 48
0.0
100
AcDbText
 10
170.259081
 20
96.125001
 30
0.0
 40
2.0
  1
      0.0000 -1.0660     3
 72
     5
 11
229.925749
 21
96.125001
 31
0.0
210
0.0
220
0.0
230
1.0
100
AcDbText
  0
TEXT
  5
2A9
100
AcDbEntity
  8
0
 62
     7
 48
0.0
100
AcDbText
 10
170.259081
 20
93.125001
 30
0.0
 40
2.0
  1
    SECTION NUMBER 8 AT   15.000 M
 72
     5
 11
248.592417
 21
93.125001
 31
0.0
210
0.0
220
0.0
230
1.0
100
AcDbText
  0
TEXT
  5
2AA
100
AcDbEntity
  8
0
 62
     7
 48
0.0
100
AcDbText
 10
170.259081
 20
90.125001
 30
0.0
 40
2.0
  1
      3.4280  2.3589     1
 72
     5
 11
229.925749
 21
90.125001
 31
0.0
210
0.0
220
0.0
230
1.0
100
AcDbText
  0
TEXT
  5
2AB
100
AcDbEntity
  8
0
 62
     7
 48
0.0
100
AcDbText
 10
170.259081
 20
87.125001
 30
0.0
 40
2.0
  1
      2.9340 -0.1300     1
 72
     5
 11
229.925749
 21
87.125001
 31
0.0
210
0.0
220
0.0
230
1.0
100
AcDbText
  0
TEXT
  5
2AC
100
AcDbEntity
  8
0
 62
     7
 48
0.0
100
AcDbText
 10
170.259081
 20
84.125001
 30
0.0
 40
2.0
  1
      2.7540 -0.1300     2
 72
     5
 11
229.925749
 21
84.125001
 31
0.0
210
0.0
220
0.0
230
1.0
100
AcDbText
  0
TEXT
  5
2AD
100
AcDbEntity
  8
0
 62
     7
 48
0.0
100
AcDbText
 10
170.259081
 20
81.125001
 30
0.0
 40
2.0
  1
      0.0000 -0.9880     3
 72
     5
 11
229.925749
 21
81.125001
 31
0.0
210
0.0
220
0.0
230
1.0
100
AcDbText
  0
TEXT
  5
2AE
100
AcDbEntity
  8
0
 62
     7
 48
0.0
100
AcDbText
 10
170.259081
 20
78.125001
 30
0.0
 40
2.0
  1
    SECTION NUMBER 9 AT   17.500 M
 72
     5
 11
248.592417
 21
78.125001
 31
0.0
210
0.0
220
0.0
230
1.0
100
AcDbText
  0
TEXT
  5
2AF
100
AcDbEntity
  8
0
 62
     7
 48
0.0
100
AcDbText
 10
170.259081
 20
75.125001
 30
0.0
 40
2.0
  1
      3.3430  2.3420     1
 72
     5
 11
229.925749
 21
75.125001
 31
0.0
210
0.0
220
0.0
230
1.0
100
AcDbText
  0
TEXT
  5
2B0
100
AcDbEntity
  8
0
 62
     7
 48
0.0
100
AcDbText
 10
170.259081
 20
72.125001
 30
0.0
 40
2.0
  1
      2.8630 -0.1650     1
 72
     5
 11
229.925749
 21
72.125001
 31
0.0
210
0.0
220
0.0
230
1.0
100
AcDbText
  0
TEXT
  5
2B1
100
AcDbEntity
  8
0
 62
     7
 48
0.0
100
AcDbText
 10
170.259081
 20
69.125001
 30
0.0
 40
2.0
  1
      2.6830 -0.1650     2
 72
     5
 11
229.925749
 21
69.125001
 31
0.0
210
0.0
220
0.0
230
1.0
100
AcDbText
  0
TEXT
  5
2B2
100
AcDbEntity
  8
0
 62
     7
 48
0.0
100
AcDbText
 10
170.259081
 20
66.125001
 30
0.0
 40
2.0
  1
      0.0000 -0.8930     3
 72
     5
 11
229.925749
 21
66.125001
 31
0.0
210
0.0
220
0.0
230
1.0
100
AcDbText
  0
TEXT
  5
2B3
100
AcDbEntity
  8
0
 62
     7
 48
0.0
100
AcDbText
 10
170.259081
 20
63.125001
 30
0.0
 40
2.0
  1
    SECTION NUMBER 10 AT   20.000 M
 72
     5
 11
250.925753
 21
63.125001
 31
0.0
210
0.0
220
0.0
230
1.0
100
AcDbText
  0
TEXT
  5
2B4
100
AcDbEntity
  8
0
 62
     7
 48
0.0
100
AcDbText
 10
170.259081
 20
60.125001
 30
0.0
 40
2.0
  1
      3.2380  2.3169     1
 72
     5
 11
229.925749
 21
60.125001
 31
0.0
210
0.0
220
0.0
230
1.0
100
AcDbText
  0
TEXT
  5
2B5
100
AcDbEntity
  8
0
 62
     7
 48
0.0
100
AcDbText
 10
170.259081
 20
57.125001
 30
0.0
 40
2.0
  1
      2.7780 -0.1870     1
 72
     5
 11
229.925749
 21
57.125001
 31
0.0
210
0.0
220
0.0
230
1.0
100
AcDbText
  0
TEXT
  5
2B6
100
AcDbEntity
  8
0
 62
     7
 48
0.0
100
AcDbText
 10
170.259081
 20
54.125001
 30
0.0
 40
2.0
  1
      2.5980 -0.1870     2
 72
     5
 11
229.925749
 21
54.125001
 31
0.0
210
0.0
220
0.0
230
1.0
100
AcDbText
  0
TEXT
  5
2B7
100
AcDbEntity
  8
0
 62
     7
 48
0.0
100
AcDbText
 10
170.259081
 20
51.125001
 30
0.0
 40
2.0
  1
      0.0000 -0.7690     3
 72
     5
 11
229.925749
 21
51.125001
 31
0.0
210
0.0
220
0.0
230
1.0
100
AcDbText
  0
TEXT
  5
2B8
100
AcDbEntity
  8
0
 62
     7
 48
0.0
100
AcDbText
 10
170.259081
 20
48.125001
 30
0.0
 40
2.0
  1
    SECTION NUMBER 11 AT   22.500 M
 72
     5
 11
250.925753
 21
48.125001
 31
0.0
210
0.0
220
0.0
230
1.0
100
AcDbText
  0
TEXT
  5
2B9
100
AcDbEntity
  8
0
 62
     7
 48
0.0
100
AcDbText
 10
170.259081
 20
45.125001
 30
0.0
 40
2.0
  1
      3.1350  2.2960     1
 72
     5
 11
229.925749
 21
45.125001
 31
0.0
210
0.0
220
0.0
230
1.0
100
AcDbText
  0
TEXT
  5
2BA
100
AcDbEntity
  8
0
 62
     7
 48
0.0
100
AcDbText
 10
170.259081
 20
42.125001
 30
0.0
 40
2.0
  1
      2.6730 -0.2110     1
 72
     5
 11
229.925749
 21
42.125001
 31
0.0
210
0.0
220
0.0
230
1.0
100
AcDbText
  0
TEXT
  5
2BB
100
AcDbEntity
  8
0
 62
     7
 48
0.0
100
AcDbText
 10
170.259081
 20
39.125001
 30
0.0
 40
2.0
  1
      2.5130 -0.2110     2
 72
     5
 11
229.925749
 21
39.125001
 31
0.0
210
0.0
220
0.0
230
1.0
100
AcDbText
  0
TEXT
  5
2BC
100
AcDbEntity
  8
0
 62
     7
 48
0.0
100
AcDbText
 10
170.259081
 20
36.125001
 30
0.0
 40
2.0
  1
      0.0000 -0.6610     3
 72
     5
 11
229.925749
 21
36.125001
 31
0.0
210
0.0
220
0.0
230
1.0
100
AcDbText
  0
TEXT
  5
2BD
100
AcDbEntity
  8
0
 62
     7
 48
0.0
100
AcDbText
 10
170.259081
 20
33.125001
 30
0.0
 40
2.0
  1
    SECTION NUMBER 12 AT   25.000 M
 72
     5
 11
250.925753
 21
33.125001
 31
0.0
210
0.0
220
0.0
230
1.0
100
AcDbText
  0
TEXT
  5
2BE
100
AcDbEntity
  8
0
 62
     7
 48
0.0
100
AcDbText
 10
170.259081
 20
30.125001
 30
0.0
 40
2.0
  1
      3.0260  2.2679     1
 72
     5
 11
229.925749
 21
30.125001
 31
0.0
210
0.0
220
0.0
230
1.0
100
AcDbText
  0
TEXT
  5
2BF
100
AcDbEntity
  8
0
 62
     7
 48
0.0
100
AcDbText
 10
170.259081
 20
27.125001
 30
0.0
 40
2.0
  1
      2.5780 -0.2370     1
 72
     5
 11
229.925749
 21
27.125001
 31
0.0
210
0.0
220
0.0
230
1.0
100
AcDbText
  0
TEXT
  5
2C0
100
AcDbEntity
  8
0
 62
     7
 48
0.0
100
AcDbText
 10
170.259081
 20
24.125001
 30
0.0
 40
2.0
  1
      2.3980 -0.2370     2
 72
     5
 11
229.925749
 21
24.125001
 31
0.0
210
0.0
220
0.0
230
1.0
100
AcDbText
  0
TEXT
  5
2C1
100
AcDbEntity
  8
0
 62
     7
 48
0.0
100
AcDbText
 10
170.259081
 20
21.125001
 30
0.0
 40
2.0
  1
      0.0000 -0.5000     3
 72
     5
 11
229.925749
 21
21.125001
 31
0.0
210
0.0
220
0.0
230
1.0
100
AcDbText
  0
TEXT
  5
2C2
100
AcDbEntity
  8
0
 62
     7
 48
0.0
100
AcDbText
 10
170.259081
 20
18.125001
 30
0.0
 40
2.0
  1
    
 72
     5
 11
178.592415
 21
18.125001
 31
0.0
210
0.0
220
0.0
230
1.0
100
AcDbText
  0
ENDSEC
  0
SECTION
  2
OBJECTS
  0
DICTIONARY
  5
19
100
AcDbDictionary
  3
ACAD_GROUP
350
1A
  3
ACAD_MLINESTYLE
350
1B
  0
DICTIONARY
  5
1A
102
{ACAD_REACTORS
330
19
102
}
100
AcDbDictionary
  0
DICTIONARY
  5
1B
102
{ACAD_REACTORS
330
19
102
}
100
AcDbDictionary
  3
STANDARD
350
1C
  0
MLINESTYLE
  5
1C
102
{ACAD_REACTORS
330
1B
102
}
100
AcDbMlineStyle
  2
STANDARD
 70
     0
  3

 62
     0
 51
90.0
 52
90.0
 71
     2
 49
0.5
 62
   256
  6
BYLAYER
 49
-0.5
 62
   256
  6
BYLAYER
  0
ENDSEC
  0
EOF
