  0
SECTION
  2
HEADER
  9
$ACADVER
  1
AC1014
  9
$ACADMAINTVER
 70
     0
  9
$DWGCODEPAGE
  3
ANSI_1252
  9
$INSBASE
 10
0.0
 20
0.0
 30
0.0
  9
$EXTMIN
 10
-3447.839651
 20
-316.072205
 30
0.0
  9
$EXTMAX
 10
127.569171
 20
855.444647
 30
0.0
  9
$LIMMIN
 10
0.0
 20
0.0
  9
$LIMMAX
 10
0.0
 20
0.0
  9
$ORTHOMODE
 70
     0
  9
$REGENMODE
 70
     1
  9
$FILLMODE
 70
     1
  9
$QTEXTMODE
 70
     0
  9
$MIRRTEXT
 70
     1
  9
$DRAGMODE
 70
     2
  9
$LTSCALE
 40
1.0
  9
$OSMODE
 70
     0
  9
$ATTMODE
 70
     1
  9
$TEXTSIZE
 40
0.2
  9
$TRACEWID
 40
0.05
  9
$TEXTSTYLE
  7
STANDARD
  9
$CLAYER
  8
0
  9
$CELTYPE
  6
CONTINUOUS
  9
$CECOLOR
 62
   256
  9
$CELTSCALE
 40
1.0
  9
$DELOBJ
 70
     1
  9
$DISPSILH
 70
     0
  9
$DIMSCALE
 40
1.0
  9
$DIMASZ
 40
0.18
  9
$DIMEXO
 40
0.0625
  9
$DIMDLI
 40
0.38
  9
$DIMRND
 40
0.0
  9
$DIMDLE
 40
0.0
  9
$DIMEXE
 40
0.18
  9
$DIMTP
 40
0.0
  9
$DIMTM
 40
0.0
  9
$DIMTXT
 40
0.18
  9
$DIMCEN
 40
0.09
  9
$DIMTSZ
 40
0.0
  9
$DIMTOL
 70
     0
  9
$DIMLIM
 70
     0
  9
$DIMTIH
 70
     1
  9
$DIMTOH
 70
     1
  9
$DIMSE1
 70
     0
  9
$DIMSE2
 70
     0
  9
$DIMTAD
 70
     0
  9
$DIMZIN
 70
     0
  9
$DIMBLK
  1

  9
$DIMASO
 70
     1
  9
$DIMSHO
 70
     1
  9
$DIMPOST
  1

  9
$DIMAPOST
  1

  9
$DIMALT
 70
     0
  9
$DIMALTD
 70
     2
  9
$DIMALTF
 40
25.4
  9
$DIMLFAC
 40
1.0
  9
$DIMTOFL
 70
     0
  9
$DIMTVP
 40
0.0
  9
$DIMTIX
 70
     0
  9
$DIMSOXD
 70
     0
  9
$DIMSAH
 70
     0
  9
$DIMBLK1
  1

  9
$DIMBLK2
  1

  9
$DIMSTYLE
  2
STANDARD
  9
$DIMCLRD
 70
     0
  9
$DIMCLRE
 70
     0
  9
$DIMCLRT
 70
     0
  9
$DIMTFAC
 40
1.0
  9
$DIMGAP
 40
0.09
  9
$DIMJUST
 70
     0
  9
$DIMSD1
 70
     0
  9
$DIMSD2
 70
     0
  9
$DIMTOLJ
 70
     1
  9
$DIMTZIN
 70
     0
  9
$DIMALTZ
 70
     0
  9
$DIMALTTZ
 70
     0
  9
$DIMFIT
 70
     3
  9
$DIMUPT
 70
     0
  9
$DIMUNIT
 70
     2
  9
$DIMDEC
 70
     4
  9
$DIMTDEC
 70
     4
  9
$DIMALTU
 70
     2
  9
$DIMALTTD
 70
     2
  9
$DIMTXSTY
  7
STANDARD
  9
$DIMAUNIT
 70
     0
  9
$LUNITS
 70
     2
  9
$LUPREC
 70
     4
  9
$SKETCHINC
 40
0.1
  9
$FILLETRAD
 40
0.0
  9
$AUNITS
 70
     0
  9
$AUPREC
 70
     0
  9
$MENU
  1
acad
  9
$ELEVATION
 40
0.0
  9
$PELEVATION
 40
0.0
  9
$THICKNESS
 40
0.0
  9
$LIMCHECK
 70
     0
  9
$BLIPMODE
 70
     1
  9
$CHAMFERA
 40
0.0
  9
$CHAMFERB
 40
0.0
  9
$CHAMFERC
 40
0.0
  9
$CHAMFERD
 40
0.0
  9
$SKPOLY
 70
     0
  9
$TDCREATE
 40
0.000000000
  9
$TDUPDATE
 40
0.000000000
  9
$TDINDWG
 40
0.0000000000
  9
$TDUSRTIMER
 40
0.0000000000
  9
$USRTIMER
 70
     1
  9
$ANGBASE
 50
0.0
  9
$ANGDIR
 70
     0
  9
$PDMODE
 70
     0
  9
$PDSIZE
 40
0.0
  9
$PLINEWID
 40
0.0
  9
$COORDS
 70
     0
  9
$SPLFRAME
 70
     0
  9
$SPLINETYPE
 70
     6
  9
$SPLINESEGS
 70
     8
  9
$ATTDIA
 70
     0
  9
$ATTREQ
 70
     1
  9
$HANDLING
 70
     1
  9
$HANDSEED
  5
43B
  9
$SURFTAB1
 70
     6
  9
$SURFTAB2
 70
     6
  9
$SURFTYPE
 70
     6
  9
$SURFU
 70
     6
  9
$SURFV
 70
     6
  9
$UCSNAME
  2

  9
$UCSORG
 10
0.0
 20
0.0
 30
0.0
  9
$UCSXDIR
 10
1.0
 20
0.0
 30
0.0
  9
$UCSYDIR
 10
0.0
 20
1.0
 30
0.0
  9
$PUCSNAME
  2

  9
$PUCSORG
 10
0.0
 20
0.0
 30
0.0
  9
$PUCSXDIR
 10
1.0
 20
0.0
 30
0.0
  9
$PUCSYDIR
 10
0.0
 20
1.0
 30
0.0
  9
$USERI1
 70
     0
  9
$USERI2
 70
     0
  9
$USERI3
 70
     0
  9
$USERI4
 70
     0
  9
$USERI5
 70
     0
  9
$USERR1
 40
0.0
  9
$USERR2
 40
0.0
  9
$USERR3
 40
0.0
  9
$USERR4
 40
0.0
  9
$USERR5
 40
0.0
  9
$WORLDVIEW
 70
     1
  9
$SHADEDGE
 70
     3
  9
$SHADEDIF
 70
    70
  9
$TILEMODE
 70
     1
  9
$MAXACTVP
 70
    16
  9
$PINSBASE
 10
0.0
 20
0.0
 30
0.0
  9
$PLIMCHECK
 70
     0
  9
$PEXTMIN
 10
1.000000E+20
 20
1.000000E+20
 30
1.000000E+20
  9
$PEXTMAX
 10
-1.000000E+20
 20
-1.000000E+20
 30
-1.000000E+20
  9
$PLIMMIN
 10
0.0
 20
0.0
  9
$PLIMMAX
 10
12.0
 20
9.0
  9
$UNITMODE
 70
     0
  9
$VISRETAIN
 70
     0
  9
$PLINEGEN
 70
     0
  9
$PSLTSCALE
 70
     0
  9
$TREEDEPTH
 70
  3020
  9
$PICKSTYLE
 70
     1
  9
$CMLSTYLE
  2
STANDARD
  9
$CMLJUST
 70
     0
  9
$CMLSCALE
 40
1.0
  9
$PROXYGRAPHICS
 70
     0
  9
$MEASUREMENT
 70
     0
  0
ENDSEC
  0
SECTION
  2
CLASSES
  0
CLASS
  1
LWPOLYLINE
  2
AcDbPolyline
  3
"AutoCAD"
 90
        0
280
     0
281
     1
  0
CLASS
  1
IMAGE
  2
AcDbRasterImage
  3
ISM
 90
      127
280
     0
281
     1
  0
CLASS
  1
OLE2FRAME
  2
AcDbOle2Frame
  3
""
 90
        0
280
     0
281
     1
  0
CLASS
  1
HATCH
  2
AcDbHatch
  3
"ACAD_SEDONA"
 90
        0
280
     0
281
     1
  0
CLASS
  1
DICTIONARYVAR
  2
AcDbDictionaryVar
  3
"AutoCAD"
 90
        0
280
     0
281
     0
  0
CLASS
  1
RASTERVARIABLES
  2
AcDbRasterVariables
  3
ISM
 90
        0
280
     0
281
     0
  0
CLASS
  1
IMAGEDEF
  2
AcDbRasterImageDef
  3
ISM
 90
        0
280
     0
281
     0
  0
CLASS
  1
IMAGEDEF_REACTOR
  2
AcDbRasterImageDefReactor
  3
ISM
 90
        1
280
     0
281
     0
  0
CLASS
  1
IDBUFFER
  2
AcDbIdBuffer
  3
"Acad"
 90
        0
280
     0
281
     0
  0
CLASS
  1
SPATIAL_FILTER
  2
AcDbSpatialFilter
  3
"Acad"
 90
        0
280
     0
281
     0
  0
CLASS
  1
XRECORD
  2
AcDbXrecord
  3
"<Built In>"
 90
        0
280
     0
281
     0
  0
CLASS
  1
SORTENTSTABLE
  2
AcDbSortentsTable
  3
"AutoCAD"
 90
        0
280
     0
281
     0
  0
CLASS
  1
LAYER_INDEX
  2
AcDbLayerIndex
  3
"Acad"
 90
        0
280
     0
281
     0
  0
CLASS
  1
SPATIAL_INDEX
  2
AcDbSpatialIndex
  3
"Acad"
 90
        0
280
     0
281
     0
  0
CLASS
  1
OBJECT_PTR
  2
CAseDLPNTableRecord
  3
"ASE-LPNTableRecord"
 90
        1
280
     0
281
     0
  0
CLASS
  1
LAYOUT
  2
AcDbLayout
  3
"AutoCAD 2000"
 90
        1
280
     0
281
     0
  0
CLASS
  1
PLOTSETTINGS
  2
AcDbPlotSettings
  3
"AutoCAD 2000"
 90
        1
280
     0
281
     0
  0
CLASS
  1
ACDBDICTIONARYWDFLT
  2
AcDbDictionaryWithDefault
  3
"AutoCAD 2000"
 90
        1
280
     0
281
     0
  0
CLASS
  1
ACDBPLACEHOLDER
  2
AcDbPlaceHolder
  3
"AutoCAD 2000"
 90
        1
280
     0
281
     0
  0
CLASS
  1
VBA_PROJECT
  2
AcDbVbaProject
  3
"acadvba"
 90
        1
280
     0
281
     0
  0
CLASS
  1
WIPEOUT
  2
AcDbWipeout
  3
WipeOut|AutoCAD Express Tool|expresstools@autodesk.com
 90
      127
280
     0
281
     1
  0
CLASS
  1
WIPEOUTVARIABLES
  2
AcDbWipeoutVariables
  3
WipeOut|AutoCAD Express Tool|expresstools@autodesk.com
 90
        0
280
     0
281
     0
  0
CLASS
  1
RTEXT
  2
RText
  3
RText|AutoCAD Express Tool|expresstools@autodesk.com
 90
        0
280
     0
281
     1
  0
CLASS
  1
ARCALIGNEDTEXT
  2
AcDbArcAlignedText
  3
ATEXT|AutoCAD Express Tool|expresstools@autodesk.com
 90
        0
280
     0
281
     1
  0
ENDSEC
  0
SECTION
  2
TABLES
  0
TABLE
  2
VPORT
  5
7
100
AcDbSymbolTable
 70
     2
  0
VPORT
  5
15
100
AcDbSymbolTableRecord
100
AcDbViewportTableRecord
  2
*ACTIVE
 70
     0
 10
0.0
 20
0.0
 11
1.0
 21
1.0
 12
6.591288
 22
4.579184
 13
0.0
 23
0.0
 14
1.0
 24
1.0
 15
0.0
 25
0.0
 16
0.0
 26
0.0
 36
1.0
 17
0.0
 27
0.0
 37
0.0
 40
9.158369
 41
0.688564
 42
50.0
 43
0.0
 44
0.0
 50
0.0
 51
0.0
 71
     0
 72
   100
 73
     1
 74
     1
 75
     0
 76
     0
 77
     0
 78
     0
  0
VPORT
  5
2C
100
AcDbSymbolTableRecord
100
AcDbViewportTableRecord
  2
DCADVPORT
 70
     0
 10
-3447.839651
 20
-316.072205
 11
127.569171
 21
855.444647
 12
6.21
 22
9.02
 13
0.0
 23
0.0
 14
1.0
 24
1.0
 15
0.0
 25
0.0
 16
0.0
 26
0.0
 36
1.0
 17
0.0
 27
0.0
 37
0.0
 40
18.04
 41
0.688564
 42
50.0
 43
1.0
 44
1.0
 50
0.0
 51
0.0
 71
     0
 72
   100
 73
     1
 74
     1
 75
     0
 76
     0
 77
     0
 78
     0
  0
ENDTAB
  0
TABLE
  2
LTYPE
  5
4
100
AcDbSymbolTable
 70
    15
  0
LTYPE
  5
11
100
AcDbSymbolTableRecord
100
AcDbLinetypeTableRecord
  2
BYBLOCK
 70
    64
  3

 72
    65
 73
     0
 40
0.0
  0
LTYPE
  5
12
100
AcDbSymbolTableRecord
100
AcDbLinetypeTableRecord
  2
BYLAYER
 70
    64
  3

 72
    65
 73
     0
 40
0.0
  0
LTYPE
  5
13
100
AcDbSymbolTableRecord
100
AcDbLinetypeTableRecord
  2
CONTINUOUS
 70
    64
  3
Solid line
 72
    65
 73
     0
 40
0.0
  0
LTYPE
  5
1E
100
AcDbSymbolTableRecord
100
AcDbLinetypeTableRecord
  2
CONTINUOUS
 70
     0
  3
Solid line
 72
    65
 73
     0
 40
0.0
  0
LTYPE
  5
1F
100
AcDbSymbolTableRecord
100
AcDbLinetypeTableRecord
  2
BORDER
 70
    64
  3
__ __ . __ __ . __ __ . __ __ . __ __ . __ __ .
 72
    65
 73
     6
 40
1.75
 49
0.5
 74
     0
 49
-0.25
 74
     0
 49
0.5
 74
     0
 49
-0.25
 74
     0
 49
0.0
 74
     0
 49
-0.25
 74
     0
  0
LTYPE
  5
20
100
AcDbSymbolTableRecord
100
AcDbLinetypeTableRecord
  2
BORDER2
 70
    64
  3
__.__.__.__.__.__.__.__.__.__.__.__.__.__.__.__
 72
    65
 73
     6
 40
0.875
 49
0.25
 74
     0
 49
-0.125
 74
     0
 49
0.25
 74
     0
 49
-0.125
 74
     0
 49
0.0
 74
     0
 49
-0.125
 74
     0
  0
LTYPE
  5
21
100
AcDbSymbolTableRecord
100
AcDbLinetypeTableRecord
  2
CENTER
 70
    64
  3
____ _ ____ _ ____ _ ____ _ ____ _ ____ _ ____ 
 72
    65
 73
     4
 40
2.0
 49
1.25
 74
     0
 49
-0.25
 74
     0
 49
0.25
 74
     0
 49
-0.25
 74
     0
  0
LTYPE
  5
22
100
AcDbSymbolTableRecord
100
AcDbLinetypeTableRecord
  2
DASHDOT
 70
    64
  3
__ . __ . __ . __ . __ . __ . __ . __ . __ . __
 72
    65
 73
     4
 40
1.0
 49
0.5
 74
     0
 49
-0.25
 74
     0
 49
0.0
 74
     0
 49
-0.25
 74
     0
  0
LTYPE
  5
23
100
AcDbSymbolTableRecord
100
AcDbLinetypeTableRecord
  2
DASHDOT2
 70
    64
  3
_._._._._._._._._._._._._._._._._._._._._._._._
 72
    65
 73
     4
 40
0.5
 49
0.25
 74
     0
 49
-0.125
 74
     0
 49
0.0
 74
     0
 49
-0.125
 74
     0
  0
LTYPE
  5
24
100
AcDbSymbolTableRecord
100
AcDbLinetypeTableRecord
  2
DASHED
 70
    64
  3
__ __ __ __ __ __ __ __ __ __ __ __ __ __ __ __
 72
    65
 73
     2
 40
0.75
 49
0.5
 74
     0
 49
-0.25
 74
     0
  0
LTYPE
  5
25
100
AcDbSymbolTableRecord
100
AcDbLinetypeTableRecord
  2
DIVIDE
 70
    64
  3
____ . . ____ . . ____ . . ____ . . ____ . . __
 72
    65
 73
     6
 40
1.25
 49
0.5
 74
     0
 49
-0.25
 74
     0
 49
0.0
 74
     0
 49
-0.25
 74
     0
 49
0.0
 74
     0
 49
-0.25
 74
     0
  0
LTYPE
  5
26
100
AcDbSymbolTableRecord
100
AcDbLinetypeTableRecord
  2
DIVIDE2
 70
    64
  3
__..__..__..__..__..__..__..__..__..__..__..__.
 72
    65
 73
     6
 40
0.625
 49
0.25
 74
     0
 49
-0.125
 74
     0
 49
0.0
 74
     0
 49
-0.125
 74
     0
 49
0.0
 74
     0
 49
-0.125
 74
     0
  0
LTYPE
  5
27
100
AcDbSymbolTableRecord
100
AcDbLinetypeTableRecord
  2
DOT
 70
    64
  3
. . . . . . . . . . . . . . . . . . . . . . . .
 72
    65
 73
     2
 40
0.25
 49
0.0
 74
     0
 49
-0.25
 74
     0
  0
LTYPE
  5
28
100
AcDbSymbolTableRecord
100
AcDbLinetypeTableRecord
  2
HIDDEN
 70
    64
  3
__ __ __ __ __ __ __ __ __ __ __ __ __ __ __ __
 72
    65
 73
     2
 40
0.375
 49
0.25
 74
     0
 49
-0.125
 74
     0
  0
LTYPE
  5
29
100
AcDbSymbolTableRecord
100
AcDbLinetypeTableRecord
  2
PHANTOM
 70
    64
  3
______  __  __  ______  __  __  ______  __  __ 
 72
    65
 73
     6
 40
2.5
 49
1.25
 74
     0
 49
-0.25
 74
     0
 49
0.25
 74
     0
 49
-0.25
 74
     0
 49
0.25
 74
     0
 49
-0.25
 74
     0
  0
ENDTAB
  0
TABLE
  2
LAYER
  5
2
100
AcDbSymbolTable
 70
     3
  0
LAYER
  5
14
100
AcDbSymbolTableRecord
100
AcDbLayerTableRecord
  2
0
 70
     0
 62
     7
  6
CONTINUOUS
  0
LAYER
  5
2A
100
AcDbSymbolTableRecord
100
AcDbLayerTableRecord
  2
0
 70
     0
 62
     7
  6
CONTINUOUS
  0
LAYER
  5
2B
100
AcDbSymbolTableRecord
100
AcDbLayerTableRecord
  2
1
 70
     0
 62
     7
  6
CONTINUOUS
  0
ENDTAB
  0
TABLE
  2
STYLE
  5
3
100
AcDbSymbolTable
 70
     2
  0
STYLE
  5
17
100
AcDbSymbolTableRecord
100
AcDbTextStyleTableRecord
  2
STANDARD
 70
     0
 40
0.0
 41
1.0
 50
0.0
 71
     0
 42
0.0
  3
txt
  4

  0
STYLE
  5
1D
100
AcDbSymbolTableRecord
100
AcDbTextStyleTableRecord
  2
BIGFONT
 70
    64
 40
3.0
 41
1.0
 50
0.0
 71
     0
 42
0.2
  3

  4
BIGFONT
  0
ENDTAB
  0
TABLE
  2
VIEW
  5
5
100
AcDbSymbolTable
 70
     0
  0
ENDTAB
  0
TABLE
  2
UCS
  5
6
100
AcDbSymbolTable
 70
     0
  0
ENDTAB
  0
TABLE
  2
APPID
  5
8
100
AcDbSymbolTable
 70
     1
  0
APPID
  5
16
100
AcDbSymbolTableRecord
100
AcDbRegAppTableRecord
  2
ACAD
 70
     0
  0
ENDTAB
  0
TABLE
  2
DIMSTYLE
  5
9
100
AcDbSymbolTable
 70
     1
  0
DIMSTYLE
105
18
100
AcDbSymbolTableRecord
100
AcDbDimStyleTableRecord
  2
STANDARD
 70
     0
  3

  4

  5

  6

  7

 40
1.0
 41
0.18
 42
0.0625
 43
0.38
 44
0.18
 45
0.0
 46
0.0
 47
0.0
 48
0.0
 71
     0
 72
     0
 73
     1
 74
     1
 75
     0
 76
     0
 77
     0
 78
     0
140
0.18
141
0.09
142
0.0
143
25.4
144
1.0
145
0.0
146
1.0
147
0.09
170
     0
171
     2
172
     0
173
     0
174
     0
175
     0
176
     0
177
     0
178
     0
270
     2
271
     4
272
     4
273
     2
274
     2
275
     0
280
     0
281
     0
282
     0
283
     1
284
     0
285
     0
286
     0
287
     0
288
     0
340
17
  0
ENDTAB
  0
TABLE
  2
BLOCK_RECORD
  5
1
100
AcDbSymbolTable
 70
     0
  0
BLOCK_RECORD
  5
A
100
AcDbSymbolTableRecord
100
AcDbBlockTableRecord
  2
*MODEL_SPACE
  0
BLOCK_RECORD
  5
B
100
AcDbSymbolTableRecord
100
AcDbBlockTableRecord
  2
*PAPER_SPACE
  0
ENDTAB
  0
ENDSEC
  0
SECTION
  2
BLOCKS
  0
BLOCK
  5
D
100
AcDbEntity
  8
0
100
AcDbBlockBegin
  2
*MODEL_SPACE
 70
     0
 10
0.0
 20
0.0
 30
0.0
  3
*MODEL_SPACE
  1

  0
ENDBLK
  5
E
100
AcDbEntity
  8
0
100
AcDbBlockEnd
  0
BLOCK
  5
F
100
AcDbEntity
 67
     1
  8
0
100
AcDbBlockBegin
  2
*PAPER_SPACE
 70
     0
 10
0.0
 20
0.0
 30
0.0
  3
*PAPER_SPACE
  1

  0
ENDBLK
  5
10
100
AcDbEntity
 67
     1
  8
0
100
AcDbBlockEnd
  0
ENDSEC
  0
SECTION
  2
ENTITIES
  0
POLYLINE
  5
2D
100
AcDbEntity
  8
1
  6
CONTINUOUS
 62
   150
 48
0.75
100
AcDb2dPolyline
 66
     1
 10
0.0
 20
0.0
 30
0.0
 70
   128
  0
VERTEX
  5
2E
100
AcDbEntity
  8
1
  6
CONTINUOUS
 62
   150
 48
0.75
100
AcDbVertex
100
AcDb2dVertex
 10
-373.181835
 20
-74.236745
 30
0.0
 40
0.0
 41
0.0
  0
VERTEX
  5
2F
100
AcDbEntity
  8
1
  6
CONTINUOUS
 62
   150
 48
0.75
100
AcDbVertex
100
AcDb2dVertex
 10
-373.181835
 20
93.863255
 30
0.0
 40
0.0
 41
0.0
  0
SEQEND
  5
30
100
AcDbEntity
  8
0
  0
POLYLINE
  5
31
100
AcDbEntity
  8
1
  6
CONTINUOUS
 62
   150
 48
0.75
100
AcDb2dPolyline
 66
     1
 10
0.0
 20
0.0
 30
0.0
 70
   128
  0
VERTEX
  5
32
100
AcDbEntity
  8
1
  6
CONTINUOUS
 62
   150
 48
0.75
100
AcDbVertex
100
AcDb2dVertex
 10
-463.171835
 20
-74.236745
 30
0.0
 40
0.0
 41
0.0
  0
VERTEX
  5
33
100
AcDbEntity
  8
1
  6
CONTINUOUS
 62
   150
 48
0.75
100
AcDbVertex
100
AcDb2dVertex
 10
-463.171835
 20
134.473255
 30
0.0
 40
0.0
 41
0.0
  0
SEQEND
  5
34
100
AcDbEntity
  8
0
  0
POLYLINE
  5
35
100
AcDbEntity
  8
1
  6
CONTINUOUS
 62
   150
 48
0.75
100
AcDb2dPolyline
 66
     1
 10
0.0
 20
0.0
 30
0.0
 70
   128
  0
VERTEX
  5
36
100
AcDbEntity
  8
1
  6
CONTINUOUS
 62
   150
 48
0.75
100
AcDbVertex
100
AcDb2dVertex
 10
-553.171835
 20
-74.236745
 30
0.0
 40
0.0
 41
0.0
  0
VERTEX
  5
37
100
AcDbEntity
  8
1
  6
CONTINUOUS
 62
   150
 48
0.75
100
AcDbVertex
100
AcDb2dVertex
 10
-553.171835
 20
163.083255
 30
0.0
 40
0.0
 41
0.0
  0
SEQEND
  5
38
100
AcDbEntity
  8
0
  0
POLYLINE
  5
39
100
AcDbEntity
  8
1
  6
CONTINUOUS
 62
   150
 48
0.75
100
AcDb2dPolyline
 66
     1
 10
0.0
 20
0.0
 30
0.0
 70
   128
  0
VERTEX
  5
3A
100
AcDbEntity
  8
1
  6
CONTINUOUS
 62
   150
 48
0.75
100
AcDbVertex
100
AcDb2dVertex
 10
-733.171835
 20
-74.236745
 30
0.0
 40
0.0
 41
0.0
  0
VERTEX
  5
3B
100
AcDbEntity
  8
1
  6
CONTINUOUS
 62
   150
 48
0.75
100
AcDbVertex
100
AcDb2dVertex
 10
-733.171835
 20
190.143255
 30
0.0
 40
0.0
 41
0.0
  0
SEQEND
  5
3C
100
AcDbEntity
  8
0
  0
POLYLINE
  5
3D
100
AcDbEntity
  8
1
  6
CONTINUOUS
 62
   150
 48
0.75
100
AcDb2dPolyline
 66
     1
 10
0.0
 20
0.0
 30
0.0
 70
   128
  0
VERTEX
  5
3E
100
AcDbEntity
  8
1
  6
CONTINUOUS
 62
   150
 48
0.75
100
AcDbVertex
100
AcDb2dVertex
 10
-913.171835
 20
-74.236745
 30
0.0
 40
0.0
 41
0.0
  0
VERTEX
  5
3F
100
AcDbEntity
  8
1
  6
CONTINUOUS
 62
   150
 48
0.75
100
AcDbVertex
100
AcDb2dVertex
 10
-913.171835
 20
202.253255
 30
0.0
 40
0.0
 41
0.0
  0
SEQEND
  5
40
100
AcDbEntity
  8
0
  0
POLYLINE
  5
41
100
AcDbEntity
  8
1
  6
CONTINUOUS
 62
   150
 48
0.75
100
AcDb2dPolyline
 66
     1
 10
0.0
 20
0.0
 30
0.0
 70
   128
  0
VERTEX
  5
42
100
AcDbEntity
  8
1
  6
CONTINUOUS
 62
   150
 48
0.75
100
AcDbVertex
100
AcDb2dVertex
 10
-1093.171835
 20
-74.236745
 30
0.0
 40
0.0
 41
0.0
  0
VERTEX
  5
43
100
AcDbEntity
  8
1
  6
CONTINUOUS
 62
   150
 48
0.75
100
AcDbVertex
100
AcDb2dVertex
 10
-1093.171835
 20
208.263255
 30
0.0
 40
0.0
 41
0.0
  0
SEQEND
  5
44
100
AcDbEntity
  8
0
  0
POLYLINE
  5
45
100
AcDbEntity
  8
1
  6
CONTINUOUS
 62
   150
 48
0.75
100
AcDb2dPolyline
 66
     1
 10
0.0
 20
0.0
 30
0.0
 70
   128
  0
VERTEX
  5
46
100
AcDbEntity
  8
1
  6
CONTINUOUS
 62
   150
 48
0.75
100
AcDbVertex
100
AcDb2dVertex
 10
-1273.171835
 20
-74.236745
 30
0.0
 40
0.0
 41
0.0
  0
VERTEX
  5
47
100
AcDbEntity
  8
1
  6
CONTINUOUS
 62
   150
 48
0.75
100
AcDbVertex
100
AcDb2dVertex
 10
-1273.171835
 20
210.263255
 30
0.0
 40
0.0
 41
0.0
  0
SEQEND
  5
48
100
AcDbEntity
  8
0
  0
POLYLINE
  5
49
100
AcDbEntity
  8
1
  6
CONTINUOUS
 62
   150
 48
0.75
100
AcDb2dPolyline
 66
     1
 10
0.0
 20
0.0
 30
0.0
 70
   128
  0
VERTEX
  5
4A
100
AcDbEntity
  8
1
  6
CONTINUOUS
 62
   150
 48
0.75
100
AcDbVertex
100
AcDb2dVertex
 10
-1453.171835
 20
-74.236745
 30
0.0
 40
0.0
 41
0.0
  0
VERTEX
  5
4B
100
AcDbEntity
  8
1
  6
CONTINUOUS
 62
   150
 48
0.75
100
AcDbVertex
100
AcDb2dVertex
 10
-1453.171835
 20
208.263255
 30
0.0
 40
0.0
 41
0.0
  0
SEQEND
  5
4C
100
AcDbEntity
  8
0
  0
POLYLINE
  5
4D
100
AcDbEntity
  8
1
  6
CONTINUOUS
 62
   150
 48
0.75
100
AcDb2dPolyline
 66
     1
 10
0.0
 20
0.0
 30
0.0
 70
   128
  0
VERTEX
  5
4E
100
AcDbEntity
  8
1
  6
CONTINUOUS
 62
   150
 48
0.75
100
AcDbVertex
100
AcDb2dVertex
 10
-1633.171835
 20
-74.236745
 30
0.0
 40
0.0
 41
0.0
  0
VERTEX
  5
4F
100
AcDbEntity
  8
1
  6
CONTINUOUS
 62
   150
 48
0.75
100
AcDbVertex
100
AcDb2dVertex
 10
-1633.171835
 20
205.253255
 30
0.0
 40
0.0
 41
0.0
  0
SEQEND
  5
50
100
AcDbEntity
  8
0
  0
POLYLINE
  5
51
100
AcDbEntity
  8
1
  6
CONTINUOUS
 62
   150
 48
0.75
100
AcDb2dPolyline
 66
     1
 10
0.0
 20
0.0
 30
0.0
 70
   128
  0
VERTEX
  5
52
100
AcDbEntity
  8
1
  6
CONTINUOUS
 62
   150
 48
0.75
100
AcDbVertex
100
AcDb2dVertex
 10
-1813.171835
 20
-74.236745
 30
0.0
 40
0.0
 41
0.0
  0
VERTEX
  5
53
100
AcDbEntity
  8
1
  6
CONTINUOUS
 62
   150
 48
0.75
100
AcDbVertex
100
AcDb2dVertex
 10
-1813.171835
 20
203.053255
 30
0.0
 40
0.0
 41
0.0
  0
SEQEND
  5
54
100
AcDbEntity
  8
0
  0
POLYLINE
  5
55
100
AcDbEntity
  8
1
  6
CONTINUOUS
 62
   150
 48
0.75
100
AcDb2dPolyline
 66
     1
 10
0.0
 20
0.0
 30
0.0
 70
   128
  0
VERTEX
  5
56
100
AcDbEntity
  8
1
  6
CONTINUOUS
 62
   150
 48
0.75
100
AcDbVertex
100
AcDb2dVertex
 10
-1993.171835
 20
-74.236745
 30
0.0
 40
0.0
 41
0.0
  0
VERTEX
  5
57
100
AcDbEntity
  8
1
  6
CONTINUOUS
 62
   150
 48
0.75
100
AcDbVertex
100
AcDb2dVertex
 10
-1993.171835
 20
198.843255
 30
0.0
 40
0.0
 41
0.0
  0
SEQEND
  5
58
100
AcDbEntity
  8
0
  0
POLYLINE
  5
59
100
AcDbEntity
  8
1
  6
CONTINUOUS
 62
   150
 48
0.75
100
AcDb2dPolyline
 66
     1
 10
0.0
 20
0.0
 30
0.0
 70
   128
  0
VERTEX
  5
5A
100
AcDbEntity
  8
1
  6
CONTINUOUS
 62
   150
 48
0.75
100
AcDbVertex
100
AcDb2dVertex
 10
-2083.171835
 20
-74.236745
 30
0.0
 40
0.0
 41
0.0
  0
VERTEX
  5
5B
100
AcDbEntity
  8
1
  6
CONTINUOUS
 62
   150
 48
0.75
100
AcDbVertex
100
AcDb2dVertex
 10
-2083.171835
 20
197.243255
 30
0.0
 40
0.0
 41
0.0
  0
SEQEND
  5
5C
100
AcDbEntity
  8
0
  0
POLYLINE
  5
5D
100
AcDbEntity
  8
1
  6
CONTINUOUS
 62
   150
 48
0.75
100
AcDb2dPolyline
 66
     1
 10
0.0
 20
0.0
 30
0.0
 70
   128
  0
VERTEX
  5
5E
100
AcDbEntity
  8
1
  6
CONTINUOUS
 62
   150
 48
0.75
100
AcDbVertex
100
AcDb2dVertex
 10
-2173.171835
 20
-74.236745
 30
0.0
 40
0.0
 41
0.0
  0
VERTEX
  5
5F
100
AcDbEntity
  8
1
  6
CONTINUOUS
 62
   150
 48
0.75
100
AcDbVertex
100
AcDb2dVertex
 10
-2173.171835
 20
194.233255
 30
0.0
 40
0.0
 41
0.0
  0
SEQEND
  5
60
100
AcDbEntity
  8
0
  0
POLYLINE
  5
61
100
AcDbEntity
  8
1
  6
CONTINUOUS
 62
   150
 48
0.75
100
AcDb2dPolyline
 66
     1
 10
0.0
 20
0.0
 30
0.0
 70
   128
  0
VERTEX
  5
62
100
AcDbEntity
  8
1
  6
CONTINUOUS
 62
   150
 48
0.75
100
AcDbVertex
100
AcDb2dVertex
 10
-92.671835
 20
-74.236745
 30
0.0
 40
0.0
 41
0.0
  0
VERTEX
  5
63
100
AcDbEntity
  8
1
  6
CONTINUOUS
 62
   150
 48
0.75
100
AcDbVertex
100
AcDb2dVertex
 10
-373.181835
 20
93.863255
 30
0.0
 40
0.0
 41
0.0
  0
VERTEX
  5
64
100
AcDbEntity
  8
1
  6
CONTINUOUS
 62
   150
 48
0.75
100
AcDbVertex
100
AcDb2dVertex
 10
-463.171835
 20
134.473255
 30
0.0
 40
0.0
 41
0.0
  0
VERTEX
  5
65
100
AcDbEntity
  8
1
  6
CONTINUOUS
 62
   150
 48
0.75
100
AcDbVertex
100
AcDb2dVertex
 10
-553.171835
 20
163.083255
 30
0.0
 40
0.0
 41
0.0
  0
VERTEX
  5
66
100
AcDbEntity
  8
1
  6
CONTINUOUS
 62
   150
 48
0.75
100
AcDbVertex
100
AcDb2dVertex
 10
-733.171835
 20
190.143255
 30
0.0
 40
0.0
 41
0.0
  0
VERTEX
  5
67
100
AcDbEntity
  8
1
  6
CONTINUOUS
 62
   150
 48
0.75
100
AcDbVertex
100
AcDb2dVertex
 10
-913.171835
 20
200.663255
 30
0.0
 40
0.0
 41
0.0
  0
VERTEX
  5
68
100
AcDbEntity
  8
1
  6
CONTINUOUS
 62
   150
 48
0.75
100
AcDbVertex
100
AcDb2dVertex
 10
-1093.171835
 20
208.263255
 30
0.0
 40
0.0
 41
0.0
  0
VERTEX
  5
69
100
AcDbEntity
  8
1
  6
CONTINUOUS
 62
   150
 48
0.75
100
AcDbVertex
100
AcDb2dVertex
 10
-1273.171835
 20
210.263255
 30
0.0
 40
0.0
 41
0.0
  0
VERTEX
  5
6A
100
AcDbEntity
  8
1
  6
CONTINUOUS
 62
   150
 48
0.75
100
AcDbVertex
100
AcDb2dVertex
 10
-1453.171835
 20
208.263255
 30
0.0
 40
0.0
 41
0.0
  0
VERTEX
  5
6B
100
AcDbEntity
  8
1
  6
CONTINUOUS
 62
   150
 48
0.75
100
AcDbVertex
100
AcDb2dVertex
 10
-1633.171835
 20
205.253255
 30
0.0
 40
0.0
 41
0.0
  0
VERTEX
  5
6C
100
AcDbEntity
  8
1
  6
CONTINUOUS
 62
   150
 48
0.75
100
AcDbVertex
100
AcDb2dVertex
 10
-1813.171835
 20
203.053255
 30
0.0
 40
0.0
 41
0.0
  0
VERTEX
  5
6D
100
AcDbEntity
  8
1
  6
CONTINUOUS
 62
   150
 48
0.75
100
AcDbVertex
100
AcDb2dVertex
 10
-1993.171835
 20
198.843255
 30
0.0
 40
0.0
 41
0.0
  0
VERTEX
  5
6E
100
AcDbEntity
  8
1
  6
CONTINUOUS
 62
   150
 48
0.75
100
AcDbVertex
100
AcDb2dVertex
 10
-2083.171835
 20
197.243255
 30
0.0
 40
0.0
 41
0.0
  0
VERTEX
  5
6F
100
AcDbEntity
  8
1
  6
CONTINUOUS
 62
   150
 48
0.75
100
AcDbVertex
100
AcDb2dVertex
 10
-2173.171835
 20
194.233255
 30
0.0
 40
0.0
 41
0.0
  0
SEQEND
  5
70
100
AcDbEntity
  8
0
  0
POLYLINE
  5
71
100
AcDbEntity
  8
1
  6
CONTINUOUS
 62
   150
 48
0.75
100
AcDb2dPolyline
 66
     1
 10
0.0
 20
0.0
 30
0.0
 70
   128
  0
VERTEX
  5
72
100
AcDbEntity
  8
1
  6
CONTINUOUS
 62
   150
 48
0.75
100
AcDbVertex
100
AcDb2dVertex
 10
-127.131835
 20
-74.236745
 30
0.0
 40
0.0
 41
0.0
  0
VERTEX
  5
73
100
AcDbEntity
  8
1
  6
CONTINUOUS
 62
   150
 48
0.75
100
AcDbVertex
100
AcDb2dVertex
 10
-373.181835
 20
87.243255
 30
0.0
 40
0.0
 41
0.0
  0
VERTEX
  5
74
100
AcDbEntity
  8
1
  6
CONTINUOUS
 62
   150
 48
0.75
100
AcDbVertex
100
AcDb2dVertex
 10
-463.171835
 20
128.123255
 30
0.0
 40
0.0
 41
0.0
  0
VERTEX
  5
75
100
AcDbEntity
  8
1
  6
CONTINUOUS
 62
   150
 48
0.75
100
AcDbVertex
100
AcDb2dVertex
 10
-553.171835
 20
158.173255
 30
0.0
 40
0.0
 41
0.0
  0
VERTEX
  5
76
100
AcDbEntity
  8
1
  6
CONTINUOUS
 62
   150
 48
0.75
100
AcDbVertex
100
AcDb2dVertex
 10
-733.171835
 20
188.223255
 30
0.0
 40
0.0
 41
0.0
  0
VERTEX
  5
77
100
AcDbEntity
  8
1
  6
CONTINUOUS
 62
   150
 48
0.75
100
AcDbVertex
100
AcDb2dVertex
 10
-913.171835
 20
202.253255
 30
0.0
 40
0.0
 41
0.0
  0
VERTEX
  5
78
100
AcDbEntity
  8
1
  6
CONTINUOUS
 62
   150
 48
0.75
100
AcDbVertex
100
AcDb2dVertex
 10
-1093.171835
 20
208.263255
 30
0.0
 40
0.0
 41
0.0
  0
VERTEX
  5
79
100
AcDbEntity
  8
1
  6
CONTINUOUS
 62
   150
 48
0.75
100
AcDbVertex
100
AcDb2dVertex
 10
-1273.171835
 20
210.263255
 30
0.0
 40
0.0
 41
0.0
  0
VERTEX
  5
7A
100
AcDbEntity
  8
1
  6
CONTINUOUS
 62
   150
 48
0.75
100
AcDbVertex
100
AcDb2dVertex
 10
-1453.171835
 20
208.263255
 30
0.0
 40
0.0
 41
0.0
  0
VERTEX
  5
7B
100
AcDbEntity
  8
1
  6
CONTINUOUS
 62
   150
 48
0.75
100
AcDbVertex
100
AcDb2dVertex
 10
-1633.171835
 20
205.253255
 30
0.0
 40
0.0
 41
0.0
  0
VERTEX
  5
7C
100
AcDbEntity
  8
1
  6
CONTINUOUS
 62
   150
 48
0.75
100
AcDbVertex
100
AcDb2dVertex
 10
-1813.171835
 20
203.053255
 30
0.0
 40
0.0
 41
0.0
  0
VERTEX
  5
7D
100
AcDbEntity
  8
1
  6
CONTINUOUS
 62
   150
 48
0.75
100
AcDbVertex
100
AcDb2dVertex
 10
-1993.171835
 20
198.843255
 30
0.0
 40
0.0
 41
0.0
  0
VERTEX
  5
7E
100
AcDbEntity
  8
1
  6
CONTINUOUS
 62
   150
 48
0.75
100
AcDbVertex
100
AcDb2dVertex
 10
-2083.171835
 20
197.243255
 30
0.0
 40
0.0
 41
0.0
  0
VERTEX
  5
7F
100
AcDbEntity
  8
1
  6
CONTINUOUS
 62
   150
 48
0.75
100
AcDbVertex
100
AcDb2dVertex
 10
-2173.171835
 20
194.233255
 30
0.0
 40
0.0
 41
0.0
  0
SEQEND
  5
80
100
AcDbEntity
  8
0
  0
POLYLINE
  5
81
100
AcDbEntity
  8
1
  6
CONTINUOUS
 62
   150
 48
0.75
100
AcDb2dPolyline
 66
     1
 10
0.0
 20
0.0
 30
0.0
 70
   128
  0
VERTEX
  5
82
100
AcDbEntity
  8
1
  6
CONTINUOUS
 62
   150
 48
0.75
100
AcDbVertex
100
AcDb2dVertex
 10
-284.161835
 20
-74.236745
 30
0.0
 40
0.0
 41
0.0
  0
VERTEX
  5
83
100
AcDbEntity
  8
1
  6
CONTINUOUS
 62
   150
 48
0.75
100
AcDbVertex
100
AcDb2dVertex
 10
-373.181835
 20
-18.136745
 30
0.0
 40
0.0
 41
0.0
  0
VERTEX
  5
84
100
AcDbEntity
  8
1
  6
CONTINUOUS
 62
   150
 48
0.75
100
AcDbVertex
100
AcDb2dVertex
 10
-463.171835
 20
23.933255
 30
0.0
 40
0.0
 41
0.0
  0
VERTEX
  5
85
100
AcDbEntity
  8
1
  6
CONTINUOUS
 62
   150
 48
0.75
100
AcDbVertex
100
AcDb2dVertex
 10
-553.171835
 20
59.393255
 30
0.0
 40
0.0
 41
0.0
  0
VERTEX
  5
86
100
AcDbEntity
  8
1
  6
CONTINUOUS
 62
   150
 48
0.75
100
AcDbVertex
100
AcDb2dVertex
 10
-733.171835
 20
114.693255
 30
0.0
 40
0.0
 41
0.0
  0
VERTEX
  5
87
100
AcDbEntity
  8
1
  6
CONTINUOUS
 62
   150
 48
0.75
100
AcDbVertex
100
AcDb2dVertex
 10
-913.171835
 20
143.143255
 30
0.0
 40
0.0
 41
0.0
  0
VERTEX
  5
88
100
AcDbEntity
  8
1
  6
CONTINUOUS
 62
   150
 48
0.75
100
AcDbVertex
100
AcDb2dVertex
 10
-1093.171835
 20
157.573255
 30
0.0
 40
0.0
 41
0.0
  0
VERTEX
  5
89
100
AcDbEntity
  8
1
  6
CONTINUOUS
 62
   150
 48
0.75
100
AcDbVertex
100
AcDb2dVertex
 10
-1273.171835
 20
164.183255
 30
0.0
 40
0.0
 41
0.0
  0
VERTEX
  5
8A
100
AcDbEntity
  8
1
  6
CONTINUOUS
 62
   150
 48
0.75
100
AcDbVertex
100
AcDb2dVertex
 10
-1453.171835
 20
162.183255
 30
0.0
 40
0.0
 41
0.0
  0
VERTEX
  5
8B
100
AcDbEntity
  8
1
  6
CONTINUOUS
 62
   150
 48
0.75
100
AcDbVertex
100
AcDb2dVertex
 10
-1633.171835
 20
159.163255
 30
0.0
 40
0.0
 41
0.0
  0
VERTEX
  5
8C
100
AcDbEntity
  8
1
  6
CONTINUOUS
 62
   150
 48
0.75
100
AcDbVertex
100
AcDb2dVertex
 10
-1813.171835
 20
157.173255
 30
0.0
 40
0.0
 41
0.0
  0
VERTEX
  5
8D
100
AcDbEntity
  8
1
  6
CONTINUOUS
 62
   150
 48
0.75
100
AcDbVertex
100
AcDb2dVertex
 10
-1993.171835
 20
153.163255
 30
0.0
 40
0.0
 41
0.0
  0
VERTEX
  5
8E
100
AcDbEntity
  8
1
  6
CONTINUOUS
 62
   150
 48
0.75
100
AcDbVertex
100
AcDb2dVertex
 10
-2083.171835
 20
151.363255
 30
0.0
 40
0.0
 41
0.0
  0
VERTEX
  5
8F
100
AcDbEntity
  8
1
  6
CONTINUOUS
 62
   150
 48
0.75
100
AcDbVertex
100
AcDb2dVertex
 10
-2173.171835
 20
149.753255
 30
0.0
 40
0.0
 41
0.0
  0
SEQEND
  5
90
100
AcDbEntity
  8
0
  0
POLYLINE
  5
91
100
AcDbEntity
  8
1
  6
CONTINUOUS
 62
   150
 48
0.75
100
AcDb2dPolyline
 66
     1
 10
0.0
 20
0.0
 30
0.0
 70
   128
  0
VERTEX
  5
92
100
AcDbEntity
  8
1
  6
CONTINUOUS
 62
   150
 48
0.75
100
AcDbVertex
100
AcDb2dVertex
 10
-373.171835
 20
-74.236745
 30
0.0
 40
0.0
 41
0.0
  0
VERTEX
  5
93
100
AcDbEntity
  8
1
  6
CONTINUOUS
 62
   150
 48
0.75
100
AcDbVertex
100
AcDb2dVertex
 10
-373.181835
 20
-74.236745
 30
0.0
 40
0.0
 41
0.0
  0
VERTEX
  5
94
100
AcDbEntity
  8
1
  6
CONTINUOUS
 62
   150
 48
0.75
100
AcDbVertex
100
AcDb2dVertex
 10
-463.171835
 20
-74.236745
 30
0.0
 40
0.0
 41
0.0
  0
VERTEX
  5
95
100
AcDbEntity
  8
1
  6
CONTINUOUS
 62
   150
 48
0.75
100
AcDbVertex
100
AcDb2dVertex
 10
-553.171835
 20
-74.236745
 30
0.0
 40
0.0
 41
0.0
  0
VERTEX
  5
96
100
AcDbEntity
  8
1
  6
CONTINUOUS
 62
   150
 48
0.75
100
AcDbVertex
100
AcDb2dVertex
 10
-733.171835
 20
-74.236745
 30
0.0
 40
0.0
 41
0.0
  0
VERTEX
  5
97
100
AcDbEntity
  8
1
  6
CONTINUOUS
 62
   150
 48
0.75
100
AcDbVertex
100
AcDb2dVertex
 10
-913.171835
 20
-74.236745
 30
0.0
 40
0.0
 41
0.0
  0
VERTEX
  5
98
100
AcDbEntity
  8
1
  6
CONTINUOUS
 62
   150
 48
0.75
100
AcDbVertex
100
AcDb2dVertex
 10
-1093.171835
 20
-74.236745
 30
0.0
 40
0.0
 41
0.0
  0
VERTEX
  5
99
100
AcDbEntity
  8
1
  6
CONTINUOUS
 62
   150
 48
0.75
100
AcDbVertex
100
AcDb2dVertex
 10
-1273.171835
 20
-74.236745
 30
0.0
 40
0.0
 41
0.0
  0
VERTEX
  5
9A
100
AcDbEntity
  8
1
  6
CONTINUOUS
 62
   150
 48
0.75
100
AcDbVertex
100
AcDb2dVertex
 10
-1453.171835
 20
-74.236745
 30
0.0
 40
0.0
 41
0.0
  0
VERTEX
  5
9B
100
AcDbEntity
  8
1
  6
CONTINUOUS
 62
   150
 48
0.75
100
AcDbVertex
100
AcDb2dVertex
 10
-1633.171835
 20
-74.236745
 30
0.0
 40
0.0
 41
0.0
  0
VERTEX
  5
9C
100
AcDbEntity
  8
1
  6
CONTINUOUS
 62
   150
 48
0.75
100
AcDbVertex
100
AcDb2dVertex
 10
-1813.171835
 20
-74.236745
 30
0.0
 40
0.0
 41
0.0
  0
VERTEX
  5
9D
100
AcDbEntity
  8
1
  6
CONTINUOUS
 62
   150
 48
0.75
100
AcDbVertex
100
AcDb2dVertex
 10
-1993.171835
 20
-74.236745
 30
0.0
 40
0.0
 41
0.0
  0
VERTEX
  5
9E
100
AcDbEntity
  8
1
  6
CONTINUOUS
 62
   150
 48
0.75
100
AcDbVertex
100
AcDb2dVertex
 10
-2083.171835
 20
-74.236745
 30
0.0
 40
0.0
 41
0.0
  0
VERTEX
  5
9F
100
AcDbEntity
  8
1
  6
CONTINUOUS
 62
   150
 48
0.75
100
AcDbVertex
100
AcDb2dVertex
 10
-2173.171835
 20
-74.236745
 30
0.0
 40
0.0
 41
0.0
  0
SEQEND
  5
A0
100
AcDbEntity
  8
0
  0
POLYLINE
  5
A1
100
AcDbEntity
  8
1
  6
CONTINUOUS
 62
   150
 48
0.75
100
AcDb2dPolyline
 66
     1
 10
0.0
 20
0.0
 30
0.0
 70
   128
  0
VERTEX
  5
A2
100
AcDbEntity
  8
1
  6
CONTINUOUS
 62
   150
 48
0.75
100
AcDbVertex
100
AcDb2dVertex
 10
-92.671835
 20
-74.236745
 30
0.0
 40
0.0
 41
0.0
  0
VERTEX
  5
A3
100
AcDbEntity
  8
1
  6
CONTINUOUS
 62
   150
 48
0.75
100
AcDbVertex
100
AcDb2dVertex
 10
-2173.171835
 20
-74.236745
 30
0.0
 40
0.0
 41
0.0
  0
SEQEND
  5
A4
100
AcDbEntity
  8
0
  0
POLYLINE
  5
A5
100
AcDbEntity
  8
1
  6
CONTINUOUS
 62
   150
 48
0.75
100
AcDb2dPolyline
 66
     1
 10
0.0
 20
0.0
 30
0.0
 70
   128
  0
VERTEX
  5
A6
100
AcDbEntity
  8
1
  6
CONTINUOUS
 62
   150
 48
0.75
100
AcDbVertex
100
AcDb2dVertex
 10
-92.671835
 20
-74.236745
 30
0.0
 40
0.0
 41
0.0
  0
VERTEX
  5
A7
100
AcDbEntity
  8
1
  6
CONTINUOUS
 62
   150
 48
0.75
100
AcDbVertex
100
AcDb2dVertex
 10
-373.171835
 20
-74.236745
 30
0.0
 40
0.0
 41
0.0
  0
SEQEND
  5
A8
100
AcDbEntity
  8
0
  0
POLYLINE
  5
A9
100
AcDbEntity
  8
1
  6
CONTINUOUS
 62
   150
 48
0.75
100
AcDb2dPolyline
 66
     1
 10
0.0
 20
0.0
 30
0.0
 70
   128
  0
VERTEX
  5
AA
100
AcDbEntity
  8
1
  6
CONTINUOUS
 62
   150
 48
0.75
100
AcDbVertex
100
AcDb2dVertex
 10
-373.181835
 20
635.297663
 30
0.0
 40
0.0
 41
0.0
  0
VERTEX
  5
AB
100
AcDbEntity
  8
1
  6
CONTINUOUS
 62
   150
 48
0.75
100
AcDbVertex
100
AcDb2dVertex
 10
-373.181835
 20
412.797663
 30
0.0
 40
0.0
 41
0.0
  0
SEQEND
  5
AC
100
AcDbEntity
  8
0
  0
POLYLINE
  5
AD
100
AcDbEntity
  8
1
  6
CONTINUOUS
 62
   150
 48
0.75
100
AcDb2dPolyline
 66
     1
 10
0.0
 20
0.0
 30
0.0
 70
   128
  0
VERTEX
  5
AE
100
AcDbEntity
  8
1
  6
CONTINUOUS
 62
   150
 48
0.75
100
AcDbVertex
100
AcDb2dVertex
 10
-463.171835
 20
633.297663
 30
0.0
 40
0.0
 41
0.0
  0
VERTEX
  5
AF
100
AcDbEntity
  8
1
  6
CONTINUOUS
 62
   150
 48
0.75
100
AcDbVertex
100
AcDb2dVertex
 10
-463.171835
 20
358.797663
 30
0.0
 40
0.0
 41
0.0
  0
SEQEND
  5
B0
100
AcDbEntity
  8
0
  0
POLYLINE
  5
B1
100
AcDbEntity
  8
1
  6
CONTINUOUS
 62
   150
 48
0.75
100
AcDb2dPolyline
 66
     1
 10
0.0
 20
0.0
 30
0.0
 70
   128
  0
VERTEX
  5
B2
100
AcDbEntity
  8
1
  6
CONTINUOUS
 62
   150
 48
0.75
100
AcDbVertex
100
AcDb2dVertex
 10
-553.171835
 20
631.297663
 30
0.0
 40
0.0
 41
0.0
  0
VERTEX
  5
B3
100
AcDbEntity
  8
1
  6
CONTINUOUS
 62
   150
 48
0.75
100
AcDbVertex
100
AcDb2dVertex
 10
-553.171835
 20
320.517663
 30
0.0
 40
0.0
 41
0.0
  0
SEQEND
  5
B4
100
AcDbEntity
  8
0
  0
POLYLINE
  5
B5
100
AcDbEntity
  8
1
  6
CONTINUOUS
 62
   150
 48
0.75
100
AcDb2dPolyline
 66
     1
 10
0.0
 20
0.0
 30
0.0
 70
   128
  0
VERTEX
  5
B6
100
AcDbEntity
  8
1
  6
CONTINUOUS
 62
   150
 48
0.75
100
AcDbVertex
100
AcDb2dVertex
 10
-733.171835
 20
628.297663
 30
0.0
 40
0.0
 41
0.0
  0
VERTEX
  5
B7
100
AcDbEntity
  8
1
  6
CONTINUOUS
 62
   150
 48
0.75
100
AcDbVertex
100
AcDb2dVertex
 10
-733.171835
 20
304.797663
 30
0.0
 40
0.0
 41
0.0
  0
SEQEND
  5
B8
100
AcDbEntity
  8
0
  0
POLYLINE
  5
B9
100
AcDbEntity
  8
1
  6
CONTINUOUS
 62
   150
 48
0.75
100
AcDb2dPolyline
 66
     1
 10
0.0
 20
0.0
 30
0.0
 70
   128
  0
VERTEX
  5
BA
100
AcDbEntity
  8
1
  6
CONTINUOUS
 62
   150
 48
0.75
100
AcDbVertex
100
AcDb2dVertex
 10
-913.171835
 20
626.297663
 30
0.0
 40
0.0
 41
0.0
  0
VERTEX
  5
BB
100
AcDbEntity
  8
1
  6
CONTINUOUS
 62
   150
 48
0.75
100
AcDbVertex
100
AcDb2dVertex
 10
-913.171835
 20
309.977663
 30
0.0
 40
0.0
 41
0.0
  0
SEQEND
  5
BC
100
AcDbEntity
  8
0
  0
POLYLINE
  5
BD
100
AcDbEntity
  8
1
  6
CONTINUOUS
 62
   150
 48
0.75
100
AcDb2dPolyline
 66
     1
 10
0.0
 20
0.0
 30
0.0
 70
   128
  0
VERTEX
  5
BE
100
AcDbEntity
  8
1
  6
CONTINUOUS
 62
   150
 48
0.75
100
AcDbVertex
100
AcDb2dVertex
 10
-1093.171835
 20
623.797663
 30
0.0
 40
0.0
 41
0.0
  0
VERTEX
  5
BF
100
AcDbEntity
  8
1
  6
CONTINUOUS
 62
   150
 48
0.75
100
AcDbVertex
100
AcDb2dVertex
 10
-1093.171835
 20
313.857663
 30
0.0
 40
0.0
 41
0.0
  0
SEQEND
  5
C0
100
AcDbEntity
  8
0
  0
POLYLINE
  5
C1
100
AcDbEntity
  8
1
  6
CONTINUOUS
 62
   150
 48
0.75
100
AcDb2dPolyline
 66
     1
 10
0.0
 20
0.0
 30
0.0
 70
   128
  0
VERTEX
  5
C2
100
AcDbEntity
  8
1
  6
CONTINUOUS
 62
   150
 48
0.75
100
AcDbVertex
100
AcDb2dVertex
 10
-1273.171835
 20
622.297663
 30
0.0
 40
0.0
 41
0.0
  0
VERTEX
  5
C3
100
AcDbEntity
  8
1
  6
CONTINUOUS
 62
   150
 48
0.75
100
AcDbVertex
100
AcDb2dVertex
 10
-1273.171835
 20
317.777663
 30
0.0
 40
0.0
 41
0.0
  0
SEQEND
  5
C4
100
AcDbEntity
  8
0
  0
POLYLINE
  5
C5
100
AcDbEntity
  8
1
  6
CONTINUOUS
 62
   150
 48
0.75
100
AcDb2dPolyline
 66
     1
 10
0.0
 20
0.0
 30
0.0
 70
   128
  0
VERTEX
  5
C6
100
AcDbEntity
  8
1
  6
CONTINUOUS
 62
   150
 48
0.75
100
AcDbVertex
100
AcDb2dVertex
 10
-1453.171835
 20
619.297663
 30
0.0
 40
0.0
 41
0.0
  0
VERTEX
  5
C7
100
AcDbEntity
  8
1
  6
CONTINUOUS
 62
   150
 48
0.75
100
AcDbVertex
100
AcDb2dVertex
 10
-1453.171835
 20
321.277663
 30
0.0
 40
0.0
 41
0.0
  0
SEQEND
  5
C8
100
AcDbEntity
  8
0
  0
POLYLINE
  5
C9
100
AcDbEntity
  8
1
  6
CONTINUOUS
 62
   150
 48
0.75
100
AcDb2dPolyline
 66
     1
 10
0.0
 20
0.0
 30
0.0
 70
   128
  0
VERTEX
  5
CA
100
AcDbEntity
  8
1
  6
CONTINUOUS
 62
   150
 48
0.75
100
AcDbVertex
100
AcDb2dVertex
 10
-1633.171835
 20
618.297663
 30
0.0
 40
0.0
 41
0.0
  0
VERTEX
  5
CB
100
AcDbEntity
  8
1
  6
CONTINUOUS
 62
   150
 48
0.75
100
AcDbVertex
100
AcDb2dVertex
 10
-1633.171835
 20
323.917663
 30
0.0
 40
0.0
 41
0.0
  0
SEQEND
  5
CC
100
AcDbEntity
  8
0
  0
POLYLINE
  5
CD
100
AcDbEntity
  8
1
  6
CONTINUOUS
 62
   150
 48
0.75
100
AcDb2dPolyline
 66
     1
 10
0.0
 20
0.0
 30
0.0
 70
   128
  0
VERTEX
  5
CE
100
AcDbEntity
  8
1
  6
CONTINUOUS
 62
   150
 48
0.75
100
AcDbVertex
100
AcDb2dVertex
 10
-1813.171835
 20
616.297663
 30
0.0
 40
0.0
 41
0.0
  0
VERTEX
  5
CF
100
AcDbEntity
  8
1
  6
CONTINUOUS
 62
   150
 48
0.75
100
AcDbVertex
100
AcDb2dVertex
 10
-1813.171835
 20
327.497663
 30
0.0
 40
0.0
 41
0.0
  0
SEQEND
  5
D0
100
AcDbEntity
  8
0
  0
POLYLINE
  5
D1
100
AcDbEntity
  8
1
  6
CONTINUOUS
 62
   150
 48
0.75
100
AcDb2dPolyline
 66
     1
 10
0.0
 20
0.0
 30
0.0
 70
   128
  0
VERTEX
  5
D2
100
AcDbEntity
  8
1
  6
CONTINUOUS
 62
   150
 48
0.75
100
AcDbVertex
100
AcDb2dVertex
 10
-1993.171835
 20
615.297663
 30
0.0
 40
0.0
 41
0.0
  0
VERTEX
  5
D3
100
AcDbEntity
  8
1
  6
CONTINUOUS
 62
   150
 48
0.75
100
AcDbVertex
100
AcDb2dVertex
 10
-1993.171835
 20
331.057663
 30
0.0
 40
0.0
 41
0.0
  0
SEQEND
  5
D4
100
AcDbEntity
  8
0
  0
POLYLINE
  5
D5
100
AcDbEntity
  8
1
  6
CONTINUOUS
 62
   150
 48
0.75
100
AcDb2dPolyline
 66
     1
 10
0.0
 20
0.0
 30
0.0
 70
   128
  0
VERTEX
  5
D6
100
AcDbEntity
  8
1
  6
CONTINUOUS
 62
   150
 48
0.75
100
AcDbVertex
100
AcDb2dVertex
 10
-2083.171835
 20
614.297663
 30
0.0
 40
0.0
 41
0.0
  0
VERTEX
  5
D7
100
AcDbEntity
  8
1
  6
CONTINUOUS
 62
   150
 48
0.75
100
AcDbVertex
100
AcDb2dVertex
 10
-2083.171835
 20
333.677663
 30
0.0
 40
0.0
 41
0.0
  0
SEQEND
  5
D8
100
AcDbEntity
  8
0
  0
POLYLINE
  5
D9
100
AcDbEntity
  8
1
  6
CONTINUOUS
 62
   150
 48
0.75
100
AcDb2dPolyline
 66
     1
 10
0.0
 20
0.0
 30
0.0
 70
   128
  0
VERTEX
  5
DA
100
AcDbEntity
  8
1
  6
CONTINUOUS
 62
   150
 48
0.75
100
AcDbVertex
100
AcDb2dVertex
 10
-2173.171835
 20
613.297663
 30
0.0
 40
0.0
 41
0.0
  0
VERTEX
  5
DB
100
AcDbEntity
  8
1
  6
CONTINUOUS
 62
   150
 48
0.75
100
AcDbVertex
100
AcDb2dVertex
 10
-2173.171835
 20
334.957663
 30
0.0
 40
0.0
 41
0.0
  0
SEQEND
  5
DC
100
AcDbEntity
  8
0
  0
POLYLINE
  5
DD
100
AcDbEntity
  8
1
  6
CONTINUOUS
 62
   150
 48
0.75
100
AcDb2dPolyline
 66
     1
 10
0.0
 20
0.0
 30
0.0
 70
   128
  0
VERTEX
  5
DE
100
AcDbEntity
  8
1
  6
CONTINUOUS
 62
   150
 48
0.75
100
AcDbVertex
100
AcDb2dVertex
 10
-92.671835
 20
639.957663
 30
0.0
 40
0.0
 41
0.0
  0
VERTEX
  5
DF
100
AcDbEntity
  8
1
  6
CONTINUOUS
 62
   150
 48
0.75
100
AcDbVertex
100
AcDb2dVertex
 10
-373.181835
 20
635.297663
 30
0.0
 40
0.0
 41
0.0
  0
VERTEX
  5
E0
100
AcDbEntity
  8
1
  6
CONTINUOUS
 62
   150
 48
0.75
100
AcDbVertex
100
AcDb2dVertex
 10
-463.171835
 20
633.297663
 30
0.0
 40
0.0
 41
0.0
  0
VERTEX
  5
E1
100
AcDbEntity
  8
1
  6
CONTINUOUS
 62
   150
 48
0.75
100
AcDbVertex
100
AcDb2dVertex
 10
-553.171835
 20
631.297663
 30
0.0
 40
0.0
 41
0.0
  0
VERTEX
  5
E2
100
AcDbEntity
  8
1
  6
CONTINUOUS
 62
   150
 48
0.75
100
AcDbVertex
100
AcDb2dVertex
 10
-733.171835
 20
628.297663
 30
0.0
 40
0.0
 41
0.0
  0
VERTEX
  5
E3
100
AcDbEntity
  8
1
  6
CONTINUOUS
 62
   150
 48
0.75
100
AcDbVertex
100
AcDb2dVertex
 10
-913.171835
 20
626.297663
 30
0.0
 40
0.0
 41
0.0
  0
VERTEX
  5
E4
100
AcDbEntity
  8
1
  6
CONTINUOUS
 62
   150
 48
0.75
100
AcDbVertex
100
AcDb2dVertex
 10
-1093.171835
 20
623.797663
 30
0.0
 40
0.0
 41
0.0
  0
VERTEX
  5
E5
100
AcDbEntity
  8
1
  6
CONTINUOUS
 62
   150
 48
0.75
100
AcDbVertex
100
AcDb2dVertex
 10
-1273.171835
 20
622.297663
 30
0.0
 40
0.0
 41
0.0
  0
VERTEX
  5
E6
100
AcDbEntity
  8
1
  6
CONTINUOUS
 62
   150
 48
0.75
100
AcDbVertex
100
AcDb2dVertex
 10
-1453.171835
 20
619.297663
 30
0.0
 40
0.0
 41
0.0
  0
VERTEX
  5
E7
100
AcDbEntity
  8
1
  6
CONTINUOUS
 62
   150
 48
0.75
100
AcDbVertex
100
AcDb2dVertex
 10
-1633.171835
 20
618.297663
 30
0.0
 40
0.0
 41
0.0
  0
VERTEX
  5
E8
100
AcDbEntity
  8
1
  6
CONTINUOUS
 62
   150
 48
0.75
100
AcDbVertex
100
AcDb2dVertex
 10
-1813.171835
 20
616.297663
 30
0.0
 40
0.0
 41
0.0
  0
VERTEX
  5
E9
100
AcDbEntity
  8
1
  6
CONTINUOUS
 62
   150
 48
0.75
100
AcDbVertex
100
AcDb2dVertex
 10
-1993.171835
 20
615.297663
 30
0.0
 40
0.0
 41
0.0
  0
VERTEX
  5
EA
100
AcDbEntity
  8
1
  6
CONTINUOUS
 62
   150
 48
0.75
100
AcDbVertex
100
AcDb2dVertex
 10
-2083.171835
 20
614.297663
 30
0.0
 40
0.0
 41
0.0
  0
VERTEX
  5
EB
100
AcDbEntity
  8
1
  6
CONTINUOUS
 62
   150
 48
0.75
100
AcDbVertex
100
AcDb2dVertex
 10
-2173.171835
 20
613.297663
 30
0.0
 40
0.0
 41
0.0
  0
SEQEND
  5
EC
100
AcDbEntity
  8
0
  0
POLYLINE
  5
ED
100
AcDbEntity
  8
1
  6
CONTINUOUS
 62
   150
 48
0.75
100
AcDb2dPolyline
 66
     1
 10
0.0
 20
0.0
 30
0.0
 70
   128
  0
VERTEX
  5
EE
100
AcDbEntity
  8
1
  6
CONTINUOUS
 62
   150
 48
0.75
100
AcDbVertex
100
AcDb2dVertex
 10
-127.131835
 20
612.457663
 30
0.0
 40
0.0
 41
0.0
  0
VERTEX
  5
EF
100
AcDbEntity
  8
1
  6
CONTINUOUS
 62
   150
 48
0.75
100
AcDbVertex
100
AcDb2dVertex
 10
-373.181835
 20
607.797663
 30
0.0
 40
0.0
 41
0.0
  0
VERTEX
  5
F0
100
AcDbEntity
  8
1
  6
CONTINUOUS
 62
   150
 48
0.75
100
AcDbVertex
100
AcDb2dVertex
 10
-463.171835
 20
605.797663
 30
0.0
 40
0.0
 41
0.0
  0
VERTEX
  5
F1
100
AcDbEntity
  8
1
  6
CONTINUOUS
 62
   150
 48
0.75
100
AcDbVertex
100
AcDb2dVertex
 10
-553.171835
 20
603.797663
 30
0.0
 40
0.0
 41
0.0
  0
VERTEX
  5
F2
100
AcDbEntity
  8
1
  6
CONTINUOUS
 62
   150
 48
0.75
100
AcDbVertex
100
AcDb2dVertex
 10
-733.171835
 20
600.797663
 30
0.0
 40
0.0
 41
0.0
  0
VERTEX
  5
F3
100
AcDbEntity
  8
1
  6
CONTINUOUS
 62
   150
 48
0.75
100
AcDbVertex
100
AcDb2dVertex
 10
-913.171835
 20
598.797663
 30
0.0
 40
0.0
 41
0.0
  0
VERTEX
  5
F4
100
AcDbEntity
  8
1
  6
CONTINUOUS
 62
   150
 48
0.75
100
AcDbVertex
100
AcDb2dVertex
 10
-1093.171835
 20
596.297663
 30
0.0
 40
0.0
 41
0.0
  0
VERTEX
  5
F5
100
AcDbEntity
  8
1
  6
CONTINUOUS
 62
   150
 48
0.75
100
AcDbVertex
100
AcDb2dVertex
 10
-1273.171835
 20
594.797663
 30
0.0
 40
0.0
 41
0.0
  0
VERTEX
  5
F6
100
AcDbEntity
  8
1
  6
CONTINUOUS
 62
   150
 48
0.75
100
AcDbVertex
100
AcDb2dVertex
 10
-1453.171835
 20
591.797663
 30
0.0
 40
0.0
 41
0.0
  0
VERTEX
  5
F7
100
AcDbEntity
  8
1
  6
CONTINUOUS
 62
   150
 48
0.75
100
AcDbVertex
100
AcDb2dVertex
 10
-1633.171835
 20
590.797663
 30
0.0
 40
0.0
 41
0.0
  0
VERTEX
  5
F8
100
AcDbEntity
  8
1
  6
CONTINUOUS
 62
   150
 48
0.75
100
AcDbVertex
100
AcDb2dVertex
 10
-1813.171835
 20
588.797663
 30
0.0
 40
0.0
 41
0.0
  0
VERTEX
  5
F9
100
AcDbEntity
  8
1
  6
CONTINUOUS
 62
   150
 48
0.75
100
AcDbVertex
100
AcDb2dVertex
 10
-1993.171835
 20
587.797663
 30
0.0
 40
0.0
 41
0.0
  0
VERTEX
  5
FA
100
AcDbEntity
  8
1
  6
CONTINUOUS
 62
   150
 48
0.75
100
AcDbVertex
100
AcDb2dVertex
 10
-2083.171835
 20
586.797663
 30
0.0
 40
0.0
 41
0.0
  0
VERTEX
  5
FB
100
AcDbEntity
  8
1
  6
CONTINUOUS
 62
   150
 48
0.75
100
AcDbVertex
100
AcDb2dVertex
 10
-2173.171835
 20
585.797663
 30
0.0
 40
0.0
 41
0.0
  0
SEQEND
  5
FC
100
AcDbEntity
  8
0
  0
POLYLINE
  5
FD
100
AcDbEntity
  8
1
  6
CONTINUOUS
 62
   150
 48
0.75
100
AcDb2dPolyline
 66
     1
 10
0.0
 20
0.0
 30
0.0
 70
   128
  0
VERTEX
  5
FE
100
AcDbEntity
  8
1
  6
CONTINUOUS
 62
   150
 48
0.75
100
AcDbVertex
100
AcDb2dVertex
 10
-284.161835
 20
484.237663
 30
0.0
 40
0.0
 41
0.0
  0
VERTEX
  5
FF
100
AcDbEntity
  8
1
  6
CONTINUOUS
 62
   150
 48
0.75
100
AcDbVertex
100
AcDb2dVertex
 10
-373.181835
 20
476.047663
 30
0.0
 40
0.0
 41
0.0
  0
VERTEX
  5
100
100
AcDbEntity
  8
1
  6
CONTINUOUS
 62
   150
 48
0.75
100
AcDbVertex
100
AcDb2dVertex
 10
-463.171835
 20
467.397663
 30
0.0
 40
0.0
 41
0.0
  0
VERTEX
  5
101
100
AcDbEntity
  8
1
  6
CONTINUOUS
 62
   150
 48
0.75
100
AcDbVertex
100
AcDb2dVertex
 10
-553.171835
 20
457.197663
 30
0.0
 40
0.0
 41
0.0
  0
VERTEX
  5
102
100
AcDbEntity
  8
1
  6
CONTINUOUS
 62
   150
 48
0.75
100
AcDbVertex
100
AcDb2dVertex
 10
-733.171835
 20
436.197663
 30
0.0
 40
0.0
 41
0.0
  0
VERTEX
  5
103
100
AcDbEntity
  8
1
  6
CONTINUOUS
 62
   150
 48
0.75
100
AcDbVertex
100
AcDb2dVertex
 10
-913.171835
 20
418.797663
 30
0.0
 40
0.0
 41
0.0
  0
VERTEX
  5
104
100
AcDbEntity
  8
1
  6
CONTINUOUS
 62
   150
 48
0.75
100
AcDbVertex
100
AcDb2dVertex
 10
-1093.171835
 20
407.597663
 30
0.0
 40
0.0
 41
0.0
  0
VERTEX
  5
105
100
AcDbEntity
  8
1
  6
CONTINUOUS
 62
   150
 48
0.75
100
AcDbVertex
100
AcDb2dVertex
 10
-1273.171835
 20
400.297663
 30
0.0
 40
0.0
 41
0.0
  0
VERTEX
  5
106
100
AcDbEntity
  8
1
  6
CONTINUOUS
 62
   150
 48
0.75
100
AcDbVertex
100
AcDb2dVertex
 10
-1453.171835
 20
395.597663
 30
0.0
 40
0.0
 41
0.0
  0
VERTEX
  5
107
100
AcDbEntity
  8
1
  6
CONTINUOUS
 62
   150
 48
0.75
100
AcDbVertex
100
AcDb2dVertex
 10
-1633.171835
 20
392.597663
 30
0.0
 40
0.0
 41
0.0
  0
VERTEX
  5
108
100
AcDbEntity
  8
1
  6
CONTINUOUS
 62
   150
 48
0.75
100
AcDbVertex
100
AcDb2dVertex
 10
-1813.171835
 20
389.797663
 30
0.0
 40
0.0
 41
0.0
  0
VERTEX
  5
109
100
AcDbEntity
  8
1
  6
CONTINUOUS
 62
   150
 48
0.75
100
AcDbVertex
100
AcDb2dVertex
 10
-1993.171835
 20
387.097663
 30
0.0
 40
0.0
 41
0.0
  0
VERTEX
  5
10A
100
AcDbEntity
  8
1
  6
CONTINUOUS
 62
   150
 48
0.75
100
AcDbVertex
100
AcDb2dVertex
 10
-2083.171835
 20
385.597663
 30
0.0
 40
0.0
 41
0.0
  0
VERTEX
  5
10B
100
AcDbEntity
  8
1
  6
CONTINUOUS
 62
   150
 48
0.75
100
AcDbVertex
100
AcDb2dVertex
 10
-2173.171835
 20
384.597663
 30
0.0
 40
0.0
 41
0.0
  0
SEQEND
  5
10C
100
AcDbEntity
  8
0
  0
POLYLINE
  5
10D
100
AcDbEntity
  8
1
  6
CONTINUOUS
 62
   150
 48
0.75
100
AcDb2dPolyline
 66
     1
 10
0.0
 20
0.0
 30
0.0
 70
   128
  0
VERTEX
  5
10E
100
AcDbEntity
  8
1
  6
CONTINUOUS
 62
   150
 48
0.75
100
AcDbVertex
100
AcDb2dVertex
 10
-373.171835
 20
412.797663
 30
0.0
 40
0.0
 41
0.0
  0
VERTEX
  5
10F
100
AcDbEntity
  8
1
  6
CONTINUOUS
 62
   150
 48
0.75
100
AcDbVertex
100
AcDb2dVertex
 10
-373.181835
 20
412.797663
 30
0.0
 40
0.0
 41
0.0
  0
VERTEX
  5
110
100
AcDbEntity
  8
1
  6
CONTINUOUS
 62
   150
 48
0.75
100
AcDbVertex
100
AcDb2dVertex
 10
-463.171835
 20
358.797663
 30
0.0
 40
0.0
 41
0.0
  0
VERTEX
  5
111
100
AcDbEntity
  8
1
  6
CONTINUOUS
 62
   150
 48
0.75
100
AcDbVertex
100
AcDb2dVertex
 10
-553.171835
 20
320.517663
 30
0.0
 40
0.0
 41
0.0
  0
VERTEX
  5
112
100
AcDbEntity
  8
1
  6
CONTINUOUS
 62
   150
 48
0.75
100
AcDbVertex
100
AcDb2dVertex
 10
-733.171835
 20
304.797663
 30
0.0
 40
0.0
 41
0.0
  0
VERTEX
  5
113
100
AcDbEntity
  8
1
  6
CONTINUOUS
 62
   150
 48
0.75
100
AcDbVertex
100
AcDb2dVertex
 10
-913.171835
 20
309.977663
 30
0.0
 40
0.0
 41
0.0
  0
VERTEX
  5
114
100
AcDbEntity
  8
1
  6
CONTINUOUS
 62
   150
 48
0.75
100
AcDbVertex
100
AcDb2dVertex
 10
-1093.171835
 20
313.857663
 30
0.0
 40
0.0
 41
0.0
  0
VERTEX
  5
115
100
AcDbEntity
  8
1
  6
CONTINUOUS
 62
   150
 48
0.75
100
AcDbVertex
100
AcDb2dVertex
 10
-1273.171835
 20
317.777663
 30
0.0
 40
0.0
 41
0.0
  0
VERTEX
  5
116
100
AcDbEntity
  8
1
  6
CONTINUOUS
 62
   150
 48
0.75
100
AcDbVertex
100
AcDb2dVertex
 10
-1453.171835
 20
321.277663
 30
0.0
 40
0.0
 41
0.0
  0
VERTEX
  5
117
100
AcDbEntity
  8
1
  6
CONTINUOUS
 62
   150
 48
0.75
100
AcDbVertex
100
AcDb2dVertex
 10
-1633.171835
 20
323.917663
 30
0.0
 40
0.0
 41
0.0
  0
VERTEX
  5
118
100
AcDbEntity
  8
1
  6
CONTINUOUS
 62
   150
 48
0.75
100
AcDbVertex
100
AcDb2dVertex
 10
-1813.171835
 20
327.497663
 30
0.0
 40
0.0
 41
0.0
  0
VERTEX
  5
119
100
AcDbEntity
  8
1
  6
CONTINUOUS
 62
   150
 48
0.75
100
AcDbVertex
100
AcDb2dVertex
 10
-1993.171835
 20
331.057663
 30
0.0
 40
0.0
 41
0.0
  0
VERTEX
  5
11A
100
AcDbEntity
  8
1
  6
CONTINUOUS
 62
   150
 48
0.75
100
AcDbVertex
100
AcDb2dVertex
 10
-2083.171835
 20
333.677663
 30
0.0
 40
0.0
 41
0.0
  0
VERTEX
  5
11B
100
AcDbEntity
  8
1
  6
CONTINUOUS
 62
   150
 48
0.75
100
AcDbVertex
100
AcDb2dVertex
 10
-2173.171835
 20
334.957663
 30
0.0
 40
0.0
 41
0.0
  0
SEQEND
  5
11C
100
AcDbEntity
  8
0
  0
POLYLINE
  5
11D
100
AcDbEntity
  8
1
  6
CONTINUOUS
 62
   150
 48
0.75
100
AcDb2dPolyline
 66
     1
 10
0.0
 20
0.0
 30
0.0
 70
   128
  0
VERTEX
  5
11E
100
AcDbEntity
  8
1
  6
CONTINUOUS
 62
   150
 48
0.75
100
AcDbVertex
100
AcDb2dVertex
 10
-92.671835
 20
639.957663
 30
0.0
 40
0.0
 41
0.0
  0
VERTEX
  5
11F
100
AcDbEntity
  8
1
  6
CONTINUOUS
 62
   150
 48
0.75
100
AcDbVertex
100
AcDb2dVertex
 10
-127.131835
 20
612.457663
 30
0.0
 40
0.0
 41
0.0
  0
VERTEX
  5
120
100
AcDbEntity
  8
1
  6
CONTINUOUS
 62
   150
 48
0.75
100
AcDbVertex
100
AcDb2dVertex
 10
-284.161835
 20
484.237663
 30
0.0
 40
0.0
 41
0.0
  0
VERTEX
  5
121
100
AcDbEntity
  8
1
  6
CONTINUOUS
 62
   150
 48
0.75
100
AcDbVertex
100
AcDb2dVertex
 10
-373.171835
 20
412.797663
 30
0.0
 40
0.0
 41
0.0
  0
SEQEND
  5
122
100
AcDbEntity
  8
0
  0
POLYLINE
  5
123
100
AcDbEntity
  8
1
  6
CONTINUOUS
 62
   150
 48
0.75
100
AcDb2dPolyline
 66
     1
 10
0.0
 20
0.0
 30
0.0
 70
   128
  0
VERTEX
  5
124
100
AcDbEntity
  8
1
  6
CONTINUOUS
 62
   150
 48
0.75
100
AcDbVertex
100
AcDb2dVertex
 10
-2843.338944
 20
579.87773
 30
0.0
 40
0.0
 41
0.0
  0
VERTEX
  5
125
100
AcDbEntity
  8
1
  6
CONTINUOUS
 62
   150
 48
0.75
100
AcDbVertex
100
AcDb2dVertex
 10
-2507.138944
 20
570.55773
 30
0.0
 40
0.0
 41
0.0
  0
VERTEX
  5
126
100
AcDbEntity
  8
1
  6
CONTINUOUS
 62
   150
 48
0.75
100
AcDbVertex
100
AcDb2dVertex
 10
-2425.918944
 20
566.55773
 30
0.0
 40
0.0
 41
0.0
  0
VERTEX
  5
127
100
AcDbEntity
  8
1
  6
CONTINUOUS
 62
   150
 48
0.75
100
AcDbVertex
100
AcDb2dVertex
 10
-2368.698944
 20
562.55773
 30
0.0
 40
0.0
 41
0.0
  0
VERTEX
  5
128
100
AcDbEntity
  8
1
  6
CONTINUOUS
 62
   150
 48
0.75
100
AcDbVertex
100
AcDb2dVertex
 10
-2314.578944
 20
556.55773
 30
0.0
 40
0.0
 41
0.0
  0
VERTEX
  5
129
100
AcDbEntity
  8
1
  6
CONTINUOUS
 62
   150
 48
0.75
100
AcDbVertex
100
AcDb2dVertex
 10
-2293.538944
 20
552.55773
 30
0.0
 40
0.0
 41
0.0
  0
VERTEX
  5
12A
100
AcDbEntity
  8
1
  6
CONTINUOUS
 62
   150
 48
0.75
100
AcDbVertex
100
AcDb2dVertex
 10
-2278.338944
 20
547.55773
 30
0.0
 40
0.0
 41
0.0
  0
VERTEX
  5
12B
100
AcDbEntity
  8
1
  6
CONTINUOUS
 62
   150
 48
0.75
100
AcDbVertex
100
AcDb2dVertex
 10
-2274.338944
 20
544.55773
 30
0.0
 40
0.0
 41
0.0
  0
VERTEX
  5
12C
100
AcDbEntity
  8
1
  6
CONTINUOUS
 62
   150
 48
0.75
100
AcDbVertex
100
AcDb2dVertex
 10
-2278.338944
 20
538.55773
 30
0.0
 40
0.0
 41
0.0
  0
VERTEX
  5
12D
100
AcDbEntity
  8
1
  6
CONTINUOUS
 62
   150
 48
0.75
100
AcDbVertex
100
AcDb2dVertex
 10
-2284.358944
 20
536.55773
 30
0.0
 40
0.0
 41
0.0
  0
VERTEX
  5
12E
100
AcDbEntity
  8
1
  6
CONTINUOUS
 62
   150
 48
0.75
100
AcDbVertex
100
AcDb2dVertex
 10
-2288.758944
 20
532.55773
 30
0.0
 40
0.0
 41
0.0
  0
VERTEX
  5
12F
100
AcDbEntity
  8
1
  6
CONTINUOUS
 62
   150
 48
0.75
100
AcDbVertex
100
AcDb2dVertex
 10
-2297.178944
 20
530.55773
 30
0.0
 40
0.0
 41
0.0
  0
VERTEX
  5
130
100
AcDbEntity
  8
1
  6
CONTINUOUS
 62
   150
 48
0.75
100
AcDbVertex
100
AcDb2dVertex
 10
-2300.378944
 20
528.55773
 30
0.0
 40
0.0
 41
0.0
  0
VERTEX
  5
131
100
AcDbEntity
  8
1
  6
CONTINUOUS
 62
   150
 48
0.75
100
AcDbVertex
100
AcDb2dVertex
 10
-2306.398944
 20
526.55773
 30
0.0
 40
0.0
 41
0.0
  0
SEQEND
  5
132
100
AcDbEntity
  8
0
  0
POLYLINE
  5
133
100
AcDbEntity
  8
1
  6
CONTINUOUS
 62
   150
 48
0.75
100
AcDb2dPolyline
 66
     1
 10
0.0
 20
0.0
 30
0.0
 70
   128
  0
VERTEX
  5
134
100
AcDbEntity
  8
1
  6
CONTINUOUS
 62
   150
 48
0.75
100
AcDbVertex
100
AcDb2dVertex
 10
-2843.338944
 20
579.87773
 30
0.0
 40
0.0
 41
0.0
  0
VERTEX
  5
135
100
AcDbEntity
  8
1
  6
CONTINUOUS
 62
   150
 48
0.75
100
AcDbVertex
100
AcDb2dVertex
 10
-3179.538944
 20
570.55773
 30
0.0
 40
0.0
 41
0.0
  0
VERTEX
  5
136
100
AcDbEntity
  8
1
  6
CONTINUOUS
 62
   150
 48
0.75
100
AcDbVertex
100
AcDb2dVertex
 10
-3260.758944
 20
566.55773
 30
0.0
 40
0.0
 41
0.0
  0
VERTEX
  5
137
100
AcDbEntity
  8
1
  6
CONTINUOUS
 62
   150
 48
0.75
100
AcDbVertex
100
AcDb2dVertex
 10
-3317.978944
 20
562.55773
 30
0.0
 40
0.0
 41
0.0
  0
VERTEX
  5
138
100
AcDbEntity
  8
1
  6
CONTINUOUS
 62
   150
 48
0.75
100
AcDbVertex
100
AcDb2dVertex
 10
-3372.098944
 20
556.55773
 30
0.0
 40
0.0
 41
0.0
  0
VERTEX
  5
139
100
AcDbEntity
  8
1
  6
CONTINUOUS
 62
   150
 48
0.75
100
AcDbVertex
100
AcDb2dVertex
 10
-3393.138944
 20
552.55773
 30
0.0
 40
0.0
 41
0.0
  0
VERTEX
  5
13A
100
AcDbEntity
  8
1
  6
CONTINUOUS
 62
   150
 48
0.75
100
AcDbVertex
100
AcDb2dVertex
 10
-3408.338944
 20
547.55773
 30
0.0
 40
0.0
 41
0.0
  0
VERTEX
  5
13B
100
AcDbEntity
  8
1
  6
CONTINUOUS
 62
   150
 48
0.75
100
AcDbVertex
100
AcDb2dVertex
 10
-3412.338944
 20
544.55773
 30
0.0
 40
0.0
 41
0.0
  0
VERTEX
  5
13C
100
AcDbEntity
  8
1
  6
CONTINUOUS
 62
   150
 48
0.75
100
AcDbVertex
100
AcDb2dVertex
 10
-3408.338944
 20
538.55773
 30
0.0
 40
0.0
 41
0.0
  0
VERTEX
  5
13D
100
AcDbEntity
  8
1
  6
CONTINUOUS
 62
   150
 48
0.75
100
AcDbVertex
100
AcDb2dVertex
 10
-3402.318944
 20
536.55773
 30
0.0
 40
0.0
 41
0.0
  0
VERTEX
  5
13E
100
AcDbEntity
  8
1
  6
CONTINUOUS
 62
   150
 48
0.75
100
AcDbVertex
100
AcDb2dVertex
 10
-3397.918944
 20
532.55773
 30
0.0
 40
0.0
 41
0.0
  0
VERTEX
  5
13F
100
AcDbEntity
  8
1
  6
CONTINUOUS
 62
   150
 48
0.75
100
AcDbVertex
100
AcDb2dVertex
 10
-3389.498944
 20
530.55773
 30
0.0
 40
0.0
 41
0.0
  0
VERTEX
  5
140
100
AcDbEntity
  8
1
  6
CONTINUOUS
 62
   150
 48
0.75
100
AcDbVertex
100
AcDb2dVertex
 10
-3386.298944
 20
528.55773
 30
0.0
 40
0.0
 41
0.0
  0
VERTEX
  5
141
100
AcDbEntity
  8
1
  6
CONTINUOUS
 62
   150
 48
0.75
100
AcDbVertex
100
AcDb2dVertex
 10
-3380.278944
 20
526.55773
 30
0.0
 40
0.0
 41
0.0
  0
SEQEND
  5
142
100
AcDbEntity
  8
0
  0
POLYLINE
  5
143
100
AcDbEntity
  8
1
  6
CONTINUOUS
 62
   150
 48
0.75
100
AcDb2dPolyline
 66
     1
 10
0.0
 20
0.0
 30
0.0
 70
   128
  0
VERTEX
  5
144
100
AcDbEntity
  8
1
  6
CONTINUOUS
 62
   150
 48
0.75
100
AcDbVertex
100
AcDb2dVertex
 10
-2843.338944
 20
524.87773
 30
0.0
 40
0.0
 41
0.0
  0
VERTEX
  5
145
100
AcDbEntity
  8
1
  6
CONTINUOUS
 62
   150
 48
0.75
100
AcDbVertex
100
AcDb2dVertex
 10
-2520.378944
 20
515.55773
 30
0.0
 40
0.0
 41
0.0
  0
VERTEX
  5
146
100
AcDbEntity
  8
1
  6
CONTINUOUS
 62
   150
 48
0.75
100
AcDbVertex
100
AcDb2dVertex
 10
-2438.618944
 20
511.55773
 30
0.0
 40
0.0
 41
0.0
  0
VERTEX
  5
147
100
AcDbEntity
  8
1
  6
CONTINUOUS
 62
   150
 48
0.75
100
AcDbVertex
100
AcDb2dVertex
 10
-2378.518944
 20
507.55773
 30
0.0
 40
0.0
 41
0.0
  0
VERTEX
  5
148
100
AcDbEntity
  8
1
  6
CONTINUOUS
 62
   150
 48
0.75
100
AcDbVertex
100
AcDb2dVertex
 10
-2318.418944
 20
501.55773
 30
0.0
 40
0.0
 41
0.0
  0
VERTEX
  5
149
100
AcDbEntity
  8
1
  6
CONTINUOUS
 62
   150
 48
0.75
100
AcDbVertex
100
AcDb2dVertex
 10
-2290.358944
 20
497.55773
 30
0.0
 40
0.0
 41
0.0
  0
VERTEX
  5
14A
100
AcDbEntity
  8
1
  6
CONTINUOUS
 62
   150
 48
0.75
100
AcDbVertex
100
AcDb2dVertex
 10
-2278.338944
 20
492.55773
 30
0.0
 40
0.0
 41
0.0
  0
VERTEX
  5
14B
100
AcDbEntity
  8
1
  6
CONTINUOUS
 62
   150
 48
0.75
100
AcDbVertex
100
AcDb2dVertex
 10
-2274.338944
 20
489.55773
 30
0.0
 40
0.0
 41
0.0
  0
VERTEX
  5
14C
100
AcDbEntity
  8
1
  6
CONTINUOUS
 62
   150
 48
0.75
100
AcDbVertex
100
AcDb2dVertex
 10
-2278.338944
 20
483.55773
 30
0.0
 40
0.0
 41
0.0
  0
VERTEX
  5
14D
100
AcDbEntity
  8
1
  6
CONTINUOUS
 62
   150
 48
0.75
100
AcDbVertex
100
AcDb2dVertex
 10
-2284.358944
 20
481.55773
 30
0.0
 40
0.0
 41
0.0
  0
VERTEX
  5
14E
100
AcDbEntity
  8
1
  6
CONTINUOUS
 62
   150
 48
0.75
100
AcDbVertex
100
AcDb2dVertex
 10
-2288.758944
 20
477.55773
 30
0.0
 40
0.0
 41
0.0
  0
VERTEX
  5
14F
100
AcDbEntity
  8
1
  6
CONTINUOUS
 62
   150
 48
0.75
100
AcDbVertex
100
AcDb2dVertex
 10
-2297.178944
 20
475.55773
 30
0.0
 40
0.0
 41
0.0
  0
VERTEX
  5
150
100
AcDbEntity
  8
1
  6
CONTINUOUS
 62
   150
 48
0.75
100
AcDbVertex
100
AcDb2dVertex
 10
-2300.378944
 20
473.55773
 30
0.0
 40
0.0
 41
0.0
  0
VERTEX
  5
151
100
AcDbEntity
  8
1
  6
CONTINUOUS
 62
   150
 48
0.75
100
AcDbVertex
100
AcDb2dVertex
 10
-2306.398944
 20
471.55773
 30
0.0
 40
0.0
 41
0.0
  0
SEQEND
  5
152
100
AcDbEntity
  8
0
  0
POLYLINE
  5
153
100
AcDbEntity
  8
1
  6
CONTINUOUS
 62
   150
 48
0.75
100
AcDb2dPolyline
 66
     1
 10
0.0
 20
0.0
 30
0.0
 70
   128
  0
VERTEX
  5
154
100
AcDbEntity
  8
1
  6
CONTINUOUS
 62
   150
 48
0.75
100
AcDbVertex
100
AcDb2dVertex
 10
-2843.338944
 20
524.87773
 30
0.0
 40
0.0
 41
0.0
  0
VERTEX
  5
155
100
AcDbEntity
  8
1
  6
CONTINUOUS
 62
   150
 48
0.75
100
AcDbVertex
100
AcDb2dVertex
 10
-3166.298944
 20
515.55773
 30
0.0
 40
0.0
 41
0.0
  0
VERTEX
  5
156
100
AcDbEntity
  8
1
  6
CONTINUOUS
 62
   150
 48
0.75
100
AcDbVertex
100
AcDb2dVertex
 10
-3248.058944
 20
511.55773
 30
0.0
 40
0.0
 41
0.0
  0
VERTEX
  5
157
100
AcDbEntity
  8
1
  6
CONTINUOUS
 62
   150
 48
0.75
100
AcDbVertex
100
AcDb2dVertex
 10
-3308.158944
 20
507.55773
 30
0.0
 40
0.0
 41
0.0
  0
VERTEX
  5
158
100
AcDbEntity
  8
1
  6
CONTINUOUS
 62
   150
 48
0.75
100
AcDbVertex
100
AcDb2dVertex
 10
-3368.258944
 20
501.55773
 30
0.0
 40
0.0
 41
0.0
  0
VERTEX
  5
159
100
AcDbEntity
  8
1
  6
CONTINUOUS
 62
   150
 48
0.75
100
AcDbVertex
100
AcDb2dVertex
 10
-3396.318944
 20
497.55773
 30
0.0
 40
0.0
 41
0.0
  0
VERTEX
  5
15A
100
AcDbEntity
  8
1
  6
CONTINUOUS
 62
   150
 48
0.75
100
AcDbVertex
100
AcDb2dVertex
 10
-3408.338944
 20
492.55773
 30
0.0
 40
0.0
 41
0.0
  0
VERTEX
  5
15B
100
AcDbEntity
  8
1
  6
CONTINUOUS
 62
   150
 48
0.75
100
AcDbVertex
100
AcDb2dVertex
 10
-3412.338944
 20
489.55773
 30
0.0
 40
0.0
 41
0.0
  0
VERTEX
  5
15C
100
AcDbEntity
  8
1
  6
CONTINUOUS
 62
   150
 48
0.75
100
AcDbVertex
100
AcDb2dVertex
 10
-3408.338944
 20
483.55773
 30
0.0
 40
0.0
 41
0.0
  0
VERTEX
  5
15D
100
AcDbEntity
  8
1
  6
CONTINUOUS
 62
   150
 48
0.75
100
AcDbVertex
100
AcDb2dVertex
 10
-3402.318944
 20
481.55773
 30
0.0
 40
0.0
 41
0.0
  0
VERTEX
  5
15E
100
AcDbEntity
  8
1
  6
CONTINUOUS
 62
   150
 48
0.75
100
AcDbVertex
100
AcDb2dVertex
 10
-3397.918944
 20
477.55773
 30
0.0
 40
0.0
 41
0.0
  0
VERTEX
  5
15F
100
AcDbEntity
  8
1
  6
CONTINUOUS
 62
   150
 48
0.75
100
AcDbVertex
100
AcDb2dVertex
 10
-3389.498944
 20
475.55773
 30
0.0
 40
0.0
 41
0.0
  0
VERTEX
  5
160
100
AcDbEntity
  8
1
  6
CONTINUOUS
 62
   150
 48
0.75
100
AcDbVertex
100
AcDb2dVertex
 10
-3386.298944
 20
473.55773
 30
0.0
 40
0.0
 41
0.0
  0
VERTEX
  5
161
100
AcDbEntity
  8
1
  6
CONTINUOUS
 62
   150
 48
0.75
100
AcDbVertex
100
AcDb2dVertex
 10
-3380.278944
 20
471.55773
 30
0.0
 40
0.0
 41
0.0
  0
SEQEND
  5
162
100
AcDbEntity
  8
0
  0
POLYLINE
  5
163
100
AcDbEntity
  8
1
  6
CONTINUOUS
 62
   150
 48
0.75
100
AcDb2dPolyline
 66
     1
 10
0.0
 20
0.0
 30
0.0
 70
   128
  0
VERTEX
  5
164
100
AcDbEntity
  8
1
  6
CONTINUOUS
 62
   150
 48
0.75
100
AcDbVertex
100
AcDb2dVertex
 10
-2843.338944
 20
268.43773
 30
0.0
 40
0.0
 41
0.0
  0
VERTEX
  5
165
100
AcDbEntity
  8
1
  6
CONTINUOUS
 62
   150
 48
0.75
100
AcDbVertex
100
AcDb2dVertex
 10
-2731.138944
 20
252.05773
 30
0.0
 40
0.0
 41
0.0
  0
VERTEX
  5
166
100
AcDbEntity
  8
1
  6
CONTINUOUS
 62
   150
 48
0.75
100
AcDbVertex
100
AcDb2dVertex
 10
-2646.998944
 20
234.75773
 30
0.0
 40
0.0
 41
0.0
  0
VERTEX
  5
167
100
AcDbEntity
  8
1
  6
CONTINUOUS
 62
   150
 48
0.75
100
AcDbVertex
100
AcDb2dVertex
 10
-2576.078944
 20
214.35773
 30
0.0
 40
0.0
 41
0.0
  0
VERTEX
  5
168
100
AcDbEntity
  8
1
  6
CONTINUOUS
 62
   150
 48
0.75
100
AcDbVertex
100
AcDb2dVertex
 10
-2465.478944
 20
172.35773
 30
0.0
 40
0.0
 41
0.0
  0
VERTEX
  5
169
100
AcDbEntity
  8
1
  6
CONTINUOUS
 62
   150
 48
0.75
100
AcDbVertex
100
AcDb2dVertex
 10
-2408.578944
 20
137.55773
 30
0.0
 40
0.0
 41
0.0
  0
VERTEX
  5
16A
100
AcDbEntity
  8
1
  6
CONTINUOUS
 62
   150
 48
0.75
100
AcDbVertex
100
AcDb2dVertex
 10
-2379.718944
 20
115.15773
 30
0.0
 40
0.0
 41
0.0
  0
VERTEX
  5
16B
100
AcDbEntity
  8
1
  6
CONTINUOUS
 62
   150
 48
0.75
100
AcDbVertex
100
AcDb2dVertex
 10
-2366.498944
 20
100.55773
 30
0.0
 40
0.0
 41
0.0
  0
VERTEX
  5
16C
100
AcDbEntity
  8
1
  6
CONTINUOUS
 62
   150
 48
0.75
100
AcDbVertex
100
AcDb2dVertex
 10
-2370.498944
 20
91.15773
 30
0.0
 40
0.0
 41
0.0
  0
VERTEX
  5
16D
100
AcDbEntity
  8
1
  6
CONTINUOUS
 62
   150
 48
0.75
100
AcDbVertex
100
AcDb2dVertex
 10
-2376.538944
 20
85.15773
 30
0.0
 40
0.0
 41
0.0
  0
VERTEX
  5
16E
100
AcDbEntity
  8
1
  6
CONTINUOUS
 62
   150
 48
0.75
100
AcDbVertex
100
AcDb2dVertex
 10
-2380.518944
 20
79.55773
 30
0.0
 40
0.0
 41
0.0
  0
VERTEX
  5
16F
100
AcDbEntity
  8
1
  6
CONTINUOUS
 62
   150
 48
0.75
100
AcDbVertex
100
AcDb2dVertex
 10
-2388.538944
 20
74.15773
 30
0.0
 40
0.0
 41
0.0
  0
VERTEX
  5
170
100
AcDbEntity
  8
1
  6
CONTINUOUS
 62
   150
 48
0.75
100
AcDbVertex
100
AcDb2dVertex
 10
-2392.138944
 20
71.15773
 30
0.0
 40
0.0
 41
0.0
  0
VERTEX
  5
171
100
AcDbEntity
  8
1
  6
CONTINUOUS
 62
   150
 48
0.75
100
AcDbVertex
100
AcDb2dVertex
 10
-2395.358944
 20
69.15773
 30
0.0
 40
0.0
 41
0.0
  0
SEQEND
  5
172
100
AcDbEntity
  8
0
  0
POLYLINE
  5
173
100
AcDbEntity
  8
1
  6
CONTINUOUS
 62
   150
 48
0.75
100
AcDb2dPolyline
 66
     1
 10
0.0
 20
0.0
 30
0.0
 70
   128
  0
VERTEX
  5
174
100
AcDbEntity
  8
1
  6
CONTINUOUS
 62
   150
 48
0.75
100
AcDbVertex
100
AcDb2dVertex
 10
-2843.338944
 20
268.43773
 30
0.0
 40
0.0
 41
0.0
  0
VERTEX
  5
175
100
AcDbEntity
  8
1
  6
CONTINUOUS
 62
   150
 48
0.75
100
AcDbVertex
100
AcDb2dVertex
 10
-2955.538944
 20
252.05773
 30
0.0
 40
0.0
 41
0.0
  0
VERTEX
  5
176
100
AcDbEntity
  8
1
  6
CONTINUOUS
 62
   150
 48
0.75
100
AcDbVertex
100
AcDb2dVertex
 10
-3039.678944
 20
234.75773
 30
0.0
 40
0.0
 41
0.0
  0
VERTEX
  5
177
100
AcDbEntity
  8
1
  6
CONTINUOUS
 62
   150
 48
0.75
100
AcDbVertex
100
AcDb2dVertex
 10
-3110.598944
 20
214.35773
 30
0.0
 40
0.0
 41
0.0
  0
VERTEX
  5
178
100
AcDbEntity
  8
1
  6
CONTINUOUS
 62
   150
 48
0.75
100
AcDbVertex
100
AcDb2dVertex
 10
-3221.198944
 20
172.35773
 30
0.0
 40
0.0
 41
0.0
  0
VERTEX
  5
179
100
AcDbEntity
  8
1
  6
CONTINUOUS
 62
   150
 48
0.75
100
AcDbVertex
100
AcDb2dVertex
 10
-3278.098944
 20
137.55773
 30
0.0
 40
0.0
 41
0.0
  0
VERTEX
  5
17A
100
AcDbEntity
  8
1
  6
CONTINUOUS
 62
   150
 48
0.75
100
AcDbVertex
100
AcDb2dVertex
 10
-3306.958944
 20
115.15773
 30
0.0
 40
0.0
 41
0.0
  0
VERTEX
  5
17B
100
AcDbEntity
  8
1
  6
CONTINUOUS
 62
   150
 48
0.75
100
AcDbVertex
100
AcDb2dVertex
 10
-3320.178944
 20
100.55773
 30
0.0
 40
0.0
 41
0.0
  0
VERTEX
  5
17C
100
AcDbEntity
  8
1
  6
CONTINUOUS
 62
   150
 48
0.75
100
AcDbVertex
100
AcDb2dVertex
 10
-3316.178944
 20
91.15773
 30
0.0
 40
0.0
 41
0.0
  0
VERTEX
  5
17D
100
AcDbEntity
  8
1
  6
CONTINUOUS
 62
   150
 48
0.75
100
AcDbVertex
100
AcDb2dVertex
 10
-3310.138944
 20
85.15773
 30
0.0
 40
0.0
 41
0.0
  0
VERTEX
  5
17E
100
AcDbEntity
  8
1
  6
CONTINUOUS
 62
   150
 48
0.75
100
AcDbVertex
100
AcDb2dVertex
 10
-3306.158944
 20
79.55773
 30
0.0
 40
0.0
 41
0.0
  0
VERTEX
  5
17F
100
AcDbEntity
  8
1
  6
CONTINUOUS
 62
   150
 48
0.75
100
AcDbVertex
100
AcDb2dVertex
 10
-3298.138944
 20
74.15773
 30
0.0
 40
0.0
 41
0.0
  0
VERTEX
  5
180
100
AcDbEntity
  8
1
  6
CONTINUOUS
 62
   150
 48
0.75
100
AcDbVertex
100
AcDb2dVertex
 10
-3294.538944
 20
71.15773
 30
0.0
 40
0.0
 41
0.0
  0
VERTEX
  5
181
100
AcDbEntity
  8
1
  6
CONTINUOUS
 62
   150
 48
0.75
100
AcDbVertex
100
AcDb2dVertex
 10
-3291.318944
 20
69.15773
 30
0.0
 40
0.0
 41
0.0
  0
SEQEND
  5
182
100
AcDbEntity
  8
0
  0
POLYLINE
  5
183
100
AcDbEntity
  8
1
  6
CONTINUOUS
 62
   150
 48
0.75
100
AcDb2dPolyline
 66
     1
 10
0.0
 20
0.0
 30
0.0
 70
   128
  0
VERTEX
  5
184
100
AcDbEntity
  8
1
  6
CONTINUOUS
 62
   150
 48
0.75
100
AcDbVertex
100
AcDb2dVertex
 10
-2843.338944
 20
125.55773
 30
0.0
 40
0.0
 41
0.0
  0
VERTEX
  5
185
100
AcDbEntity
  8
1
  6
CONTINUOUS
 62
   150
 48
0.75
100
AcDbVertex
100
AcDb2dVertex
 10
-2843.338944
 20
17.55773
 30
0.0
 40
0.0
 41
0.0
  0
VERTEX
  5
186
100
AcDbEntity
  8
1
  6
CONTINUOUS
 62
   150
 48
0.75
100
AcDbVertex
100
AcDb2dVertex
 10
-2843.338944
 20
-59.00227
 30
0.0
 40
0.0
 41
0.0
  0
VERTEX
  5
187
100
AcDbEntity
  8
1
  6
CONTINUOUS
 62
   150
 48
0.75
100
AcDbVertex
100
AcDb2dVertex
 10
-2843.338944
 20
-90.44227
 30
0.0
 40
0.0
 41
0.0
  0
VERTEX
  5
188
100
AcDbEntity
  8
1
  6
CONTINUOUS
 62
   150
 48
0.75
100
AcDbVertex
100
AcDb2dVertex
 10
-2843.338944
 20
-80.08227
 30
0.0
 40
0.0
 41
0.0
  0
VERTEX
  5
189
100
AcDbEntity
  8
1
  6
CONTINUOUS
 62
   150
 48
0.75
100
AcDbVertex
100
AcDb2dVertex
 10
-2843.338944
 20
-72.32227
 30
0.0
 40
0.0
 41
0.0
  0
VERTEX
  5
18A
100
AcDbEntity
  8
1
  6
CONTINUOUS
 62
   150
 48
0.75
100
AcDbVertex
100
AcDb2dVertex
 10
-2843.338944
 20
-64.48227
 30
0.0
 40
0.0
 41
0.0
  0
VERTEX
  5
18B
100
AcDbEntity
  8
1
  6
CONTINUOUS
 62
   150
 48
0.75
100
AcDbVertex
100
AcDb2dVertex
 10
-2843.338944
 20
-57.48227
 30
0.0
 40
0.0
 41
0.0
  0
VERTEX
  5
18C
100
AcDbEntity
  8
1
  6
CONTINUOUS
 62
   150
 48
0.75
100
AcDbVertex
100
AcDb2dVertex
 10
-2843.338944
 20
-52.20227
 30
0.0
 40
0.0
 41
0.0
  0
VERTEX
  5
18D
100
AcDbEntity
  8
1
  6
CONTINUOUS
 62
   150
 48
0.75
100
AcDbVertex
100
AcDb2dVertex
 10
-2843.338944
 20
-45.04227
 30
0.0
 40
0.0
 41
0.0
  0
VERTEX
  5
18E
100
AcDbEntity
  8
1
  6
CONTINUOUS
 62
   150
 48
0.75
100
AcDbVertex
100
AcDb2dVertex
 10
-2843.338944
 20
-37.92227
 30
0.0
 40
0.0
 41
0.0
  0
VERTEX
  5
18F
100
AcDbEntity
  8
1
  6
CONTINUOUS
 62
   150
 48
0.75
100
AcDbVertex
100
AcDb2dVertex
 10
-2843.338944
 20
-32.68227
 30
0.0
 40
0.0
 41
0.0
  0
VERTEX
  5
190
100
AcDbEntity
  8
1
  6
CONTINUOUS
 62
   150
 48
0.75
100
AcDbVertex
100
AcDb2dVertex
 10
-2843.338944
 20
-30.12227
 30
0.0
 40
0.0
 41
0.0
  0
SEQEND
  5
191
100
AcDbEntity
  8
0
  0
POLYLINE
  5
192
100
AcDbEntity
  8
1
  6
CONTINUOUS
 62
   150
 48
0.75
100
AcDb2dPolyline
 66
     1
 10
0.0
 20
0.0
 30
0.0
 70
   128
  0
VERTEX
  5
193
100
AcDbEntity
  8
1
  6
CONTINUOUS
 62
   150
 48
0.75
100
AcDbVertex
100
AcDb2dVertex
 10
-2843.338944
 20
125.55773
 30
0.0
 40
0.0
 41
0.0
  0
VERTEX
  5
194
100
AcDbEntity
  8
1
  6
CONTINUOUS
 62
   150
 48
0.75
100
AcDbVertex
100
AcDb2dVertex
 10
-2843.338944
 20
17.55773
 30
0.0
 40
0.0
 41
0.0
  0
VERTEX
  5
195
100
AcDbEntity
  8
1
  6
CONTINUOUS
 62
   150
 48
0.75
100
AcDbVertex
100
AcDb2dVertex
 10
-2843.338944
 20
-59.00227
 30
0.0
 40
0.0
 41
0.0
  0
VERTEX
  5
196
100
AcDbEntity
  8
1
  6
CONTINUOUS
 62
   150
 48
0.75
100
AcDbVertex
100
AcDb2dVertex
 10
-2843.338944
 20
-90.44227
 30
0.0
 40
0.0
 41
0.0
  0
VERTEX
  5
197
100
AcDbEntity
  8
1
  6
CONTINUOUS
 62
   150
 48
0.75
100
AcDbVertex
100
AcDb2dVertex
 10
-2843.338944
 20
-80.08227
 30
0.0
 40
0.0
 41
0.0
  0
VERTEX
  5
198
100
AcDbEntity
  8
1
  6
CONTINUOUS
 62
   150
 48
0.75
100
AcDbVertex
100
AcDb2dVertex
 10
-2843.338944
 20
-72.32227
 30
0.0
 40
0.0
 41
0.0
  0
VERTEX
  5
199
100
AcDbEntity
  8
1
  6
CONTINUOUS
 62
   150
 48
0.75
100
AcDbVertex
100
AcDb2dVertex
 10
-2843.338944
 20
-64.48227
 30
0.0
 40
0.0
 41
0.0
  0
VERTEX
  5
19A
100
AcDbEntity
  8
1
  6
CONTINUOUS
 62
   150
 48
0.75
100
AcDbVertex
100
AcDb2dVertex
 10
-2843.338944
 20
-57.48227
 30
0.0
 40
0.0
 41
0.0
  0
VERTEX
  5
19B
100
AcDbEntity
  8
1
  6
CONTINUOUS
 62
   150
 48
0.75
100
AcDbVertex
100
AcDb2dVertex
 10
-2843.338944
 20
-52.20227
 30
0.0
 40
0.0
 41
0.0
  0
VERTEX
  5
19C
100
AcDbEntity
  8
1
  6
CONTINUOUS
 62
   150
 48
0.75
100
AcDbVertex
100
AcDb2dVertex
 10
-2843.338944
 20
-45.04227
 30
0.0
 40
0.0
 41
0.0
  0
VERTEX
  5
19D
100
AcDbEntity
  8
1
  6
CONTINUOUS
 62
   150
 48
0.75
100
AcDbVertex
100
AcDb2dVertex
 10
-2843.338944
 20
-37.92227
 30
0.0
 40
0.0
 41
0.0
  0
VERTEX
  5
19E
100
AcDbEntity
  8
1
  6
CONTINUOUS
 62
   150
 48
0.75
100
AcDbVertex
100
AcDb2dVertex
 10
-2843.338944
 20
-32.68227
 30
0.0
 40
0.0
 41
0.0
  0
VERTEX
  5
19F
100
AcDbEntity
  8
1
  6
CONTINUOUS
 62
   150
 48
0.75
100
AcDbVertex
100
AcDb2dVertex
 10
-2843.338944
 20
-30.12227
 30
0.0
 40
0.0
 41
0.0
  0
SEQEND
  5
1A0
100
AcDbEntity
  8
0
  0
POLYLINE
  5
1A1
100
AcDbEntity
  8
1
  6
CONTINUOUS
 62
   150
 48
0.75
100
AcDb2dPolyline
 66
     1
 10
0.0
 20
0.0
 30
0.0
 70
   128
  0
VERTEX
  5
1A2
100
AcDbEntity
  8
1
  6
CONTINUOUS
 62
   150
 48
0.75
100
AcDbVertex
100
AcDb2dVertex
 10
-3179.538944
 20
570.55773
 30
0.0
 40
0.0
 41
0.0
  0
VERTEX
  5
1A3
100
AcDbEntity
  8
1
  6
CONTINUOUS
 62
   150
 48
0.75
100
AcDbVertex
100
AcDb2dVertex
 10
-3166.298944
 20
515.55773
 30
0.0
 40
0.0
 41
0.0
  0
VERTEX
  5
1A4
100
AcDbEntity
  8
1
  6
CONTINUOUS
 62
   150
 48
0.75
100
AcDbVertex
100
AcDb2dVertex
 10
-2955.538944
 20
252.03773
 30
0.0
 40
0.0
 41
0.0
  0
VERTEX
  5
1A5
100
AcDbEntity
  8
1
  6
CONTINUOUS
 62
   150
 48
0.75
100
AcDbVertex
100
AcDb2dVertex
 10
-2937.658944
 20
237.05773
 30
0.0
 40
0.0
 41
0.0
  0
VERTEX
  5
1A6
100
AcDbEntity
  8
1
  6
CONTINUOUS
 62
   150
 48
0.75
100
AcDbVertex
100
AcDb2dVertex
 10
-2921.278944
 20
222.59773
 30
0.0
 40
0.0
 41
0.0
  0
VERTEX
  5
1A7
100
AcDbEntity
  8
1
  6
CONTINUOUS
 62
   150
 48
0.75
100
AcDbVertex
100
AcDb2dVertex
 10
-2906.358944
 20
208.63773
 30
0.0
 40
0.0
 41
0.0
  0
VERTEX
  5
1A8
100
AcDbEntity
  8
1
  6
CONTINUOUS
 62
   150
 48
0.75
100
AcDbVertex
100
AcDb2dVertex
 10
-2892.918944
 20
195.21773
 30
0.0
 40
0.0
 41
0.0
  0
VERTEX
  5
1A9
100
AcDbEntity
  8
1
  6
CONTINUOUS
 62
   150
 48
0.75
100
AcDbVertex
100
AcDb2dVertex
 10
-2880.958944
 20
182.29773
 30
0.0
 40
0.0
 41
0.0
  0
VERTEX
  5
1AA
100
AcDbEntity
  8
1
  6
CONTINUOUS
 62
   150
 48
0.75
100
AcDbVertex
100
AcDb2dVertex
 10
-2870.478944
 20
169.91773
 30
0.0
 40
0.0
 41
0.0
  0
VERTEX
  5
1AB
100
AcDbEntity
  8
1
  6
CONTINUOUS
 62
   150
 48
0.75
100
AcDbVertex
100
AcDb2dVertex
 10
-2861.478944
 20
158.03773
 30
0.0
 40
0.0
 41
0.0
  0
VERTEX
  5
1AC
100
AcDbEntity
  8
1
  6
CONTINUOUS
 62
   150
 48
0.75
100
AcDbVertex
100
AcDb2dVertex
 10
-2853.958944
 20
146.69773
 30
0.0
 40
0.0
 41
0.0
  0
VERTEX
  5
1AD
100
AcDbEntity
  8
1
  6
CONTINUOUS
 62
   150
 48
0.75
100
AcDbVertex
100
AcDb2dVertex
 10
-2847.898944
 20
135.85773
 30
0.0
 40
0.0
 41
0.0
  0
VERTEX
  5
1AE
100
AcDbEntity
  8
1
  6
CONTINUOUS
 62
   150
 48
0.75
100
AcDbVertex
100
AcDb2dVertex
 10
-2843.338944
 20
125.55773
 30
0.0
 40
0.0
 41
0.0
  0
SEQEND
  5
1AF
100
AcDbEntity
  8
0
  0
POLYLINE
  5
1B0
100
AcDbEntity
  8
1
  6
CONTINUOUS
 62
   150
 48
0.75
100
AcDb2dPolyline
 66
     1
 10
0.0
 20
0.0
 30
0.0
 70
   128
  0
VERTEX
  5
1B1
100
AcDbEntity
  8
1
  6
CONTINUOUS
 62
   150
 48
0.75
100
AcDbVertex
100
AcDb2dVertex
 10
-3179.538944
 20
570.55773
 30
0.0
 40
0.0
 41
0.0
  0
VERTEX
  5
1B2
100
AcDbEntity
  8
1
  6
CONTINUOUS
 62
   150
 48
0.75
100
AcDbVertex
100
AcDb2dVertex
 10
-3166.298944
 20
515.55773
 30
0.0
 40
0.0
 41
0.0
  0
VERTEX
  5
1B3
100
AcDbEntity
  8
1
  6
CONTINUOUS
 62
   150
 48
0.75
100
AcDbVertex
100
AcDb2dVertex
 10
-2955.538944
 20
252.05773
 30
0.0
 40
0.0
 41
0.0
  0
VERTEX
  5
1B4
100
AcDbEntity
  8
1
  6
CONTINUOUS
 62
   150
 48
0.75
100
AcDbVertex
100
AcDb2dVertex
 10
-2942.418944
 20
241.13773
 30
0.0
 40
0.0
 41
0.0
  0
VERTEX
  5
1B5
100
AcDbEntity
  8
1
  6
CONTINUOUS
 62
   150
 48
0.75
100
AcDbVertex
100
AcDb2dVertex
 10
-2929.518944
 20
229.97773
 30
0.0
 40
0.0
 41
0.0
  0
VERTEX
  5
1B6
100
AcDbEntity
  8
1
  6
CONTINUOUS
 62
   150
 48
0.75
100
AcDbVertex
100
AcDb2dVertex
 10
-2916.838944
 20
218.53773
 30
0.0
 40
0.0
 41
0.0
  0
VERTEX
  5
1B7
100
AcDbEntity
  8
1
  6
CONTINUOUS
 62
   150
 48
0.75
100
AcDbVertex
100
AcDb2dVertex
 10
-2904.458944
 20
206.79773
 30
0.0
 40
0.0
 41
0.0
  0
VERTEX
  5
1B8
100
AcDbEntity
  8
1
  6
CONTINUOUS
 62
   150
 48
0.75
100
AcDbVertex
100
AcDb2dVertex
 10
-2892.418944
 20
194.69773
 30
0.0
 40
0.0
 41
0.0
  0
VERTEX
  5
1B9
100
AcDbEntity
  8
1
  6
CONTINUOUS
 62
   150
 48
0.75
100
AcDbVertex
100
AcDb2dVertex
 10
-2880.838944
 20
182.17773
 30
0.0
 40
0.0
 41
0.0
  0
VERTEX
  5
1BA
100
AcDbEntity
  8
1
  6
CONTINUOUS
 62
   150
 48
0.75
100
AcDbVertex
100
AcDb2dVertex
 10
-2869.858944
 20
169.11773
 30
0.0
 40
0.0
 41
0.0
  0
VERTEX
  5
1BB
100
AcDbEntity
  8
1
  6
CONTINUOUS
 62
   150
 48
0.75
100
AcDbVertex
100
AcDb2dVertex
 10
-2859.658944
 20
155.43773
 30
0.0
 40
0.0
 41
0.0
  0
VERTEX
  5
1BC
100
AcDbEntity
  8
1
  6
CONTINUOUS
 62
   150
 48
0.75
100
AcDbVertex
100
AcDb2dVertex
 10
-2850.618944
 20
140.97773
 30
0.0
 40
0.0
 41
0.0
  0
VERTEX
  5
1BD
100
AcDbEntity
  8
1
  6
CONTINUOUS
 62
   150
 48
0.75
100
AcDbVertex
100
AcDb2dVertex
 10
-2843.338944
 20
125.55773
 30
0.0
 40
0.0
 41
0.0
  0
SEQEND
  5
1BE
100
AcDbEntity
  8
0
  0
POLYLINE
  5
1BF
100
AcDbEntity
  8
1
  6
CONTINUOUS
 62
   150
 48
0.75
100
AcDb2dPolyline
 66
     1
 10
0.0
 20
0.0
 30
0.0
 70
   128
  0
VERTEX
  5
1C0
100
AcDbEntity
  8
1
  6
CONTINUOUS
 62
   150
 48
0.75
100
AcDbVertex
100
AcDb2dVertex
 10
-2507.138944
 20
570.55773
 30
0.0
 40
0.0
 41
0.0
  0
VERTEX
  5
1C1
100
AcDbEntity
  8
1
  6
CONTINUOUS
 62
   150
 48
0.75
100
AcDbVertex
100
AcDb2dVertex
 10
-2520.378944
 20
515.55773
 30
0.0
 40
0.0
 41
0.0
  0
VERTEX
  5
1C2
100
AcDbEntity
  8
1
  6
CONTINUOUS
 62
   150
 48
0.75
100
AcDbVertex
100
AcDb2dVertex
 10
-2731.138944
 20
252.03773
 30
0.0
 40
0.0
 41
0.0
  0
VERTEX
  5
1C3
100
AcDbEntity
  8
1
  6
CONTINUOUS
 62
   150
 48
0.75
100
AcDbVertex
100
AcDb2dVertex
 10
-2749.018944
 20
237.05773
 30
0.0
 40
0.0
 41
0.0
  0
VERTEX
  5
1C4
100
AcDbEntity
  8
1
  6
CONTINUOUS
 62
   150
 48
0.75
100
AcDbVertex
100
AcDb2dVertex
 10
-2765.398944
 20
222.59773
 30
0.0
 40
0.0
 41
0.0
  0
VERTEX
  5
1C5
100
AcDbEntity
  8
1
  6
CONTINUOUS
 62
   150
 48
0.75
100
AcDbVertex
100
AcDb2dVertex
 10
-2780.318944
 20
208.63773
 30
0.0
 40
0.0
 41
0.0
  0
VERTEX
  5
1C6
100
AcDbEntity
  8
1
  6
CONTINUOUS
 62
   150
 48
0.75
100
AcDbVertex
100
AcDb2dVertex
 10
-2793.758944
 20
195.21773
 30
0.0
 40
0.0
 41
0.0
  0
VERTEX
  5
1C7
100
AcDbEntity
  8
1
  6
CONTINUOUS
 62
   150
 48
0.75
100
AcDbVertex
100
AcDb2dVertex
 10
-2805.718944
 20
182.29773
 30
0.0
 40
0.0
 41
0.0
  0
VERTEX
  5
1C8
100
AcDbEntity
  8
1
  6
CONTINUOUS
 62
   150
 48
0.75
100
AcDbVertex
100
AcDb2dVertex
 10
-2816.198944
 20
169.91773
 30
0.0
 40
0.0
 41
0.0
  0
VERTEX
  5
1C9
100
AcDbEntity
  8
1
  6
CONTINUOUS
 62
   150
 48
0.75
100
AcDbVertex
100
AcDb2dVertex
 10
-2825.198944
 20
158.03773
 30
0.0
 40
0.0
 41
0.0
  0
VERTEX
  5
1CA
100
AcDbEntity
  8
1
  6
CONTINUOUS
 62
   150
 48
0.75
100
AcDbVertex
100
AcDb2dVertex
 10
-2832.718944
 20
146.69773
 30
0.0
 40
0.0
 41
0.0
  0
VERTEX
  5
1CB
100
AcDbEntity
  8
1
  6
CONTINUOUS
 62
   150
 48
0.75
100
AcDbVertex
100
AcDb2dVertex
 10
-2838.778944
 20
135.85773
 30
0.0
 40
0.0
 41
0.0
  0
VERTEX
  5
1CC
100
AcDbEntity
  8
1
  6
CONTINUOUS
 62
   150
 48
0.75
100
AcDbVertex
100
AcDb2dVertex
 10
-2843.338944
 20
125.55773
 30
0.0
 40
0.0
 41
0.0
  0
SEQEND
  5
1CD
100
AcDbEntity
  8
0
  0
POLYLINE
  5
1CE
100
AcDbEntity
  8
1
  6
CONTINUOUS
 62
   150
 48
0.75
100
AcDb2dPolyline
 66
     1
 10
0.0
 20
0.0
 30
0.0
 70
   128
  0
VERTEX
  5
1CF
100
AcDbEntity
  8
1
  6
CONTINUOUS
 62
   150
 48
0.75
100
AcDbVertex
100
AcDb2dVertex
 10
-3260.758944
 20
566.55773
 30
0.0
 40
0.0
 41
0.0
  0
VERTEX
  5
1D0
100
AcDbEntity
  8
1
  6
CONTINUOUS
 62
   150
 48
0.75
100
AcDbVertex
100
AcDb2dVertex
 10
-3248.058944
 20
511.55773
 30
0.0
 40
0.0
 41
0.0
  0
VERTEX
  5
1D1
100
AcDbEntity
  8
1
  6
CONTINUOUS
 62
   150
 48
0.75
100
AcDbVertex
100
AcDb2dVertex
 10
-3039.678944
 20
234.75773
 30
0.0
 40
0.0
 41
0.0
  0
VERTEX
  5
1D2
100
AcDbEntity
  8
1
  6
CONTINUOUS
 62
   150
 48
0.75
100
AcDbVertex
100
AcDb2dVertex
 10
-3016.498944
 20
213.99773
 30
0.0
 40
0.0
 41
0.0
  0
VERTEX
  5
1D3
100
AcDbEntity
  8
1
  6
CONTINUOUS
 62
   150
 48
0.75
100
AcDbVertex
100
AcDb2dVertex
 10
-2994.098944
 20
193.01773
 30
0.0
 40
0.0
 41
0.0
  0
VERTEX
  5
1D4
100
AcDbEntity
  8
1
  6
CONTINUOUS
 62
   150
 48
0.75
100
AcDbVertex
100
AcDb2dVertex
 10
-2972.498944
 20
171.81773
 30
0.0
 40
0.0
 41
0.0
  0
VERTEX
  5
1D5
100
AcDbEntity
  8
1
  6
CONTINUOUS
 62
   150
 48
0.75
100
AcDbVertex
100
AcDb2dVertex
 10
-2951.678944
 20
150.41773
 30
0.0
 40
0.0
 41
0.0
  0
VERTEX
  5
1D6
100
AcDbEntity
  8
1
  6
CONTINUOUS
 62
   150
 48
0.75
100
AcDbVertex
100
AcDb2dVertex
 10
-2931.658944
 20
128.79773
 30
0.0
 40
0.0
 41
0.0
  0
VERTEX
  5
1D7
100
AcDbEntity
  8
1
  6
CONTINUOUS
 62
   150
 48
0.75
100
AcDbVertex
100
AcDb2dVertex
 10
-2912.418944
 20
106.97773
 30
0.0
 40
0.0
 41
0.0
  0
VERTEX
  5
1D8
100
AcDbEntity
  8
1
  6
CONTINUOUS
 62
   150
 48
0.75
100
AcDbVertex
100
AcDb2dVertex
 10
-2893.958944
 20
84.95773
 30
0.0
 40
0.0
 41
0.0
  0
VERTEX
  5
1D9
100
AcDbEntity
  8
1
  6
CONTINUOUS
 62
   150
 48
0.75
100
AcDbVertex
100
AcDb2dVertex
 10
-2876.298944
 20
62.71773
 30
0.0
 40
0.0
 41
0.0
  0
VERTEX
  5
1DA
100
AcDbEntity
  8
1
  6
CONTINUOUS
 62
   150
 48
0.75
100
AcDbVertex
100
AcDb2dVertex
 10
-2859.418944
 20
40.25773
 30
0.0
 40
0.0
 41
0.0
  0
VERTEX
  5
1DB
100
AcDbEntity
  8
1
  6
CONTINUOUS
 62
   150
 48
0.75
100
AcDbVertex
100
AcDb2dVertex
 10
-2843.318944
 20
17.59773
 30
0.0
 40
0.0
 41
0.0
  0
SEQEND
  5
1DC
100
AcDbEntity
  8
0
  0
POLYLINE
  5
1DD
100
AcDbEntity
  8
1
  6
CONTINUOUS
 62
   150
 48
0.75
100
AcDb2dPolyline
 66
     1
 10
0.0
 20
0.0
 30
0.0
 70
   128
  0
VERTEX
  5
1DE
100
AcDbEntity
  8
1
  6
CONTINUOUS
 62
   150
 48
0.75
100
AcDbVertex
100
AcDb2dVertex
 10
-3260.758944
 20
566.55773
 30
0.0
 40
0.0
 41
0.0
  0
VERTEX
  5
1DF
100
AcDbEntity
  8
1
  6
CONTINUOUS
 62
   150
 48
0.75
100
AcDbVertex
100
AcDb2dVertex
 10
-3248.058944
 20
511.55773
 30
0.0
 40
0.0
 41
0.0
  0
VERTEX
  5
1E0
100
AcDbEntity
  8
1
  6
CONTINUOUS
 62
   150
 48
0.75
100
AcDbVertex
100
AcDb2dVertex
 10
-3039.678944
 20
234.75773
 30
0.0
 40
0.0
 41
0.0
  0
VERTEX
  5
1E1
100
AcDbEntity
  8
1
  6
CONTINUOUS
 62
   150
 48
0.75
100
AcDbVertex
100
AcDb2dVertex
 10
-3017.798944
 20
215.17773
 30
0.0
 40
0.0
 41
0.0
  0
VERTEX
  5
1E2
100
AcDbEntity
  8
1
  6
CONTINUOUS
 62
   150
 48
0.75
100
AcDbVertex
100
AcDb2dVertex
 10
-2996.358944
 20
195.13773
 30
0.0
 40
0.0
 41
0.0
  0
VERTEX
  5
1E3
100
AcDbEntity
  8
1
  6
CONTINUOUS
 62
   150
 48
0.75
100
AcDbVertex
100
AcDb2dVertex
 10
-2975.338944
 20
174.63773
 30
0.0
 40
0.0
 41
0.0
  0
VERTEX
  5
1E4
100
AcDbEntity
  8
1
  6
CONTINUOUS
 62
   150
 48
0.75
100
AcDbVertex
100
AcDb2dVertex
 10
-2954.798944
 20
153.67773
 30
0.0
 40
0.0
 41
0.0
  0
VERTEX
  5
1E5
100
AcDbEntity
  8
1
  6
CONTINUOUS
 62
   150
 48
0.75
100
AcDbVertex
100
AcDb2dVertex
 10
-2934.778944
 20
132.21773
 30
0.0
 40
0.0
 41
0.0
  0
VERTEX
  5
1E6
100
AcDbEntity
  8
1
  6
CONTINUOUS
 62
   150
 48
0.75
100
AcDbVertex
100
AcDb2dVertex
 10
-2915.278944
 20
110.27773
 30
0.0
 40
0.0
 41
0.0
  0
VERTEX
  5
1E7
100
AcDbEntity
  8
1
  6
CONTINUOUS
 62
   150
 48
0.75
100
AcDbVertex
100
AcDb2dVertex
 10
-2896.358944
 20
87.83773
 30
0.0
 40
0.0
 41
0.0
  0
VERTEX
  5
1E8
100
AcDbEntity
  8
1
  6
CONTINUOUS
 62
   150
 48
0.75
100
AcDbVertex
100
AcDb2dVertex
 10
-2878.018944
 20
64.91773
 30
0.0
 40
0.0
 41
0.0
  0
VERTEX
  5
1E9
100
AcDbEntity
  8
1
  6
CONTINUOUS
 62
   150
 48
0.75
100
AcDbVertex
100
AcDb2dVertex
 10
-2860.338944
 20
41.47773
 30
0.0
 40
0.0
 41
0.0
  0
VERTEX
  5
1EA
100
AcDbEntity
  8
1
  6
CONTINUOUS
 62
   150
 48
0.75
100
AcDbVertex
100
AcDb2dVertex
 10
-2843.338944
 20
17.55773
 30
0.0
 40
0.0
 41
0.0
  0
SEQEND
  5
1EB
100
AcDbEntity
  8
0
  0
POLYLINE
  5
1EC
100
AcDbEntity
  8
1
  6
CONTINUOUS
 62
   150
 48
0.75
100
AcDb2dPolyline
 66
     1
 10
0.0
 20
0.0
 30
0.0
 70
   128
  0
VERTEX
  5
1ED
100
AcDbEntity
  8
1
  6
CONTINUOUS
 62
   150
 48
0.75
100
AcDbVertex
100
AcDb2dVertex
 10
-2425.918944
 20
566.55773
 30
0.0
 40
0.0
 41
0.0
  0
VERTEX
  5
1EE
100
AcDbEntity
  8
1
  6
CONTINUOUS
 62
   150
 48
0.75
100
AcDbVertex
100
AcDb2dVertex
 10
-2438.618944
 20
511.55773
 30
0.0
 40
0.0
 41
0.0
  0
VERTEX
  5
1EF
100
AcDbEntity
  8
1
  6
CONTINUOUS
 62
   150
 48
0.75
100
AcDbVertex
100
AcDb2dVertex
 10
-2646.998944
 20
234.75773
 30
0.0
 40
0.0
 41
0.0
  0
VERTEX
  5
1F0
100
AcDbEntity
  8
1
  6
CONTINUOUS
 62
   150
 48
0.75
100
AcDbVertex
100
AcDb2dVertex
 10
-2670.178944
 20
213.99773
 30
0.0
 40
0.0
 41
0.0
  0
VERTEX
  5
1F1
100
AcDbEntity
  8
1
  6
CONTINUOUS
 62
   150
 48
0.75
100
AcDbVertex
100
AcDb2dVertex
 10
-2692.578944
 20
193.01773
 30
0.0
 40
0.0
 41
0.0
  0
VERTEX
  5
1F2
100
AcDbEntity
  8
1
  6
CONTINUOUS
 62
   150
 48
0.75
100
AcDbVertex
100
AcDb2dVertex
 10
-2714.178944
 20
171.81773
 30
0.0
 40
0.0
 41
0.0
  0
VERTEX
  5
1F3
100
AcDbEntity
  8
1
  6
CONTINUOUS
 62
   150
 48
0.75
100
AcDbVertex
100
AcDb2dVertex
 10
-2734.998944
 20
150.41773
 30
0.0
 40
0.0
 41
0.0
  0
VERTEX
  5
1F4
100
AcDbEntity
  8
1
  6
CONTINUOUS
 62
   150
 48
0.75
100
AcDbVertex
100
AcDb2dVertex
 10
-2755.018944
 20
128.79773
 30
0.0
 40
0.0
 41
0.0
  0
VERTEX
  5
1F5
100
AcDbEntity
  8
1
  6
CONTINUOUS
 62
   150
 48
0.75
100
AcDbVertex
100
AcDb2dVertex
 10
-2774.258944
 20
106.97773
 30
0.0
 40
0.0
 41
0.0
  0
VERTEX
  5
1F6
100
AcDbEntity
  8
1
  6
CONTINUOUS
 62
   150
 48
0.75
100
AcDbVertex
100
AcDb2dVertex
 10
-2792.718944
 20
84.95773
 30
0.0
 40
0.0
 41
0.0
  0
VERTEX
  5
1F7
100
AcDbEntity
  8
1
  6
CONTINUOUS
 62
   150
 48
0.75
100
AcDbVertex
100
AcDb2dVertex
 10
-2810.378944
 20
62.71773
 30
0.0
 40
0.0
 41
0.0
  0
VERTEX
  5
1F8
100
AcDbEntity
  8
1
  6
CONTINUOUS
 62
   150
 48
0.75
100
AcDbVertex
100
AcDb2dVertex
 10
-2827.258944
 20
40.25773
 30
0.0
 40
0.0
 41
0.0
  0
VERTEX
  5
1F9
100
AcDbEntity
  8
1
  6
CONTINUOUS
 62
   150
 48
0.75
100
AcDbVertex
100
AcDb2dVertex
 10
-2843.358944
 20
17.59773
 30
0.0
 40
0.0
 41
0.0
  0
SEQEND
  5
1FA
100
AcDbEntity
  8
0
  0
POLYLINE
  5
1FB
100
AcDbEntity
  8
1
  6
CONTINUOUS
 62
   150
 48
0.75
100
AcDb2dPolyline
 66
     1
 10
0.0
 20
0.0
 30
0.0
 70
   128
  0
VERTEX
  5
1FC
100
AcDbEntity
  8
1
  6
CONTINUOUS
 62
   150
 48
0.75
100
AcDbVertex
100
AcDb2dVertex
 10
-3317.978944
 20
562.55773
 30
0.0
 40
0.0
 41
0.0
  0
VERTEX
  5
1FD
100
AcDbEntity
  8
1
  6
CONTINUOUS
 62
   150
 48
0.75
100
AcDbVertex
100
AcDb2dVertex
 10
-3308.158944
 20
507.55773
 30
0.0
 40
0.0
 41
0.0
  0
VERTEX
  5
1FE
100
AcDbEntity
  8
1
  6
CONTINUOUS
 62
   150
 48
0.75
100
AcDbVertex
100
AcDb2dVertex
 10
-3110.578944
 20
214.35773
 30
0.0
 40
0.0
 41
0.0
  0
VERTEX
  5
1FF
100
AcDbEntity
  8
1
  6
CONTINUOUS
 62
   150
 48
0.75
100
AcDbVertex
100
AcDb2dVertex
 10
-3086.278944
 20
192.87773
 30
0.0
 40
0.0
 41
0.0
  0
VERTEX
  5
200
100
AcDbEntity
  8
1
  6
CONTINUOUS
 62
   150
 48
0.75
100
AcDbVertex
100
AcDb2dVertex
 10
-3061.438944
 20
170.11773
 30
0.0
 40
0.0
 41
0.0
  0
VERTEX
  5
201
100
AcDbEntity
  8
1
  6
CONTINUOUS
 62
   150
 48
0.75
100
AcDbVertex
100
AcDb2dVertex
 10
-3036.058944
 20
146.03773
 30
0.0
 40
0.0
 41
0.0
  0
VERTEX
  5
202
100
AcDbEntity
  8
1
  6
CONTINUOUS
 62
   150
 48
0.75
100
AcDbVertex
100
AcDb2dVertex
 10
-3010.138944
 20
120.65773
 30
0.0
 40
0.0
 41
0.0
  0
VERTEX
  5
203
100
AcDbEntity
  8
1
  6
CONTINUOUS
 62
   150
 48
0.75
100
AcDbVertex
100
AcDb2dVertex
 10
-2983.678944
 20
93.97773
 30
0.0
 40
0.0
 41
0.0
  0
VERTEX
  5
204
100
AcDbEntity
  8
1
  6
CONTINUOUS
 62
   150
 48
0.75
100
AcDbVertex
100
AcDb2dVertex
 10
-2956.698944
 20
65.99773
 30
0.0
 40
0.0
 41
0.0
  0
VERTEX
  5
205
100
AcDbEntity
  8
1
  6
CONTINUOUS
 62
   150
 48
0.75
100
AcDbVertex
100
AcDb2dVertex
 10
-2929.158944
 20
36.71773
 30
0.0
 40
0.0
 41
0.0
  0
VERTEX
  5
206
100
AcDbEntity
  8
1
  6
CONTINUOUS
 62
   150
 48
0.75
100
AcDbVertex
100
AcDb2dVertex
 10
-2901.098944
 20
6.11773
 30
0.0
 40
0.0
 41
0.0
  0
VERTEX
  5
207
100
AcDbEntity
  8
1
  6
CONTINUOUS
 62
   150
 48
0.75
100
AcDbVertex
100
AcDb2dVertex
 10
-2872.518944
 20
-25.78227
 30
0.0
 40
0.0
 41
0.0
  0
VERTEX
  5
208
100
AcDbEntity
  8
1
  6
CONTINUOUS
 62
   150
 48
0.75
100
AcDbVertex
100
AcDb2dVertex
 10
-2843.378944
 20
-58.98227
 30
0.0
 40
0.0
 41
0.0
  0
SEQEND
  5
209
100
AcDbEntity
  8
0
  0
POLYLINE
  5
20A
100
AcDbEntity
  8
1
  6
CONTINUOUS
 62
   150
 48
0.75
100
AcDb2dPolyline
 66
     1
 10
0.0
 20
0.0
 30
0.0
 70
   128
  0
VERTEX
  5
20B
100
AcDbEntity
  8
1
  6
CONTINUOUS
 62
   150
 48
0.75
100
AcDbVertex
100
AcDb2dVertex
 10
-3317.978944
 20
562.55773
 30
0.0
 40
0.0
 41
0.0
  0
VERTEX
  5
20C
100
AcDbEntity
  8
1
  6
CONTINUOUS
 62
   150
 48
0.75
100
AcDbVertex
100
AcDb2dVertex
 10
-3308.158944
 20
507.55773
 30
0.0
 40
0.0
 41
0.0
  0
VERTEX
  5
20D
100
AcDbEntity
  8
1
  6
CONTINUOUS
 62
   150
 48
0.75
100
AcDbVertex
100
AcDb2dVertex
 10
-3110.598944
 20
214.35773
 30
0.0
 40
0.0
 41
0.0
  0
VERTEX
  5
20E
100
AcDbEntity
  8
1
  6
CONTINUOUS
 62
   150
 48
0.75
100
AcDbVertex
100
AcDb2dVertex
 10
-3081.958944
 20
188.97773
 30
0.0
 40
0.0
 41
0.0
  0
VERTEX
  5
20F
100
AcDbEntity
  8
1
  6
CONTINUOUS
 62
   150
 48
0.75
100
AcDbVertex
100
AcDb2dVertex
 10
-3053.858944
 20
163.01773
 30
0.0
 40
0.0
 41
0.0
  0
VERTEX
  5
210
100
AcDbEntity
  8
1
  6
CONTINUOUS
 62
   150
 48
0.75
100
AcDbVertex
100
AcDb2dVertex
 10
-3026.238944
 20
136.53773
 30
0.0
 40
0.0
 41
0.0
  0
VERTEX
  5
211
100
AcDbEntity
  8
1
  6
CONTINUOUS
 62
   150
 48
0.75
100
AcDbVertex
100
AcDb2dVertex
 10
-2999.058944
 20
109.59773
 30
0.0
 40
0.0
 41
0.0
  0
VERTEX
  5
212
100
AcDbEntity
  8
1
  6
CONTINUOUS
 62
   150
 48
0.75
100
AcDbVertex
100
AcDb2dVertex
 10
-2972.298944
 20
82.27773
 30
0.0
 40
0.0
 41
0.0
  0
VERTEX
  5
213
100
AcDbEntity
  8
1
  6
CONTINUOUS
 62
   150
 48
0.75
100
AcDbVertex
100
AcDb2dVertex
 10
-2945.878944
 20
54.59773
 30
0.0
 40
0.0
 41
0.0
  0
VERTEX
  5
214
100
AcDbEntity
  8
1
  6
CONTINUOUS
 62
   150
 48
0.75
100
AcDbVertex
100
AcDb2dVertex
 10
-2919.798944
 20
26.59773
 30
0.0
 40
0.0
 41
0.0
  0
VERTEX
  5
215
100
AcDbEntity
  8
1
  6
CONTINUOUS
 62
   150
 48
0.75
100
AcDbVertex
100
AcDb2dVertex
 10
-2894.038944
 20
-1.68227
 30
0.0
 40
0.0
 41
0.0
  0
VERTEX
  5
216
100
AcDbEntity
  8
1
  6
CONTINUOUS
 62
   150
 48
0.75
100
AcDbVertex
100
AcDb2dVertex
 10
-2868.558944
 20
-30.22227
 30
0.0
 40
0.0
 41
0.0
  0
VERTEX
  5
217
100
AcDbEntity
  8
1
  6
CONTINUOUS
 62
   150
 48
0.75
100
AcDbVertex
100
AcDb2dVertex
 10
-2843.338944
 20
-59.00227
 30
0.0
 40
0.0
 41
0.0
  0
SEQEND
  5
218
100
AcDbEntity
  8
0
  0
POLYLINE
  5
219
100
AcDbEntity
  8
1
  6
CONTINUOUS
 62
   150
 48
0.75
100
AcDb2dPolyline
 66
     1
 10
0.0
 20
0.0
 30
0.0
 70
   128
  0
VERTEX
  5
21A
100
AcDbEntity
  8
1
  6
CONTINUOUS
 62
   150
 48
0.75
100
AcDbVertex
100
AcDb2dVertex
 10
-2368.698944
 20
562.55773
 30
0.0
 40
0.0
 41
0.0
  0
VERTEX
  5
21B
100
AcDbEntity
  8
1
  6
CONTINUOUS
 62
   150
 48
0.75
100
AcDbVertex
100
AcDb2dVertex
 10
-2378.518944
 20
507.55773
 30
0.0
 40
0.0
 41
0.0
  0
VERTEX
  5
21C
100
AcDbEntity
  8
1
  6
CONTINUOUS
 62
   150
 48
0.75
100
AcDbVertex
100
AcDb2dVertex
 10
-2576.098944
 20
214.35773
 30
0.0
 40
0.0
 41
0.0
  0
VERTEX
  5
21D
100
AcDbEntity
  8
1
  6
CONTINUOUS
 62
   150
 48
0.75
100
AcDbVertex
100
AcDb2dVertex
 10
-2600.398944
 20
192.87773
 30
0.0
 40
0.0
 41
0.0
  0
VERTEX
  5
21E
100
AcDbEntity
  8
1
  6
CONTINUOUS
 62
   150
 48
0.75
100
AcDbVertex
100
AcDb2dVertex
 10
-2625.238944
 20
170.11773
 30
0.0
 40
0.0
 41
0.0
  0
VERTEX
  5
21F
100
AcDbEntity
  8
1
  6
CONTINUOUS
 62
   150
 48
0.75
100
AcDbVertex
100
AcDb2dVertex
 10
-2650.618944
 20
146.03773
 30
0.0
 40
0.0
 41
0.0
  0
VERTEX
  5
220
100
AcDbEntity
  8
1
  6
CONTINUOUS
 62
   150
 48
0.75
100
AcDbVertex
100
AcDb2dVertex
 10
-2676.538944
 20
120.65773
 30
0.0
 40
0.0
 41
0.0
  0
VERTEX
  5
221
100
AcDbEntity
  8
1
  6
CONTINUOUS
 62
   150
 48
0.75
100
AcDbVertex
100
AcDb2dVertex
 10
-2702.998944
 20
93.97773
 30
0.0
 40
0.0
 41
0.0
  0
VERTEX
  5
222
100
AcDbEntity
  8
1
  6
CONTINUOUS
 62
   150
 48
0.75
100
AcDbVertex
100
AcDb2dVertex
 10
-2729.978944
 20
65.99773
 30
0.0
 40
0.0
 41
0.0
  0
VERTEX
  5
223
100
AcDbEntity
  8
1
  6
CONTINUOUS
 62
   150
 48
0.75
100
AcDbVertex
100
AcDb2dVertex
 10
-2757.518944
 20
36.71773
 30
0.0
 40
0.0
 41
0.0
  0
VERTEX
  5
224
100
AcDbEntity
  8
1
  6
CONTINUOUS
 62
   150
 48
0.75
100
AcDbVertex
100
AcDb2dVertex
 10
-2785.578944
 20
6.11773
 30
0.0
 40
0.0
 41
0.0
  0
VERTEX
  5
225
100
AcDbEntity
  8
1
  6
CONTINUOUS
 62
   150
 48
0.75
100
AcDbVertex
100
AcDb2dVertex
 10
-2814.158944
 20
-25.78227
 30
0.0
 40
0.0
 41
0.0
  0
VERTEX
  5
226
100
AcDbEntity
  8
1
  6
CONTINUOUS
 62
   150
 48
0.75
100
AcDbVertex
100
AcDb2dVertex
 10
-2843.298944
 20
-58.98227
 30
0.0
 40
0.0
 41
0.0
  0
SEQEND
  5
227
100
AcDbEntity
  8
0
  0
POLYLINE
  5
228
100
AcDbEntity
  8
1
  6
CONTINUOUS
 62
   150
 48
0.75
100
AcDb2dPolyline
 66
     1
 10
0.0
 20
0.0
 30
0.0
 70
   128
  0
VERTEX
  5
229
100
AcDbEntity
  8
1
  6
CONTINUOUS
 62
   150
 48
0.75
100
AcDbVertex
100
AcDb2dVertex
 10
-3372.098944
 20
556.55773
 30
0.0
 40
0.0
 41
0.0
  0
VERTEX
  5
22A
100
AcDbEntity
  8
1
  6
CONTINUOUS
 62
   150
 48
0.75
100
AcDbVertex
100
AcDb2dVertex
 10
-3368.258944
 20
501.53773
 30
0.0
 40
0.0
 41
0.0
  0
VERTEX
  5
22B
100
AcDbEntity
  8
1
  6
CONTINUOUS
 62
   150
 48
0.75
100
AcDbVertex
100
AcDb2dVertex
 10
-3221.198944
 20
172.33773
 30
0.0
 40
0.0
 41
0.0
  0
VERTEX
  5
22C
100
AcDbEntity
  8
1
  6
CONTINUOUS
 62
   150
 48
0.75
100
AcDbVertex
100
AcDb2dVertex
 10
-3200.578944
 20
157.83773
 30
0.0
 40
0.0
 41
0.0
  0
VERTEX
  5
22D
100
AcDbEntity
  8
1
  6
CONTINUOUS
 62
   150
 48
0.75
100
AcDbVertex
100
AcDb2dVertex
 10
-3176.138944
 20
140.71773
 30
0.0
 40
0.0
 41
0.0
  0
VERTEX
  5
22E
100
AcDbEntity
  8
1
  6
CONTINUOUS
 62
   150
 48
0.75
100
AcDbVertex
100
AcDb2dVertex
 10
-3147.898944
 20
120.97773
 30
0.0
 40
0.0
 41
0.0
  0
VERTEX
  5
22F
100
AcDbEntity
  8
1
  6
CONTINUOUS
 62
   150
 48
0.75
100
AcDbVertex
100
AcDb2dVertex
 10
-3115.838944
 20
98.61773
 30
0.0
 40
0.0
 41
0.0
  0
VERTEX
  5
230
100
AcDbEntity
  8
1
  6
CONTINUOUS
 62
   150
 48
0.75
100
AcDbVertex
100
AcDb2dVertex
 10
-3079.958944
 20
73.63773
 30
0.0
 40
0.0
 41
0.0
  0
VERTEX
  5
231
100
AcDbEntity
  8
1
  6
CONTINUOUS
 62
   150
 48
0.75
100
AcDbVertex
100
AcDb2dVertex
 10
-3040.278944
 20
46.05773
 30
0.0
 40
0.0
 41
0.0
  0
VERTEX
  5
232
100
AcDbEntity
  8
1
  6
CONTINUOUS
 62
   150
 48
0.75
100
AcDbVertex
100
AcDb2dVertex
 10
-2996.778944
 20
15.85773
 30
0.0
 40
0.0
 41
0.0
  0
VERTEX
  5
233
100
AcDbEntity
  8
1
  6
CONTINUOUS
 62
   150
 48
0.75
100
AcDbVertex
100
AcDb2dVertex
 10
-2949.458944
 20
-16.94227
 30
0.0
 40
0.0
 41
0.0
  0
VERTEX
  5
234
100
AcDbEntity
  8
1
  6
CONTINUOUS
 62
   150
 48
0.75
100
AcDbVertex
100
AcDb2dVertex
 10
-2898.338944
 20
-52.38227
 30
0.0
 40
0.0
 41
0.0
  0
VERTEX
  5
235
100
AcDbEntity
  8
1
  6
CONTINUOUS
 62
   150
 48
0.75
100
AcDbVertex
100
AcDb2dVertex
 10
-2843.398944
 20
-90.42227
 30
0.0
 40
0.0
 41
0.0
  0
SEQEND
  5
236
100
AcDbEntity
  8
0
  0
POLYLINE
  5
237
100
AcDbEntity
  8
1
  6
CONTINUOUS
 62
   150
 48
0.75
100
AcDb2dPolyline
 66
     1
 10
0.0
 20
0.0
 30
0.0
 70
   128
  0
VERTEX
  5
238
100
AcDbEntity
  8
1
  6
CONTINUOUS
 62
   150
 48
0.75
100
AcDbVertex
100
AcDb2dVertex
 10
-3372.098944
 20
556.55773
 30
0.0
 40
0.0
 41
0.0
  0
VERTEX
  5
239
100
AcDbEntity
  8
1
  6
CONTINUOUS
 62
   150
 48
0.75
100
AcDbVertex
100
AcDb2dVertex
 10
-3368.258944
 20
501.55773
 30
0.0
 40
0.0
 41
0.0
  0
VERTEX
  5
23A
100
AcDbEntity
  8
1
  6
CONTINUOUS
 62
   150
 48
0.75
100
AcDbVertex
100
AcDb2dVertex
 10
-3221.198944
 20
172.35773
 30
0.0
 40
0.0
 41
0.0
  0
VERTEX
  5
23B
100
AcDbEntity
  8
1
  6
CONTINUOUS
 62
   150
 48
0.75
100
AcDbVertex
100
AcDb2dVertex
 10
-3183.538944
 20
145.89773
 30
0.0
 40
0.0
 41
0.0
  0
VERTEX
  5
23C
100
AcDbEntity
  8
1
  6
CONTINUOUS
 62
   150
 48
0.75
100
AcDbVertex
100
AcDb2dVertex
 10
-3145.798944
 20
119.53773
 30
0.0
 40
0.0
 41
0.0
  0
VERTEX
  5
23D
100
AcDbEntity
  8
1
  6
CONTINUOUS
 62
   150
 48
0.75
100
AcDbVertex
100
AcDb2dVertex
 10
-3108.038944
 20
93.21773
 30
0.0
 40
0.0
 41
0.0
  0
VERTEX
  5
23E
100
AcDbEntity
  8
1
  6
CONTINUOUS
 62
   150
 48
0.75
100
AcDbVertex
100
AcDb2dVertex
 10
-3070.258944
 20
66.91773
 30
0.0
 40
0.0
 41
0.0
  0
VERTEX
  5
23F
100
AcDbEntity
  8
1
  6
CONTINUOUS
 62
   150
 48
0.75
100
AcDbVertex
100
AcDb2dVertex
 10
-3032.478944
 20
40.65773
 30
0.0
 40
0.0
 41
0.0
  0
VERTEX
  5
240
100
AcDbEntity
  8
1
  6
CONTINUOUS
 62
   150
 48
0.75
100
AcDbVertex
100
AcDb2dVertex
 10
-2994.658944
 20
14.41773
 30
0.0
 40
0.0
 41
0.0
  0
VERTEX
  5
241
100
AcDbEntity
  8
1
  6
CONTINUOUS
 62
   150
 48
0.75
100
AcDbVertex
100
AcDb2dVertex
 10
-2956.838944
 20
-11.82227
 30
0.0
 40
0.0
 41
0.0
  0
VERTEX
  5
242
100
AcDbEntity
  8
1
  6
CONTINUOUS
 62
   150
 48
0.75
100
AcDbVertex
100
AcDb2dVertex
 10
-2919.018944
 20
-38.02227
 30
0.0
 40
0.0
 41
0.0
  0
VERTEX
  5
243
100
AcDbEntity
  8
1
  6
CONTINUOUS
 62
   150
 48
0.75
100
AcDbVertex
100
AcDb2dVertex
 10
-2881.178944
 20
-64.24227
 30
0.0
 40
0.0
 41
0.0
  0
VERTEX
  5
244
100
AcDbEntity
  8
1
  6
CONTINUOUS
 62
   150
 48
0.75
100
AcDbVertex
100
AcDb2dVertex
 10
-2843.338944
 20
-90.44227
 30
0.0
 40
0.0
 41
0.0
  0
SEQEND
  5
245
100
AcDbEntity
  8
0
  0
POLYLINE
  5
246
100
AcDbEntity
  8
1
  6
CONTINUOUS
 62
   150
 48
0.75
100
AcDb2dPolyline
 66
     1
 10
0.0
 20
0.0
 30
0.0
 70
   128
  0
VERTEX
  5
247
100
AcDbEntity
  8
1
  6
CONTINUOUS
 62
   150
 48
0.75
100
AcDbVertex
100
AcDb2dVertex
 10
-2314.578944
 20
556.55773
 30
0.0
 40
0.0
 41
0.0
  0
VERTEX
  5
248
100
AcDbEntity
  8
1
  6
CONTINUOUS
 62
   150
 48
0.75
100
AcDbVertex
100
AcDb2dVertex
 10
-2318.418944
 20
501.53773
 30
0.0
 40
0.0
 41
0.0
  0
VERTEX
  5
249
100
AcDbEntity
  8
1
  6
CONTINUOUS
 62
   150
 48
0.75
100
AcDbVertex
100
AcDb2dVertex
 10
-2465.478944
 20
172.33773
 30
0.0
 40
0.0
 41
0.0
  0
VERTEX
  5
24A
100
AcDbEntity
  8
1
  6
CONTINUOUS
 62
   150
 48
0.75
100
AcDbVertex
100
AcDb2dVertex
 10
-2486.098944
 20
157.83773
 30
0.0
 40
0.0
 41
0.0
  0
VERTEX
  5
24B
100
AcDbEntity
  8
1
  6
CONTINUOUS
 62
   150
 48
0.75
100
AcDbVertex
100
AcDb2dVertex
 10
-2510.538944
 20
140.71773
 30
0.0
 40
0.0
 41
0.0
  0
VERTEX
  5
24C
100
AcDbEntity
  8
1
  6
CONTINUOUS
 62
   150
 48
0.75
100
AcDbVertex
100
AcDb2dVertex
 10
-2538.778944
 20
120.97773
 30
0.0
 40
0.0
 41
0.0
  0
VERTEX
  5
24D
100
AcDbEntity
  8
1
  6
CONTINUOUS
 62
   150
 48
0.75
100
AcDbVertex
100
AcDb2dVertex
 10
-2570.838944
 20
98.61773
 30
0.0
 40
0.0
 41
0.0
  0
VERTEX
  5
24E
100
AcDbEntity
  8
1
  6
CONTINUOUS
 62
   150
 48
0.75
100
AcDbVertex
100
AcDb2dVertex
 10
-2606.718944
 20
73.63773
 30
0.0
 40
0.0
 41
0.0
  0
VERTEX
  5
24F
100
AcDbEntity
  8
1
  6
CONTINUOUS
 62
   150
 48
0.75
100
AcDbVertex
100
AcDb2dVertex
 10
-2646.398944
 20
46.05773
 30
0.0
 40
0.0
 41
0.0
  0
VERTEX
  5
250
100
AcDbEntity
  8
1
  6
CONTINUOUS
 62
   150
 48
0.75
100
AcDbVertex
100
AcDb2dVertex
 10
-2689.898944
 20
15.85773
 30
0.0
 40
0.0
 41
0.0
  0
VERTEX
  5
251
100
AcDbEntity
  8
1
  6
CONTINUOUS
 62
   150
 48
0.75
100
AcDbVertex
100
AcDb2dVertex
 10
-2737.218944
 20
-16.94227
 30
0.0
 40
0.0
 41
0.0
  0
VERTEX
  5
252
100
AcDbEntity
  8
1
  6
CONTINUOUS
 62
   150
 48
0.75
100
AcDbVertex
100
AcDb2dVertex
 10
-2788.338944
 20
-52.38227
 30
0.0
 40
0.0
 41
0.0
  0
VERTEX
  5
253
100
AcDbEntity
  8
1
  6
CONTINUOUS
 62
   150
 48
0.75
100
AcDbVertex
100
AcDb2dVertex
 10
-2843.278944
 20
-90.42227
 30
0.0
 40
0.0
 41
0.0
  0
SEQEND
  5
254
100
AcDbEntity
  8
0
  0
POLYLINE
  5
255
100
AcDbEntity
  8
1
  6
CONTINUOUS
 62
   150
 48
0.75
100
AcDb2dPolyline
 66
     1
 10
0.0
 20
0.0
 30
0.0
 70
   128
  0
VERTEX
  5
256
100
AcDbEntity
  8
1
  6
CONTINUOUS
 62
   150
 48
0.75
100
AcDbVertex
100
AcDb2dVertex
 10
-3393.138944
 20
552.55773
 30
0.0
 40
0.0
 41
0.0
  0
VERTEX
  5
257
100
AcDbEntity
  8
1
  6
CONTINUOUS
 62
   150
 48
0.75
100
AcDbVertex
100
AcDb2dVertex
 10
-3396.318944
 20
497.55773
 30
0.0
 40
0.0
 41
0.0
  0
VERTEX
  5
258
100
AcDbEntity
  8
1
  6
CONTINUOUS
 62
   150
 48
0.75
100
AcDbVertex
100
AcDb2dVertex
 10
-3278.098944
 20
137.55773
 30
0.0
 40
0.0
 41
0.0
  0
VERTEX
  5
259
100
AcDbEntity
  8
1
  6
CONTINUOUS
 62
   150
 48
0.75
100
AcDbVertex
100
AcDb2dVertex
 10
-3268.798944
 20
129.09773
 30
0.0
 40
0.0
 41
0.0
  0
VERTEX
  5
25A
100
AcDbEntity
  8
1
  6
CONTINUOUS
 62
   150
 48
0.75
100
AcDbVertex
100
AcDb2dVertex
 10
-3251.918944
 20
117.67773
 30
0.0
 40
0.0
 41
0.0
  0
VERTEX
  5
25B
100
AcDbEntity
  8
1
  6
CONTINUOUS
 62
   150
 48
0.75
100
AcDbVertex
100
AcDb2dVertex
 10
-3227.438944
 20
103.31773
 30
0.0
 40
0.0
 41
0.0
  0
VERTEX
  5
25C
100
AcDbEntity
  8
1
  6
CONTINUOUS
 62
   150
 48
0.75
100
AcDbVertex
100
AcDb2dVertex
 10
-3195.378944
 20
85.97773
 30
0.0
 40
0.0
 41
0.0
  0
VERTEX
  5
25D
100
AcDbEntity
  8
1
  6
CONTINUOUS
 62
   150
 48
0.75
100
AcDbVertex
100
AcDb2dVertex
 10
-3155.698944
 20
65.69773
 30
0.0
 40
0.0
 41
0.0
  0
VERTEX
  5
25E
100
AcDbEntity
  8
1
  6
CONTINUOUS
 62
   150
 48
0.75
100
AcDbVertex
100
AcDb2dVertex
 10
-3108.438944
 20
42.45773
 30
0.0
 40
0.0
 41
0.0
  0
VERTEX
  5
25F
100
AcDbEntity
  8
1
  6
CONTINUOUS
 62
   150
 48
0.75
100
AcDbVertex
100
AcDb2dVertex
 10
-3053.558944
 20
16.27773
 30
0.0
 40
0.0
 41
0.0
  0
VERTEX
  5
260
100
AcDbEntity
  8
1
  6
CONTINUOUS
 62
   150
 48
0.75
100
AcDbVertex
100
AcDb2dVertex
 10
-2991.118944
 20
-12.88227
 30
0.0
 40
0.0
 41
0.0
  0
VERTEX
  5
261
100
AcDbEntity
  8
1
  6
CONTINUOUS
 62
   150
 48
0.75
100
AcDbVertex
100
AcDb2dVertex
 10
-2921.058944
 20
-44.98227
 30
0.0
 40
0.0
 41
0.0
  0
VERTEX
  5
262
100
AcDbEntity
  8
1
  6
CONTINUOUS
 62
   150
 48
0.75
100
AcDbVertex
100
AcDb2dVertex
 10
-2843.398944
 20
-80.04227
 30
0.0
 40
0.0
 41
0.0
  0
SEQEND
  5
263
100
AcDbEntity
  8
0
  0
POLYLINE
  5
264
100
AcDbEntity
  8
1
  6
CONTINUOUS
 62
   150
 48
0.75
100
AcDb2dPolyline
 66
     1
 10
0.0
 20
0.0
 30
0.0
 70
   128
  0
VERTEX
  5
265
100
AcDbEntity
  8
1
  6
CONTINUOUS
 62
   150
 48
0.75
100
AcDbVertex
100
AcDb2dVertex
 10
-3393.138944
 20
552.55773
 30
0.0
 40
0.0
 41
0.0
  0
VERTEX
  5
266
100
AcDbEntity
  8
1
  6
CONTINUOUS
 62
   150
 48
0.75
100
AcDbVertex
100
AcDb2dVertex
 10
-3396.318944
 20
497.55773
 30
0.0
 40
0.0
 41
0.0
  0
VERTEX
  5
267
100
AcDbEntity
  8
1
  6
CONTINUOUS
 62
   150
 48
0.75
100
AcDbVertex
100
AcDb2dVertex
 10
-3278.098944
 20
137.55773
 30
0.0
 40
0.0
 41
0.0
  0
VERTEX
  5
268
100
AcDbEntity
  8
1
  6
CONTINUOUS
 62
   150
 48
0.75
100
AcDbVertex
100
AcDb2dVertex
 10
-3238.418944
 20
109.57773
 30
0.0
 40
0.0
 41
0.0
  0
VERTEX
  5
269
100
AcDbEntity
  8
1
  6
CONTINUOUS
 62
   150
 48
0.75
100
AcDbVertex
100
AcDb2dVertex
 10
-3195.718944
 20
86.17773
 30
0.0
 40
0.0
 41
0.0
  0
VERTEX
  5
26A
100
AcDbEntity
  8
1
  6
CONTINUOUS
 62
   150
 48
0.75
100
AcDbVertex
100
AcDb2dVertex
 10
-3152.338944
 20
64.01773
 30
0.0
 40
0.0
 41
0.0
  0
VERTEX
  5
26B
100
AcDbEntity
  8
1
  6
CONTINUOUS
 62
   150
 48
0.75
100
AcDbVertex
100
AcDb2dVertex
 10
-3108.618944
 20
42.55773
 30
0.0
 40
0.0
 41
0.0
  0
VERTEX
  5
26C
100
AcDbEntity
  8
1
  6
CONTINUOUS
 62
   150
 48
0.75
100
AcDbVertex
100
AcDb2dVertex
 10
-3064.678944
 20
21.51773
 30
0.0
 40
0.0
 41
0.0
  0
VERTEX
  5
26D
100
AcDbEntity
  8
1
  6
CONTINUOUS
 62
   150
 48
0.75
100
AcDbVertex
100
AcDb2dVertex
 10
-3020.598944
 20
0.79773
 30
0.0
 40
0.0
 41
0.0
  0
VERTEX
  5
26E
100
AcDbEntity
  8
1
  6
CONTINUOUS
 62
   150
 48
0.75
100
AcDbVertex
100
AcDb2dVertex
 10
-2976.398944
 20
-19.66227
 30
0.0
 40
0.0
 41
0.0
  0
VERTEX
  5
26F
100
AcDbEntity
  8
1
  6
CONTINUOUS
 62
   150
 48
0.75
100
AcDbVertex
100
AcDb2dVertex
 10
-2932.118944
 20
-39.96227
 30
0.0
 40
0.0
 41
0.0
  0
VERTEX
  5
270
100
AcDbEntity
  8
1
  6
CONTINUOUS
 62
   150
 48
0.75
100
AcDbVertex
100
AcDb2dVertex
 10
-2887.758944
 20
-60.08227
 30
0.0
 40
0.0
 41
0.0
  0
VERTEX
  5
271
100
AcDbEntity
  8
1
  6
CONTINUOUS
 62
   150
 48
0.75
100
AcDbVertex
100
AcDb2dVertex
 10
-2843.338944
 20
-80.08227
 30
0.0
 40
0.0
 41
0.0
  0
SEQEND
  5
272
100
AcDbEntity
  8
0
  0
POLYLINE
  5
273
100
AcDbEntity
  8
1
  6
CONTINUOUS
 62
   150
 48
0.75
100
AcDb2dPolyline
 66
     1
 10
0.0
 20
0.0
 30
0.0
 70
   128
  0
VERTEX
  5
274
100
AcDbEntity
  8
1
  6
CONTINUOUS
 62
   150
 48
0.75
100
AcDbVertex
100
AcDb2dVertex
 10
-2293.538944
 20
552.55773
 30
0.0
 40
0.0
 41
0.0
  0
VERTEX
  5
275
100
AcDbEntity
  8
1
  6
CONTINUOUS
 62
   150
 48
0.75
100
AcDbVertex
100
AcDb2dVertex
 10
-2290.358944
 20
497.55773
 30
0.0
 40
0.0
 41
0.0
  0
VERTEX
  5
276
100
AcDbEntity
  8
1
  6
CONTINUOUS
 62
   150
 48
0.75
100
AcDbVertex
100
AcDb2dVertex
 10
-2408.578944
 20
137.55773
 30
0.0
 40
0.0
 41
0.0
  0
VERTEX
  5
277
100
AcDbEntity
  8
1
  6
CONTINUOUS
 62
   150
 48
0.75
100
AcDbVertex
100
AcDb2dVertex
 10
-2417.878944
 20
129.09773
 30
0.0
 40
0.0
 41
0.0
  0
VERTEX
  5
278
100
AcDbEntity
  8
1
  6
CONTINUOUS
 62
   150
 48
0.75
100
AcDbVertex
100
AcDb2dVertex
 10
-2434.758944
 20
117.67773
 30
0.0
 40
0.0
 41
0.0
  0
VERTEX
  5
279
100
AcDbEntity
  8
1
  6
CONTINUOUS
 62
   150
 48
0.75
100
AcDbVertex
100
AcDb2dVertex
 10
-2459.238944
 20
103.31773
 30
0.0
 40
0.0
 41
0.0
  0
VERTEX
  5
27A
100
AcDbEntity
  8
1
  6
CONTINUOUS
 62
   150
 48
0.75
100
AcDbVertex
100
AcDb2dVertex
 10
-2491.298944
 20
85.97773
 30
0.0
 40
0.0
 41
0.0
  0
VERTEX
  5
27B
100
AcDbEntity
  8
1
  6
CONTINUOUS
 62
   150
 48
0.75
100
AcDbVertex
100
AcDb2dVertex
 10
-2530.978944
 20
65.69773
 30
0.0
 40
0.0
 41
0.0
  0
VERTEX
  5
27C
100
AcDbEntity
  8
1
  6
CONTINUOUS
 62
   150
 48
0.75
100
AcDbVertex
100
AcDb2dVertex
 10
-2578.238944
 20
42.45773
 30
0.0
 40
0.0
 41
0.0
  0
VERTEX
  5
27D
100
AcDbEntity
  8
1
  6
CONTINUOUS
 62
   150
 48
0.75
100
AcDbVertex
100
AcDb2dVertex
 10
-2633.118944
 20
16.27773
 30
0.0
 40
0.0
 41
0.0
  0
VERTEX
  5
27E
100
AcDbEntity
  8
1
  6
CONTINUOUS
 62
   150
 48
0.75
100
AcDbVertex
100
AcDb2dVertex
 10
-2695.558944
 20
-12.88227
 30
0.0
 40
0.0
 41
0.0
  0
VERTEX
  5
27F
100
AcDbEntity
  8
1
  6
CONTINUOUS
 62
   150
 48
0.75
100
AcDbVertex
100
AcDb2dVertex
 10
-2765.618944
 20
-44.98227
 30
0.0
 40
0.0
 41
0.0
  0
VERTEX
  5
280
100
AcDbEntity
  8
1
  6
CONTINUOUS
 62
   150
 48
0.75
100
AcDbVertex
100
AcDb2dVertex
 10
-2843.278944
 20
-80.04227
 30
0.0
 40
0.0
 41
0.0
  0
SEQEND
  5
281
100
AcDbEntity
  8
0
  0
POLYLINE
  5
282
100
AcDbEntity
  8
1
  6
CONTINUOUS
 62
   150
 48
0.75
100
AcDb2dPolyline
 66
     1
 10
0.0
 20
0.0
 30
0.0
 70
   128
  0
VERTEX
  5
283
100
AcDbEntity
  8
1
  6
CONTINUOUS
 62
   150
 48
0.75
100
AcDbVertex
100
AcDb2dVertex
 10
-3408.338944
 20
547.55773
 30
0.0
 40
0.0
 41
0.0
  0
VERTEX
  5
284
100
AcDbEntity
  8
1
  6
CONTINUOUS
 62
   150
 48
0.75
100
AcDbVertex
100
AcDb2dVertex
 10
-3408.338944
 20
492.55773
 30
0.0
 40
0.0
 41
0.0
  0
VERTEX
  5
285
100
AcDbEntity
  8
1
  6
CONTINUOUS
 62
   150
 48
0.75
100
AcDbVertex
100
AcDb2dVertex
 10
-3306.958944
 20
115.15773
 30
0.0
 40
0.0
 41
0.0
  0
VERTEX
  5
286
100
AcDbEntity
  8
1
  6
CONTINUOUS
 62
   150
 48
0.75
100
AcDbVertex
100
AcDb2dVertex
 10
-3301.598944
 20
110.57773
 30
0.0
 40
0.0
 41
0.0
  0
VERTEX
  5
287
100
AcDbEntity
  8
1
  6
CONTINUOUS
 62
   150
 48
0.75
100
AcDbVertex
100
AcDb2dVertex
 10
-3287.118944
 20
102.83773
 30
0.0
 40
0.0
 41
0.0
  0
VERTEX
  5
288
100
AcDbEntity
  8
1
  6
CONTINUOUS
 62
   150
 48
0.75
100
AcDbVertex
100
AcDb2dVertex
 10
-3263.558944
 20
91.95773
 30
0.0
 40
0.0
 41
0.0
  0
VERTEX
  5
289
100
AcDbEntity
  8
1
  6
CONTINUOUS
 62
   150
 48
0.75
100
AcDbVertex
100
AcDb2dVertex
 10
-3230.878944
 20
77.93773
 30
0.0
 40
0.0
 41
0.0
  0
VERTEX
  5
28A
100
AcDbEntity
  8
1
  6
CONTINUOUS
 62
   150
 48
0.75
100
AcDbVertex
100
AcDb2dVertex
 10
-3189.078944
 20
60.75773
 30
0.0
 40
0.0
 41
0.0
  0
VERTEX
  5
28B
100
AcDbEntity
  8
1
  6
CONTINUOUS
 62
   150
 48
0.75
100
AcDbVertex
100
AcDb2dVertex
 10
-3138.178944
 20
40.43773
 30
0.0
 40
0.0
 41
0.0
  0
VERTEX
  5
28C
100
AcDbEntity
  8
1
  6
CONTINUOUS
 62
   150
 48
0.75
100
AcDbVertex
100
AcDb2dVertex
 10
-3078.158944
 20
16.97773
 30
0.0
 40
0.0
 41
0.0
  0
VERTEX
  5
28D
100
AcDbEntity
  8
1
  6
CONTINUOUS
 62
   150
 48
0.75
100
AcDbVertex
100
AcDb2dVertex
 10
-3009.018944
 20
-9.64227
 30
0.0
 40
0.0
 41
0.0
  0
VERTEX
  5
28E
100
AcDbEntity
  8
1
  6
CONTINUOUS
 62
   150
 48
0.75
100
AcDbVertex
100
AcDb2dVertex
 10
-2930.778944
 20
-39.40227
 30
0.0
 40
0.0
 41
0.0
  0
VERTEX
  5
28F
100
AcDbEntity
  8
1
  6
CONTINUOUS
 62
   150
 48
0.75
100
AcDbVertex
100
AcDb2dVertex
 10
-2843.438944
 20
-72.30227
 30
0.0
 40
0.0
 41
0.0
  0
SEQEND
  5
290
100
AcDbEntity
  8
0
  0
POLYLINE
  5
291
100
AcDbEntity
  8
1
  6
CONTINUOUS
 62
   150
 48
0.75
100
AcDb2dPolyline
 66
     1
 10
0.0
 20
0.0
 30
0.0
 70
   128
  0
VERTEX
  5
292
100
AcDbEntity
  8
1
  6
CONTINUOUS
 62
   150
 48
0.75
100
AcDbVertex
100
AcDb2dVertex
 10
-3408.338944
 20
547.55773
 30
0.0
 40
0.0
 41
0.0
  0
VERTEX
  5
293
100
AcDbEntity
  8
1
  6
CONTINUOUS
 62
   150
 48
0.75
100
AcDbVertex
100
AcDb2dVertex
 10
-3408.338944
 20
492.55773
 30
0.0
 40
0.0
 41
0.0
  0
VERTEX
  5
294
100
AcDbEntity
  8
1
  6
CONTINUOUS
 62
   150
 48
0.75
100
AcDbVertex
100
AcDb2dVertex
 10
-3306.958944
 20
115.15773
 30
0.0
 40
0.0
 41
0.0
  0
VERTEX
  5
295
100
AcDbEntity
  8
1
  6
CONTINUOUS
 62
   150
 48
0.75
100
AcDbVertex
100
AcDb2dVertex
 10
-3263.038944
 20
91.73773
 30
0.0
 40
0.0
 41
0.0
  0
VERTEX
  5
296
100
AcDbEntity
  8
1
  6
CONTINUOUS
 62
   150
 48
0.75
100
AcDbVertex
100
AcDb2dVertex
 10
-3216.938944
 20
72.15773
 30
0.0
 40
0.0
 41
0.0
  0
VERTEX
  5
297
100
AcDbEntity
  8
1
  6
CONTINUOUS
 62
   150
 48
0.75
100
AcDbVertex
100
AcDb2dVertex
 10
-3170.558944
 20
53.33773
 30
0.0
 40
0.0
 41
0.0
  0
VERTEX
  5
298
100
AcDbEntity
  8
1
  6
CONTINUOUS
 62
   150
 48
0.75
100
AcDbVertex
100
AcDb2dVertex
 10
-3123.998944
 20
34.87773
 30
0.0
 40
0.0
 41
0.0
  0
VERTEX
  5
299
100
AcDbEntity
  8
1
  6
CONTINUOUS
 62
   150
 48
0.75
100
AcDbVertex
100
AcDb2dVertex
 10
-3077.358944
 20
16.67773
 30
0.0
 40
0.0
 41
0.0
  0
VERTEX
  5
29A
100
AcDbEntity
  8
1
  6
CONTINUOUS
 62
   150
 48
0.75
100
AcDbVertex
100
AcDb2dVertex
 10
-3030.638944
 20
-1.34227
 30
0.0
 40
0.0
 41
0.0
  0
VERTEX
  5
29B
100
AcDbEntity
  8
1
  6
CONTINUOUS
 62
   150
 48
0.75
100
AcDbVertex
100
AcDb2dVertex
 10
-2983.858944
 20
-19.22227
 30
0.0
 40
0.0
 41
0.0
  0
VERTEX
  5
29C
100
AcDbEntity
  8
1
  6
CONTINUOUS
 62
   150
 48
0.75
100
AcDbVertex
100
AcDb2dVertex
 10
-2937.058944
 20
-37.00227
 30
0.0
 40
0.0
 41
0.0
  0
VERTEX
  5
29D
100
AcDbEntity
  8
1
  6
CONTINUOUS
 62
   150
 48
0.75
100
AcDbVertex
100
AcDb2dVertex
 10
-2890.218944
 20
-54.70227
 30
0.0
 40
0.0
 41
0.0
  0
VERTEX
  5
29E
100
AcDbEntity
  8
1
  6
CONTINUOUS
 62
   150
 48
0.75
100
AcDbVertex
100
AcDb2dVertex
 10
-2843.338944
 20
-72.32227
 30
0.0
 40
0.0
 41
0.0
  0
SEQEND
  5
29F
100
AcDbEntity
  8
0
  0
POLYLINE
  5
2A0
100
AcDbEntity
  8
1
  6
CONTINUOUS
 62
   150
 48
0.75
100
AcDb2dPolyline
 66
     1
 10
0.0
 20
0.0
 30
0.0
 70
   128
  0
VERTEX
  5
2A1
100
AcDbEntity
  8
1
  6
CONTINUOUS
 62
   150
 48
0.75
100
AcDbVertex
100
AcDb2dVertex
 10
-2278.338944
 20
547.55773
 30
0.0
 40
0.0
 41
0.0
  0
VERTEX
  5
2A2
100
AcDbEntity
  8
1
  6
CONTINUOUS
 62
   150
 48
0.75
100
AcDbVertex
100
AcDb2dVertex
 10
-2278.338944
 20
492.55773
 30
0.0
 40
0.0
 41
0.0
  0
VERTEX
  5
2A3
100
AcDbEntity
  8
1
  6
CONTINUOUS
 62
   150
 48
0.75
100
AcDbVertex
100
AcDb2dVertex
 10
-2379.718944
 20
115.15773
 30
0.0
 40
0.0
 41
0.0
  0
VERTEX
  5
2A4
100
AcDbEntity
  8
1
  6
CONTINUOUS
 62
   150
 48
0.75
100
AcDbVertex
100
AcDb2dVertex
 10
-2385.078944
 20
110.57773
 30
0.0
 40
0.0
 41
0.0
  0
VERTEX
  5
2A5
100
AcDbEntity
  8
1
  6
CONTINUOUS
 62
   150
 48
0.75
100
AcDbVertex
100
AcDb2dVertex
 10
-2399.558944
 20
102.83773
 30
0.0
 40
0.0
 41
0.0
  0
VERTEX
  5
2A6
100
AcDbEntity
  8
1
  6
CONTINUOUS
 62
   150
 48
0.75
100
AcDbVertex
100
AcDb2dVertex
 10
-2423.118944
 20
91.95773
 30
0.0
 40
0.0
 41
0.0
  0
VERTEX
  5
2A7
100
AcDbEntity
  8
1
  6
CONTINUOUS
 62
   150
 48
0.75
100
AcDbVertex
100
AcDb2dVertex
 10
-2455.798944
 20
77.93773
 30
0.0
 40
0.0
 41
0.0
  0
VERTEX
  5
2A8
100
AcDbEntity
  8
1
  6
CONTINUOUS
 62
   150
 48
0.75
100
AcDbVertex
100
AcDb2dVertex
 10
-2497.598944
 20
60.75773
 30
0.0
 40
0.0
 41
0.0
  0
VERTEX
  5
2A9
100
AcDbEntity
  8
1
  6
CONTINUOUS
 62
   150
 48
0.75
100
AcDbVertex
100
AcDb2dVertex
 10
-2548.498944
 20
40.43773
 30
0.0
 40
0.0
 41
0.0
  0
VERTEX
  5
2AA
100
AcDbEntity
  8
1
  6
CONTINUOUS
 62
   150
 48
0.75
100
AcDbVertex
100
AcDb2dVertex
 10
-2608.518944
 20
16.97773
 30
0.0
 40
0.0
 41
0.0
  0
VERTEX
  5
2AB
100
AcDbEntity
  8
1
  6
CONTINUOUS
 62
   150
 48
0.75
100
AcDbVertex
100
AcDb2dVertex
 10
-2677.658944
 20
-9.64227
 30
0.0
 40
0.0
 41
0.0
  0
VERTEX
  5
2AC
100
AcDbEntity
  8
1
  6
CONTINUOUS
 62
   150
 48
0.75
100
AcDbVertex
100
AcDb2dVertex
 10
-2755.898944
 20
-39.40227
 30
0.0
 40
0.0
 41
0.0
  0
VERTEX
  5
2AD
100
AcDbEntity
  8
1
  6
CONTINUOUS
 62
   150
 48
0.75
100
AcDbVertex
100
AcDb2dVertex
 10
-2843.238944
 20
-72.30227
 30
0.0
 40
0.0
 41
0.0
  0
SEQEND
  5
2AE
100
AcDbEntity
  8
0
  0
POLYLINE
  5
2AF
100
AcDbEntity
  8
1
  6
CONTINUOUS
 62
   150
 48
0.75
100
AcDb2dPolyline
 66
     1
 10
0.0
 20
0.0
 30
0.0
 70
   128
  0
VERTEX
  5
2B0
100
AcDbEntity
  8
1
  6
CONTINUOUS
 62
   150
 48
0.75
100
AcDbVertex
100
AcDb2dVertex
 10
-3412.338944
 20
544.55773
 30
0.0
 40
0.0
 41
0.0
  0
VERTEX
  5
2B1
100
AcDbEntity
  8
1
  6
CONTINUOUS
 62
   150
 48
0.75
100
AcDbVertex
100
AcDb2dVertex
 10
-3412.338944
 20
489.53773
 30
0.0
 40
0.0
 41
0.0
  0
VERTEX
  5
2B2
100
AcDbEntity
  8
1
  6
CONTINUOUS
 62
   150
 48
0.75
100
AcDbVertex
100
AcDb2dVertex
 10
-3320.178944
 20
100.55773
 30
0.0
 40
0.0
 41
0.0
  0
VERTEX
  5
2B3
100
AcDbEntity
  8
1
  6
CONTINUOUS
 62
   150
 48
0.75
100
AcDbVertex
100
AcDb2dVertex
 10
-3315.238944
 20
98.17773
 30
0.0
 40
0.0
 41
0.0
  0
VERTEX
  5
2B4
100
AcDbEntity
  8
1
  6
CONTINUOUS
 62
   150
 48
0.75
100
AcDbVertex
100
AcDb2dVertex
 10
-3300.818944
 20
92.67773
 30
0.0
 40
0.0
 41
0.0
  0
VERTEX
  5
2B5
100
AcDbEntity
  8
1
  6
CONTINUOUS
 62
   150
 48
0.75
100
AcDbVertex
100
AcDb2dVertex
 10
-3276.878944
 20
84.01773
 30
0.0
 40
0.0
 41
0.0
  0
VERTEX
  5
2B6
100
AcDbEntity
  8
1
  6
CONTINUOUS
 62
   150
 48
0.75
100
AcDbVertex
100
AcDb2dVertex
 10
-3243.458944
 20
72.21773
 30
0.0
 40
0.0
 41
0.0
  0
VERTEX
  5
2B7
100
AcDbEntity
  8
1
  6
CONTINUOUS
 62
   150
 48
0.75
100
AcDbVertex
100
AcDb2dVertex
 10
-3200.538944
 20
57.29773
 30
0.0
 40
0.0
 41
0.0
  0
VERTEX
  5
2B8
100
AcDbEntity
  8
1
  6
CONTINUOUS
 62
   150
 48
0.75
100
AcDbVertex
100
AcDb2dVertex
 10
-3148.118944
 20
39.21773
 30
0.0
 40
0.0
 41
0.0
  0
VERTEX
  5
2B9
100
AcDbEntity
  8
1
  6
CONTINUOUS
 62
   150
 48
0.75
100
AcDbVertex
100
AcDb2dVertex
 10
-3086.198944
 20
18.01773
 30
0.0
 40
0.0
 41
0.0
  0
VERTEX
  5
2BA
100
AcDbEntity
  8
1
  6
CONTINUOUS
 62
   150
 48
0.75
100
AcDbVertex
100
AcDb2dVertex
 10
-3014.778944
 20
-6.34227
 30
0.0
 40
0.0
 41
0.0
  0
VERTEX
  5
2BB
100
AcDbEntity
  8
1
  6
CONTINUOUS
 62
   150
 48
0.75
100
AcDbVertex
100
AcDb2dVertex
 10
-2933.858944
 20
-33.82227
 30
0.0
 40
0.0
 41
0.0
  0
VERTEX
  5
2BC
100
AcDbEntity
  8
1
  6
CONTINUOUS
 62
   150
 48
0.75
100
AcDbVertex
100
AcDb2dVertex
 10
-2843.438944
 20
-64.46227
 30
0.0
 40
0.0
 41
0.0
  0
SEQEND
  5
2BD
100
AcDbEntity
  8
0
  0
POLYLINE
  5
2BE
100
AcDbEntity
  8
1
  6
CONTINUOUS
 62
   150
 48
0.75
100
AcDb2dPolyline
 66
     1
 10
0.0
 20
0.0
 30
0.0
 70
   128
  0
VERTEX
  5
2BF
100
AcDbEntity
  8
1
  6
CONTINUOUS
 62
   150
 48
0.75
100
AcDbVertex
100
AcDb2dVertex
 10
-3412.338944
 20
544.55773
 30
0.0
 40
0.0
 41
0.0
  0
VERTEX
  5
2C0
100
AcDbEntity
  8
1
  6
CONTINUOUS
 62
   150
 48
0.75
100
AcDbVertex
100
AcDb2dVertex
 10
-3412.338944
 20
489.55773
 30
0.0
 40
0.0
 41
0.0
  0
VERTEX
  5
2C1
100
AcDbEntity
  8
1
  6
CONTINUOUS
 62
   150
 48
0.75
100
AcDbVertex
100
AcDb2dVertex
 10
-3320.178944
 20
100.55773
 30
0.0
 40
0.0
 41
0.0
  0
VERTEX
  5
2C2
100
AcDbEntity
  8
1
  6
CONTINUOUS
 62
   150
 48
0.75
100
AcDbVertex
100
AcDb2dVertex
 10
-3273.038944
 20
82.65773
 30
0.0
 40
0.0
 41
0.0
  0
VERTEX
  5
2C3
100
AcDbEntity
  8
1
  6
CONTINUOUS
 62
   150
 48
0.75
100
AcDbVertex
100
AcDb2dVertex
 10
-3225.418944
 20
65.93773
 30
0.0
 40
0.0
 41
0.0
  0
VERTEX
  5
2C4
100
AcDbEntity
  8
1
  6
CONTINUOUS
 62
   150
 48
0.75
100
AcDbVertex
100
AcDb2dVertex
 10
-3177.738944
 20
49.43773
 30
0.0
 40
0.0
 41
0.0
  0
VERTEX
  5
2C5
100
AcDbEntity
  8
1
  6
CONTINUOUS
 62
   150
 48
0.75
100
AcDbVertex
100
AcDb2dVertex
 10
-3129.998944
 20
33.01773
 30
0.0
 40
0.0
 41
0.0
  0
VERTEX
  5
2C6
100
AcDbEntity
  8
1
  6
CONTINUOUS
 62
   150
 48
0.75
100
AcDbVertex
100
AcDb2dVertex
 10
-3082.258944
 20
16.67773
 30
0.0
 40
0.0
 41
0.0
  0
VERTEX
  5
2C7
100
AcDbEntity
  8
1
  6
CONTINUOUS
 62
   150
 48
0.75
100
AcDbVertex
100
AcDb2dVertex
 10
-3034.498944
 20
0.39773
 30
0.0
 40
0.0
 41
0.0
  0
VERTEX
  5
2C8
100
AcDbEntity
  8
1
  6
CONTINUOUS
 62
   150
 48
0.75
100
AcDbVertex
100
AcDb2dVertex
 10
-2986.718944
 20
-15.86227
 30
0.0
 40
0.0
 41
0.0
  0
VERTEX
  5
2C9
100
AcDbEntity
  8
1
  6
CONTINUOUS
 62
   150
 48
0.75
100
AcDbVertex
100
AcDb2dVertex
 10
-2938.938944
 20
-32.10227
 30
0.0
 40
0.0
 41
0.0
  0
VERTEX
  5
2CA
100
AcDbEntity
  8
1
  6
CONTINUOUS
 62
   150
 48
0.75
100
AcDbVertex
100
AcDb2dVertex
 10
-2891.138944
 20
-48.30227
 30
0.0
 40
0.0
 41
0.0
  0
VERTEX
  5
2CB
100
AcDbEntity
  8
1
  6
CONTINUOUS
 62
   150
 48
0.75
100
AcDbVertex
100
AcDb2dVertex
 10
-2843.338944
 20
-64.48227
 30
0.0
 40
0.0
 41
0.0
  0
SEQEND
  5
2CC
100
AcDbEntity
  8
0
  0
POLYLINE
  5
2CD
100
AcDbEntity
  8
1
  6
CONTINUOUS
 62
   150
 48
0.75
100
AcDb2dPolyline
 66
     1
 10
0.0
 20
0.0
 30
0.0
 70
   128
  0
VERTEX
  5
2CE
100
AcDbEntity
  8
1
  6
CONTINUOUS
 62
   150
 48
0.75
100
AcDbVertex
100
AcDb2dVertex
 10
-2274.338944
 20
544.55773
 30
0.0
 40
0.0
 41
0.0
  0
VERTEX
  5
2CF
100
AcDbEntity
  8
1
  6
CONTINUOUS
 62
   150
 48
0.75
100
AcDbVertex
100
AcDb2dVertex
 10
-2274.338944
 20
489.53773
 30
0.0
 40
0.0
 41
0.0
  0
VERTEX
  5
2D0
100
AcDbEntity
  8
1
  6
CONTINUOUS
 62
   150
 48
0.75
100
AcDbVertex
100
AcDb2dVertex
 10
-2366.498944
 20
100.55773
 30
0.0
 40
0.0
 41
0.0
  0
VERTEX
  5
2D1
100
AcDbEntity
  8
1
  6
CONTINUOUS
 62
   150
 48
0.75
100
AcDbVertex
100
AcDb2dVertex
 10
-2371.438944
 20
98.17773
 30
0.0
 40
0.0
 41
0.0
  0
VERTEX
  5
2D2
100
AcDbEntity
  8
1
  6
CONTINUOUS
 62
   150
 48
0.75
100
AcDbVertex
100
AcDb2dVertex
 10
-2385.858944
 20
92.67773
 30
0.0
 40
0.0
 41
0.0
  0
VERTEX
  5
2D3
100
AcDbEntity
  8
1
  6
CONTINUOUS
 62
   150
 48
0.75
100
AcDbVertex
100
AcDb2dVertex
 10
-2409.798944
 20
84.01773
 30
0.0
 40
0.0
 41
0.0
  0
VERTEX
  5
2D4
100
AcDbEntity
  8
1
  6
CONTINUOUS
 62
   150
 48
0.75
100
AcDbVertex
100
AcDb2dVertex
 10
-2443.218944
 20
72.21773
 30
0.0
 40
0.0
 41
0.0
  0
VERTEX
  5
2D5
100
AcDbEntity
  8
1
  6
CONTINUOUS
 62
   150
 48
0.75
100
AcDbVertex
100
AcDb2dVertex
 10
-2486.138944
 20
57.29773
 30
0.0
 40
0.0
 41
0.0
  0
VERTEX
  5
2D6
100
AcDbEntity
  8
1
  6
CONTINUOUS
 62
   150
 48
0.75
100
AcDbVertex
100
AcDb2dVertex
 10
-2538.558944
 20
39.21773
 30
0.0
 40
0.0
 41
0.0
  0
VERTEX
  5
2D7
100
AcDbEntity
  8
1
  6
CONTINUOUS
 62
   150
 48
0.75
100
AcDbVertex
100
AcDb2dVertex
 10
-2600.478944
 20
18.01773
 30
0.0
 40
0.0
 41
0.0
  0
VERTEX
  5
2D8
100
AcDbEntity
  8
1
  6
CONTINUOUS
 62
   150
 48
0.75
100
AcDbVertex
100
AcDb2dVertex
 10
-2671.898944
 20
-6.34227
 30
0.0
 40
0.0
 41
0.0
  0
VERTEX
  5
2D9
100
AcDbEntity
  8
1
  6
CONTINUOUS
 62
   150
 48
0.75
100
AcDbVertex
100
AcDb2dVertex
 10
-2752.818944
 20
-33.82227
 30
0.0
 40
0.0
 41
0.0
  0
VERTEX
  5
2DA
100
AcDbEntity
  8
1
  6
CONTINUOUS
 62
   150
 48
0.75
100
AcDbVertex
100
AcDb2dVertex
 10
-2843.238944
 20
-64.46227
 30
0.0
 40
0.0
 41
0.0
  0
SEQEND
  5
2DB
100
AcDbEntity
  8
0
  0
POLYLINE
  5
2DC
100
AcDbEntity
  8
1
  6
CONTINUOUS
 62
   150
 48
0.75
100
AcDb2dPolyline
 66
     1
 10
0.0
 20
0.0
 30
0.0
 70
   128
  0
VERTEX
  5
2DD
100
AcDbEntity
  8
1
  6
CONTINUOUS
 62
   150
 48
0.75
100
AcDbVertex
100
AcDb2dVertex
 10
-3408.338944
 20
538.55773
 30
0.0
 40
0.0
 41
0.0
  0
VERTEX
  5
2DE
100
AcDbEntity
  8
1
  6
CONTINUOUS
 62
   150
 48
0.75
100
AcDbVertex
100
AcDb2dVertex
 10
-3408.338944
 20
483.55773
 30
0.0
 40
0.0
 41
0.0
  0
VERTEX
  5
2DF
100
AcDbEntity
  8
1
  6
CONTINUOUS
 62
   150
 48
0.75
100
AcDbVertex
100
AcDb2dVertex
 10
-3316.178944
 20
91.15773
 30
0.0
 40
0.0
 41
0.0
  0
VERTEX
  5
2E0
100
AcDbEntity
  8
1
  6
CONTINUOUS
 62
   150
 48
0.75
100
AcDbVertex
100
AcDb2dVertex
 10
-2843.338944
 20
-57.48227
 30
0.0
 40
0.0
 41
0.0
  0
SEQEND
  5
2E1
100
AcDbEntity
  8
0
  0
POLYLINE
  5
2E2
100
AcDbEntity
  8
1
  6
CONTINUOUS
 62
   150
 48
0.75
100
AcDb2dPolyline
 66
     1
 10
0.0
 20
0.0
 30
0.0
 70
   128
  0
VERTEX
  5
2E3
100
AcDbEntity
  8
1
  6
CONTINUOUS
 62
   150
 48
0.75
100
AcDbVertex
100
AcDb2dVertex
 10
-3408.338944
 20
538.55773
 30
0.0
 40
0.0
 41
0.0
  0
VERTEX
  5
2E4
100
AcDbEntity
  8
1
  6
CONTINUOUS
 62
   150
 48
0.75
100
AcDbVertex
100
AcDb2dVertex
 10
-3408.338944
 20
483.55773
 30
0.0
 40
0.0
 41
0.0
  0
VERTEX
  5
2E5
100
AcDbEntity
  8
1
  6
CONTINUOUS
 62
   150
 48
0.75
100
AcDbVertex
100
AcDb2dVertex
 10
-3316.178944
 20
91.15773
 30
0.0
 40
0.0
 41
0.0
  0
VERTEX
  5
2E6
100
AcDbEntity
  8
1
  6
CONTINUOUS
 62
   150
 48
0.75
100
AcDbVertex
100
AcDb2dVertex
 10
-2843.338944
 20
-57.48227
 30
0.0
 40
0.0
 41
0.0
  0
SEQEND
  5
2E7
100
AcDbEntity
  8
0
  0
POLYLINE
  5
2E8
100
AcDbEntity
  8
1
  6
CONTINUOUS
 62
   150
 48
0.75
100
AcDb2dPolyline
 66
     1
 10
0.0
 20
0.0
 30
0.0
 70
   128
  0
VERTEX
  5
2E9
100
AcDbEntity
  8
1
  6
CONTINUOUS
 62
   150
 48
0.75
100
AcDbVertex
100
AcDb2dVertex
 10
-2278.338944
 20
538.55773
 30
0.0
 40
0.0
 41
0.0
  0
VERTEX
  5
2EA
100
AcDbEntity
  8
1
  6
CONTINUOUS
 62
   150
 48
0.75
100
AcDbVertex
100
AcDb2dVertex
 10
-2278.338944
 20
483.55773
 30
0.0
 40
0.0
 41
0.0
  0
VERTEX
  5
2EB
100
AcDbEntity
  8
1
  6
CONTINUOUS
 62
   150
 48
0.75
100
AcDbVertex
100
AcDb2dVertex
 10
-2370.498944
 20
91.15773
 30
0.0
 40
0.0
 41
0.0
  0
VERTEX
  5
2EC
100
AcDbEntity
  8
1
  6
CONTINUOUS
 62
   150
 48
0.75
100
AcDbVertex
100
AcDb2dVertex
 10
-2843.338944
 20
-57.48227
 30
0.0
 40
0.0
 41
0.0
  0
SEQEND
  5
2ED
100
AcDbEntity
  8
0
  0
POLYLINE
  5
2EE
100
AcDbEntity
  8
1
  6
CONTINUOUS
 62
   150
 48
0.75
100
AcDb2dPolyline
 66
     1
 10
0.0
 20
0.0
 30
0.0
 70
   128
  0
VERTEX
  5
2EF
100
AcDbEntity
  8
1
  6
CONTINUOUS
 62
   150
 48
0.75
100
AcDbVertex
100
AcDb2dVertex
 10
-3402.318944
 20
536.55773
 30
0.0
 40
0.0
 41
0.0
  0
VERTEX
  5
2F0
100
AcDbEntity
  8
1
  6
CONTINUOUS
 62
   150
 48
0.75
100
AcDbVertex
100
AcDb2dVertex
 10
-3402.318944
 20
481.55773
 30
0.0
 40
0.0
 41
0.0
  0
VERTEX
  5
2F1
100
AcDbEntity
  8
1
  6
CONTINUOUS
 62
   150
 48
0.75
100
AcDbVertex
100
AcDb2dVertex
 10
-3310.138944
 20
85.15773
 30
0.0
 40
0.0
 41
0.0
  0
VERTEX
  5
2F2
100
AcDbEntity
  8
1
  6
CONTINUOUS
 62
   150
 48
0.75
100
AcDbVertex
100
AcDb2dVertex
 10
-2843.338944
 20
-52.20227
 30
0.0
 40
0.0
 41
0.0
  0
SEQEND
  5
2F3
100
AcDbEntity
  8
0
  0
POLYLINE
  5
2F4
100
AcDbEntity
  8
1
  6
CONTINUOUS
 62
   150
 48
0.75
100
AcDb2dPolyline
 66
     1
 10
0.0
 20
0.0
 30
0.0
 70
   128
  0
VERTEX
  5
2F5
100
AcDbEntity
  8
1
  6
CONTINUOUS
 62
   150
 48
0.75
100
AcDbVertex
100
AcDb2dVertex
 10
-3402.318944
 20
536.55773
 30
0.0
 40
0.0
 41
0.0
  0
VERTEX
  5
2F6
100
AcDbEntity
  8
1
  6
CONTINUOUS
 62
   150
 48
0.75
100
AcDbVertex
100
AcDb2dVertex
 10
-3402.318944
 20
481.55773
 30
0.0
 40
0.0
 41
0.0
  0
VERTEX
  5
2F7
100
AcDbEntity
  8
1
  6
CONTINUOUS
 62
   150
 48
0.75
100
AcDbVertex
100
AcDb2dVertex
 10
-3310.158944
 20
85.15773
 30
0.0
 40
0.0
 41
0.0
  0
VERTEX
  5
2F8
100
AcDbEntity
  8
1
  6
CONTINUOUS
 62
   150
 48
0.75
100
AcDbVertex
100
AcDb2dVertex
 10
-2843.338944
 20
-52.20227
 30
0.0
 40
0.0
 41
0.0
  0
SEQEND
  5
2F9
100
AcDbEntity
  8
0
  0
POLYLINE
  5
2FA
100
AcDbEntity
  8
1
  6
CONTINUOUS
 62
   150
 48
0.75
100
AcDb2dPolyline
 66
     1
 10
0.0
 20
0.0
 30
0.0
 70
   128
  0
VERTEX
  5
2FB
100
AcDbEntity
  8
1
  6
CONTINUOUS
 62
   150
 48
0.75
100
AcDbVertex
100
AcDb2dVertex
 10
-2284.358944
 20
536.55773
 30
0.0
 40
0.0
 41
0.0
  0
VERTEX
  5
2FC
100
AcDbEntity
  8
1
  6
CONTINUOUS
 62
   150
 48
0.75
100
AcDbVertex
100
AcDb2dVertex
 10
-2284.358944
 20
481.55773
 30
0.0
 40
0.0
 41
0.0
  0
VERTEX
  5
2FD
100
AcDbEntity
  8
1
  6
CONTINUOUS
 62
   150
 48
0.75
100
AcDbVertex
100
AcDb2dVertex
 10
-2376.538944
 20
85.15773
 30
0.0
 40
0.0
 41
0.0
  0
VERTEX
  5
2FE
100
AcDbEntity
  8
1
  6
CONTINUOUS
 62
   150
 48
0.75
100
AcDbVertex
100
AcDb2dVertex
 10
-2843.338944
 20
-52.20227
 30
0.0
 40
0.0
 41
0.0
  0
SEQEND
  5
2FF
100
AcDbEntity
  8
0
  0
POLYLINE
  5
300
100
AcDbEntity
  8
1
  6
CONTINUOUS
 62
   150
 48
0.75
100
AcDb2dPolyline
 66
     1
 10
0.0
 20
0.0
 30
0.0
 70
   128
  0
VERTEX
  5
301
100
AcDbEntity
  8
1
  6
CONTINUOUS
 62
   150
 48
0.75
100
AcDbVertex
100
AcDb2dVertex
 10
-3397.918944
 20
532.55773
 30
0.0
 40
0.0
 41
0.0
  0
VERTEX
  5
302
100
AcDbEntity
  8
1
  6
CONTINUOUS
 62
   150
 48
0.75
100
AcDbVertex
100
AcDb2dVertex
 10
-3397.918944
 20
477.53773
 30
0.0
 40
0.0
 41
0.0
  0
VERTEX
  5
303
100
AcDbEntity
  8
1
  6
CONTINUOUS
 62
   150
 48
0.75
100
AcDbVertex
100
AcDb2dVertex
 10
-3306.158944
 20
79.55773
 30
0.0
 40
0.0
 41
0.0
  0
VERTEX
  5
304
100
AcDbEntity
  8
1
  6
CONTINUOUS
 62
   150
 48
0.75
100
AcDbVertex
100
AcDb2dVertex
 10
-2843.338944
 20
-45.04227
 30
0.0
 40
0.0
 41
0.0
  0
SEQEND
  5
305
100
AcDbEntity
  8
0
  0
POLYLINE
  5
306
100
AcDbEntity
  8
1
  6
CONTINUOUS
 62
   150
 48
0.75
100
AcDb2dPolyline
 66
     1
 10
0.0
 20
0.0
 30
0.0
 70
   128
  0
VERTEX
  5
307
100
AcDbEntity
  8
1
  6
CONTINUOUS
 62
   150
 48
0.75
100
AcDbVertex
100
AcDb2dVertex
 10
-3397.918944
 20
532.55773
 30
0.0
 40
0.0
 41
0.0
  0
VERTEX
  5
308
100
AcDbEntity
  8
1
  6
CONTINUOUS
 62
   150
 48
0.75
100
AcDbVertex
100
AcDb2dVertex
 10
-3397.918944
 20
477.55773
 30
0.0
 40
0.0
 41
0.0
  0
VERTEX
  5
309
100
AcDbEntity
  8
1
  6
CONTINUOUS
 62
   150
 48
0.75
100
AcDbVertex
100
AcDb2dVertex
 10
-3306.158944
 20
79.55773
 30
0.0
 40
0.0
 41
0.0
  0
VERTEX
  5
30A
100
AcDbEntity
  8
1
  6
CONTINUOUS
 62
   150
 48
0.75
100
AcDbVertex
100
AcDb2dVertex
 10
-2843.338944
 20
-45.04227
 30
0.0
 40
0.0
 41
0.0
  0
SEQEND
  5
30B
100
AcDbEntity
  8
0
  0
POLYLINE
  5
30C
100
AcDbEntity
  8
1
  6
CONTINUOUS
 62
   150
 48
0.75
100
AcDb2dPolyline
 66
     1
 10
0.0
 20
0.0
 30
0.0
 70
   128
  0
VERTEX
  5
30D
100
AcDbEntity
  8
1
  6
CONTINUOUS
 62
   150
 48
0.75
100
AcDbVertex
100
AcDb2dVertex
 10
-2288.758944
 20
532.55773
 30
0.0
 40
0.0
 41
0.0
  0
VERTEX
  5
30E
100
AcDbEntity
  8
1
  6
CONTINUOUS
 62
   150
 48
0.75
100
AcDbVertex
100
AcDb2dVertex
 10
-2288.758944
 20
477.53773
 30
0.0
 40
0.0
 41
0.0
  0
VERTEX
  5
30F
100
AcDbEntity
  8
1
  6
CONTINUOUS
 62
   150
 48
0.75
100
AcDbVertex
100
AcDb2dVertex
 10
-2380.518944
 20
79.55773
 30
0.0
 40
0.0
 41
0.0
  0
VERTEX
  5
310
100
AcDbEntity
  8
1
  6
CONTINUOUS
 62
   150
 48
0.75
100
AcDbVertex
100
AcDb2dVertex
 10
-2843.338944
 20
-45.04227
 30
0.0
 40
0.0
 41
0.0
  0
SEQEND
  5
311
100
AcDbEntity
  8
0
  0
POLYLINE
  5
312
100
AcDbEntity
  8
1
  6
CONTINUOUS
 62
   150
 48
0.75
100
AcDb2dPolyline
 66
     1
 10
0.0
 20
0.0
 30
0.0
 70
   128
  0
VERTEX
  5
313
100
AcDbEntity
  8
1
  6
CONTINUOUS
 62
   150
 48
0.75
100
AcDbVertex
100
AcDb2dVertex
 10
-3389.498944
 20
530.55773
 30
0.0
 40
0.0
 41
0.0
  0
VERTEX
  5
314
100
AcDbEntity
  8
1
  6
CONTINUOUS
 62
   150
 48
0.75
100
AcDbVertex
100
AcDb2dVertex
 10
-3389.498944
 20
475.55773
 30
0.0
 40
0.0
 41
0.0
  0
VERTEX
  5
315
100
AcDbEntity
  8
1
  6
CONTINUOUS
 62
   150
 48
0.75
100
AcDbVertex
100
AcDb2dVertex
 10
-3298.138944
 20
74.15773
 30
0.0
 40
0.0
 41
0.0
  0
VERTEX
  5
316
100
AcDbEntity
  8
1
  6
CONTINUOUS
 62
   150
 48
0.75
100
AcDbVertex
100
AcDb2dVertex
 10
-2843.338944
 20
-37.92227
 30
0.0
 40
0.0
 41
0.0
  0
SEQEND
  5
317
100
AcDbEntity
  8
0
  0
POLYLINE
  5
318
100
AcDbEntity
  8
1
  6
CONTINUOUS
 62
   150
 48
0.75
100
AcDb2dPolyline
 66
     1
 10
0.0
 20
0.0
 30
0.0
 70
   128
  0
VERTEX
  5
319
100
AcDbEntity
  8
1
  6
CONTINUOUS
 62
   150
 48
0.75
100
AcDbVertex
100
AcDb2dVertex
 10
-3389.498944
 20
530.55773
 30
0.0
 40
0.0
 41
0.0
  0
VERTEX
  5
31A
100
AcDbEntity
  8
1
  6
CONTINUOUS
 62
   150
 48
0.75
100
AcDbVertex
100
AcDb2dVertex
 10
-3389.498944
 20
475.55773
 30
0.0
 40
0.0
 41
0.0
  0
VERTEX
  5
31B
100
AcDbEntity
  8
1
  6
CONTINUOUS
 62
   150
 48
0.75
100
AcDbVertex
100
AcDb2dVertex
 10
-3298.138944
 20
74.15773
 30
0.0
 40
0.0
 41
0.0
  0
VERTEX
  5
31C
100
AcDbEntity
  8
1
  6
CONTINUOUS
 62
   150
 48
0.75
100
AcDbVertex
100
AcDb2dVertex
 10
-2843.338944
 20
-37.92227
 30
0.0
 40
0.0
 41
0.0
  0
SEQEND
  5
31D
100
AcDbEntity
  8
0
  0
POLYLINE
  5
31E
100
AcDbEntity
  8
1
  6
CONTINUOUS
 62
   150
 48
0.75
100
AcDb2dPolyline
 66
     1
 10
0.0
 20
0.0
 30
0.0
 70
   128
  0
VERTEX
  5
31F
100
AcDbEntity
  8
1
  6
CONTINUOUS
 62
   150
 48
0.75
100
AcDbVertex
100
AcDb2dVertex
 10
-2297.178944
 20
530.55773
 30
0.0
 40
0.0
 41
0.0
  0
VERTEX
  5
320
100
AcDbEntity
  8
1
  6
CONTINUOUS
 62
   150
 48
0.75
100
AcDbVertex
100
AcDb2dVertex
 10
-2297.178944
 20
475.55773
 30
0.0
 40
0.0
 41
0.0
  0
VERTEX
  5
321
100
AcDbEntity
  8
1
  6
CONTINUOUS
 62
   150
 48
0.75
100
AcDbVertex
100
AcDb2dVertex
 10
-2388.538944
 20
74.15773
 30
0.0
 40
0.0
 41
0.0
  0
VERTEX
  5
322
100
AcDbEntity
  8
1
  6
CONTINUOUS
 62
   150
 48
0.75
100
AcDbVertex
100
AcDb2dVertex
 10
-2843.338944
 20
-37.92227
 30
0.0
 40
0.0
 41
0.0
  0
SEQEND
  5
323
100
AcDbEntity
  8
0
  0
POLYLINE
  5
324
100
AcDbEntity
  8
1
  6
CONTINUOUS
 62
   150
 48
0.75
100
AcDb2dPolyline
 66
     1
 10
0.0
 20
0.0
 30
0.0
 70
   128
  0
VERTEX
  5
325
100
AcDbEntity
  8
1
  6
CONTINUOUS
 62
   150
 48
0.75
100
AcDbVertex
100
AcDb2dVertex
 10
-3386.298944
 20
528.55773
 30
0.0
 40
0.0
 41
0.0
  0
VERTEX
  5
326
100
AcDbEntity
  8
1
  6
CONTINUOUS
 62
   150
 48
0.75
100
AcDbVertex
100
AcDb2dVertex
 10
-3386.298944
 20
473.55773
 30
0.0
 40
0.0
 41
0.0
  0
VERTEX
  5
327
100
AcDbEntity
  8
1
  6
CONTINUOUS
 62
   150
 48
0.75
100
AcDbVertex
100
AcDb2dVertex
 10
-3294.538944
 20
71.15773
 30
0.0
 40
0.0
 41
0.0
  0
VERTEX
  5
328
100
AcDbEntity
  8
1
  6
CONTINUOUS
 62
   150
 48
0.75
100
AcDbVertex
100
AcDb2dVertex
 10
-2843.338944
 20
-32.68227
 30
0.0
 40
0.0
 41
0.0
  0
SEQEND
  5
329
100
AcDbEntity
  8
0
  0
POLYLINE
  5
32A
100
AcDbEntity
  8
1
  6
CONTINUOUS
 62
   150
 48
0.75
100
AcDb2dPolyline
 66
     1
 10
0.0
 20
0.0
 30
0.0
 70
   128
  0
VERTEX
  5
32B
100
AcDbEntity
  8
1
  6
CONTINUOUS
 62
   150
 48
0.75
100
AcDbVertex
100
AcDb2dVertex
 10
-3386.298944
 20
528.55773
 30
0.0
 40
0.0
 41
0.0
  0
VERTEX
  5
32C
100
AcDbEntity
  8
1
  6
CONTINUOUS
 62
   150
 48
0.75
100
AcDbVertex
100
AcDb2dVertex
 10
-3386.298944
 20
473.55773
 30
0.0
 40
0.0
 41
0.0
  0
VERTEX
  5
32D
100
AcDbEntity
  8
1
  6
CONTINUOUS
 62
   150
 48
0.75
100
AcDbVertex
100
AcDb2dVertex
 10
-3294.538944
 20
71.15773
 30
0.0
 40
0.0
 41
0.0
  0
VERTEX
  5
32E
100
AcDbEntity
  8
1
  6
CONTINUOUS
 62
   150
 48
0.75
100
AcDbVertex
100
AcDb2dVertex
 10
-2843.338944
 20
-32.68227
 30
0.0
 40
0.0
 41
0.0
  0
SEQEND
  5
32F
100
AcDbEntity
  8
0
  0
POLYLINE
  5
330
100
AcDbEntity
  8
1
  6
CONTINUOUS
 62
   150
 48
0.75
100
AcDb2dPolyline
 66
     1
 10
0.0
 20
0.0
 30
0.0
 70
   128
  0
VERTEX
  5
331
100
AcDbEntity
  8
1
  6
CONTINUOUS
 62
   150
 48
0.75
100
AcDbVertex
100
AcDb2dVertex
 10
-2300.378944
 20
528.55773
 30
0.0
 40
0.0
 41
0.0
  0
VERTEX
  5
332
100
AcDbEntity
  8
1
  6
CONTINUOUS
 62
   150
 48
0.75
100
AcDbVertex
100
AcDb2dVertex
 10
-2300.378944
 20
473.55773
 30
0.0
 40
0.0
 41
0.0
  0
VERTEX
  5
333
100
AcDbEntity
  8
1
  6
CONTINUOUS
 62
   150
 48
0.75
100
AcDbVertex
100
AcDb2dVertex
 10
-2392.138944
 20
71.15773
 30
0.0
 40
0.0
 41
0.0
  0
VERTEX
  5
334
100
AcDbEntity
  8
1
  6
CONTINUOUS
 62
   150
 48
0.75
100
AcDbVertex
100
AcDb2dVertex
 10
-2843.338944
 20
-32.68227
 30
0.0
 40
0.0
 41
0.0
  0
SEQEND
  5
335
100
AcDbEntity
  8
0
  0
POLYLINE
  5
336
100
AcDbEntity
  8
1
  6
CONTINUOUS
 62
   150
 48
0.75
100
AcDb2dPolyline
 66
     1
 10
0.0
 20
0.0
 30
0.0
 70
   128
  0
VERTEX
  5
337
100
AcDbEntity
  8
1
  6
CONTINUOUS
 62
   150
 48
0.75
100
AcDbVertex
100
AcDb2dVertex
 10
-3380.278944
 20
526.55773
 30
0.0
 40
0.0
 41
0.0
  0
VERTEX
  5
338
100
AcDbEntity
  8
1
  6
CONTINUOUS
 62
   150
 48
0.75
100
AcDbVertex
100
AcDb2dVertex
 10
-3380.278944
 20
471.55773
 30
0.0
 40
0.0
 41
0.0
  0
VERTEX
  5
339
100
AcDbEntity
  8
1
  6
CONTINUOUS
 62
   150
 48
0.75
100
AcDbVertex
100
AcDb2dVertex
 10
-3291.318944
 20
69.15773
 30
0.0
 40
0.0
 41
0.0
  0
VERTEX
  5
33A
100
AcDbEntity
  8
1
  6
CONTINUOUS
 62
   150
 48
0.75
100
AcDbVertex
100
AcDb2dVertex
 10
-2843.338944
 20
-30.12227
 30
0.0
 40
0.0
 41
0.0
  0
SEQEND
  5
33B
100
AcDbEntity
  8
0
  0
POLYLINE
  5
33C
100
AcDbEntity
  8
1
  6
CONTINUOUS
 62
   150
 48
0.75
100
AcDb2dPolyline
 66
     1
 10
0.0
 20
0.0
 30
0.0
 70
   128
  0
VERTEX
  5
33D
100
AcDbEntity
  8
1
  6
CONTINUOUS
 62
   150
 48
0.75
100
AcDbVertex
100
AcDb2dVertex
 10
-3380.278944
 20
526.55773
 30
0.0
 40
0.0
 41
0.0
  0
VERTEX
  5
33E
100
AcDbEntity
  8
1
  6
CONTINUOUS
 62
   150
 48
0.75
100
AcDbVertex
100
AcDb2dVertex
 10
-3380.278944
 20
471.55773
 30
0.0
 40
0.0
 41
0.0
  0
VERTEX
  5
33F
100
AcDbEntity
  8
1
  6
CONTINUOUS
 62
   150
 48
0.75
100
AcDbVertex
100
AcDb2dVertex
 10
-3291.318944
 20
69.15773
 30
0.0
 40
0.0
 41
0.0
  0
VERTEX
  5
340
100
AcDbEntity
  8
1
  6
CONTINUOUS
 62
   150
 48
0.75
100
AcDbVertex
100
AcDb2dVertex
 10
-2843.338944
 20
-30.12227
 30
0.0
 40
0.0
 41
0.0
  0
SEQEND
  5
341
100
AcDbEntity
  8
0
  0
POLYLINE
  5
342
100
AcDbEntity
  8
1
  6
CONTINUOUS
 62
   150
 48
0.75
100
AcDb2dPolyline
 66
     1
 10
0.0
 20
0.0
 30
0.0
 70
   128
  0
VERTEX
  5
343
100
AcDbEntity
  8
1
  6
CONTINUOUS
 62
   150
 48
0.75
100
AcDbVertex
100
AcDb2dVertex
 10
-2306.398944
 20
526.55773
 30
0.0
 40
0.0
 41
0.0
  0
VERTEX
  5
344
100
AcDbEntity
  8
1
  6
CONTINUOUS
 62
   150
 48
0.75
100
AcDbVertex
100
AcDb2dVertex
 10
-2306.398944
 20
471.55773
 30
0.0
 40
0.0
 41
0.0
  0
VERTEX
  5
345
100
AcDbEntity
  8
1
  6
CONTINUOUS
 62
   150
 48
0.75
100
AcDbVertex
100
AcDb2dVertex
 10
-2395.358944
 20
69.15773
 30
0.0
 40
0.0
 41
0.0
  0
VERTEX
  5
346
100
AcDbEntity
  8
1
  6
CONTINUOUS
 62
   150
 48
0.75
100
AcDbVertex
100
AcDb2dVertex
 10
-2843.338944
 20
-30.12227
 30
0.0
 40
0.0
 41
0.0
  0
SEQEND
  5
347
100
AcDbEntity
  8
0
  0
POLYLINE
  5
348
100
AcDbEntity
  8
0
  6
CONTINUOUS
 62
   150
 48
2.0
100
AcDb2dPolyline
 66
     1
 10
0.0
 20
0.0
 30
0.0
 70
   128
  0
VERTEX
  5
349
100
AcDbEntity
  8
0
  6
CONTINUOUS
 62
   150
 48
2.0
100
AcDbVertex
100
AcDb2dVertex
 10
-3447.839651
 20
855.444647
 30
0.0
 40
0.0
 41
0.0
  0
VERTEX
  5
34A
100
AcDbEntity
  8
0
  6
CONTINUOUS
 62
   150
 48
2.0
100
AcDbVertex
100
AcDb2dVertex
 10
127.569171
 20
855.444647
 30
0.0
 40
0.0
 41
0.0
  0
VERTEX
  5
34B
100
AcDbEntity
  8
0
  6
CONTINUOUS
 62
   150
 48
2.0
100
AcDbVertex
100
AcDb2dVertex
 10
127.569171
 20
-316.072205
 30
0.0
 40
0.0
 41
0.0
  0
VERTEX
  5
34C
100
AcDbEntity
  8
0
  6
CONTINUOUS
 62
   150
 48
2.0
100
AcDbVertex
100
AcDb2dVertex
 10
-3447.839651
 20
-316.072205
 30
0.0
 40
0.0
 41
0.0
  0
VERTEX
  5
34D
100
AcDbEntity
  8
0
  6
CONTINUOUS
 62
   150
 48
2.0
100
AcDbVertex
100
AcDb2dVertex
 10
-3447.839651
 20
855.444647
 30
0.0
 40
0.0
 41
0.0
  0
SEQEND
  5
34E
100
AcDbEntity
  8
0
  0
TEXT
  5
34F
100
AcDbEntity
  8
0
 62
   150
 48
0.0
100
AcDbText
 10
-2114.034658
 20
713.442605
 30
0.0
 40
100.0
  1
itü - 888-009
 72
     5
 11
-1312.56886
 21
713.442605
 31
0.0
210
0.0
220
0.0
230
1.0
100
AcDbText
  0
TEXT
  5
350
100
AcDbEntity
  8
0
 62
   150
 48
0.0
100
AcDbText
 10
-3331.195108
 20
-194.356168
 30
0.0
 40
10.0
  1
26 Kasim 2003 Çarsamba
 72
     5
 11
-3188.931265
 21
-194.356168
 31
0.0
210
0.0
220
0.0
230
1.0
100
AcDbText
  0
TEXT
  5
351
100
AcDbEntity
  8
0
 62
   150
 48
0.0
100
AcDbText
 10
-3289.976916
 20
-217.447833
 30
0.0
 40
10.0
  1
09:51:31
 72
     5
 11
-3236.9476
 21
-217.447833
 31
0.0
210
0.0
220
0.0
230
1.0
100
AcDbText
  0
TEXT
  5
352
100
AcDbEntity
  8
0
 62
     7
 48
0.0
100
AcDbText
 10
26.61638
 20
615.9992
 30
0.0
 40
2.0
  1
    SECTION NUMBER 0 AT    0.000 M
 72
     5
 11
104.949716
 21
615.9992
 31
0.0
210
0.0
220
0.0
230
1.0
100
AcDbText
  0
TEXT
  5
353
100
AcDbEntity
  8
0
 62
     7
 48
0.0
100
AcDbText
 10
26.61638
 20
612.9992
 30
0.0
 40
2.0
  1
      2.8050  2.2716     1
 72
     5
 11
86.283048
 21
612.9992
 31
0.0
210
0.0
220
0.0
230
1.0
100
AcDbText
  0
TEXT
  5
354
100
AcDbEntity
  8
0
 62
     7
 48
0.0
100
AcDbText
 10
26.61638
 20
609.9992
 30
0.0
 40
2.0
  1
      2.4604  1.9966     1
 72
     5
 11
86.283048
 21
609.9992
 31
0.0
210
0.0
220
0.0
230
1.0
100
AcDbText
  0
TEXT
  5
355
100
AcDbEntity
  8
0
 62
     7
 48
0.0
100
AcDbText
 10
26.61638
 20
606.9992
 30
0.0
 40
2.0
  1
      0.8901  0.7144     2
 72
     5
 11
86.283048
 21
606.9992
 31
0.0
210
0.0
220
0.0
230
1.0
100
AcDbText
  0
TEXT
  5
356
100
AcDbEntity
  8
0
 62
     7
 48
0.0
100
AcDbText
 10
26.61638
 20
603.9992
 30
0.0
 40
2.0
  1
      0.0000 -0.0000     3
 72
     5
 11
86.283048
 21
603.9992
 31
0.0
210
0.0
220
0.0
230
1.0
100
AcDbText
  0
TEXT
  5
357
100
AcDbEntity
  8
0
 62
     7
 48
0.0
100
AcDbText
 10
26.61638
 20
600.9992
 30
0.0
 40
2.0
  1
    SECTION NUMBER 1 AT    0.000 M
 72
     5
 11
104.949716
 21
600.9992
 31
0.0
210
0.0
220
0.0
230
1.0
100
AcDbText
  0
TEXT
  5
358
100
AcDbEntity
  8
0
 62
     7
 48
0.0
100
AcDbText
 10
26.61638
 20
597.9992
 30
0.0
 40
2.0
  1
      1.6810  2.2250     1
 72
     5
 11
86.283048
 21
597.9992
 31
0.0
210
0.0
220
0.0
230
1.0
100
AcDbText
  0
TEXT
  5
359
100
AcDbEntity
  8
0
 62
     7
 48
0.0
100
AcDbText
 10
26.61638
 20
594.9992
 30
0.0
 40
2.0
  1
      1.6148  1.9500     1
 72
     5
 11
86.283048
 21
594.9992
 31
0.0
210
0.0
220
0.0
230
1.0
100
AcDbText
  0
TEXT
  5
35A
100
AcDbEntity
  8
0
 62
     7
 48
0.0
100
AcDbText
 10
26.61638
 20
591.9992
 30
0.0
 40
2.0
  1
      0.5610  0.6325     2
 72
     5
 11
86.283048
 21
591.9992
 31
0.0
210
0.0
220
0.0
230
1.0
100
AcDbText
  0
TEXT
  5
35B
100
AcDbEntity
  8
0
 62
     7
 48
0.0
100
AcDbText
 10
26.61638
 20
588.9992
 30
0.0
 40
2.0
  1
      0.4843  0.5684     3
 72
     5
 11
86.283048
 21
588.9992
 31
0.0
210
0.0
220
0.0
230
1.0
100
AcDbText
  0
TEXT
  5
35C
100
AcDbEntity
  8
0
 62
     7
 48
0.0
100
AcDbText
 10
26.61638
 20
585.9992
 30
0.0
 40
2.0
  1
      0.4090  0.5026     3
 72
     5
 11
86.283048
 21
585.9992
 31
0.0
210
0.0
220
0.0
230
1.0
100
AcDbText
  0
TEXT
  5
35D
100
AcDbEntity
  8
0
 62
     7
 48
0.0
100
AcDbText
 10
26.61638
 20
582.9992
 30
0.0
 40
2.0
  1
      0.3354  0.4348     3
 72
     5
 11
86.283048
 21
582.9992
 31
0.0
210
0.0
220
0.0
230
1.0
100
AcDbText
  0
TEXT
  5
35E
100
AcDbEntity
  8
0
 62
     7
 48
0.0
100
AcDbText
 10
26.61638
 20
579.9992
 30
0.0
 40
2.0
  1
      0.2640  0.3648     3
 72
     5
 11
86.283048
 21
579.9992
 31
0.0
210
0.0
220
0.0
230
1.0
100
AcDbText
  0
TEXT
  5
35F
100
AcDbEntity
  8
0
 62
     7
 48
0.0
100
AcDbText
 10
26.61638
 20
576.9992
 30
0.0
 40
2.0
  1
      0.1955  0.2920     3
 72
     5
 11
86.283048
 21
576.9992
 31
0.0
210
0.0
220
0.0
230
1.0
100
AcDbText
  0
TEXT
  5
360
100
AcDbEntity
  8
0
 62
     7
 48
0.0
100
AcDbText
 10
26.61638
 20
573.9992
 30
0.0
 40
2.0
  1
      0.1309  0.2157     3
 72
     5
 11
86.283048
 21
573.9992
 31
0.0
210
0.0
220
0.0
230
1.0
100
AcDbText
  0
TEXT
  5
361
100
AcDbEntity
  8
0
 62
     7
 48
0.0
100
AcDbText
 10
26.61638
 20
570.9992
 30
0.0
 40
2.0
  1
      0.0718  0.1350     3
 72
     5
 11
86.283048
 21
570.9992
 31
0.0
210
0.0
220
0.0
230
1.0
100
AcDbText
  0
TEXT
  5
362
100
AcDbEntity
  8
0
 62
     7
 48
0.0
100
AcDbText
 10
26.61638
 20
567.9992
 30
0.0
 40
2.0
  1
      0.0214  0.0487     3
 72
     5
 11
86.283048
 21
567.9992
 31
0.0
210
0.0
220
0.0
230
1.0
100
AcDbText
  0
TEXT
  5
363
100
AcDbEntity
  8
0
 62
     7
 48
0.0
100
AcDbText
 10
26.61638
 20
564.9992
 30
0.0
 40
2.0
  1
      0.0000  0.0000     3
 72
     5
 11
86.283048
 21
564.9992
 31
0.0
210
0.0
220
0.0
230
1.0
100
AcDbText
  0
TEXT
  5
364
100
AcDbEntity
  8
0
 62
     7
 48
0.0
100
AcDbText
 10
26.61638
 20
561.9992
 30
0.0
 40
2.0
  1
    SECTION NUMBER 2 AT    0.900 M
 72
     5
 11
104.949716
 21
561.9992
 31
0.0
210
0.0
220
0.0
230
1.0
100
AcDbText
  0
TEXT
  5
365
100
AcDbEntity
  8
0
 62
     7
 48
0.0
100
AcDbText
 10
26.61638
 20
558.9992
 30
0.0
 40
2.0
  1
      2.0871  2.2050     1
 72
     5
 11
86.283048
 21
558.9992
 31
0.0
210
0.0
220
0.0
230
1.0
100
AcDbText
  0
TEXT
  5
366
100
AcDbEntity
  8
0
 62
     7
 48
0.0
100
AcDbText
 10
26.61638
 20
555.9992
 30
0.0
 40
2.0
  1
      2.0236  1.9300     1
 72
     5
 11
86.283048
 21
555.9992
 31
0.0
210
0.0
220
0.0
230
1.0
100
AcDbText
  0
TEXT
  5
367
100
AcDbEntity
  8
0
 62
     7
 48
0.0
100
AcDbText
 10
26.61638
 20
552.9992
 30
0.0
 40
2.0
  1
      0.9817  0.5460     2
 72
     5
 11
86.283048
 21
552.9992
 31
0.0
210
0.0
220
0.0
230
1.0
100
AcDbText
  0
TEXT
  5
368
100
AcDbEntity
  8
0
 62
     7
 48
0.0
100
AcDbText
 10
26.61638
 20
549.9992
 30
0.0
 40
2.0
  1
      0.9070  0.4795     3
 72
     5
 11
86.283048
 21
549.9992
 31
0.0
210
0.0
220
0.0
230
1.0
100
AcDbText
  0
TEXT
  5
369
100
AcDbEntity
  8
0
 62
     7
 48
0.0
100
AcDbText
 10
26.61638
 20
546.9992
 30
0.0
 40
2.0
  1
      0.8332  0.4120     3
 72
     5
 11
86.283048
 21
546.9992
 31
0.0
210
0.0
220
0.0
230
1.0
100
AcDbText
  0
TEXT
  5
36A
100
AcDbEntity
  8
0
 62
     7
 48
0.0
100
AcDbText
 10
26.61638
 20
543.9992
 30
0.0
 40
2.0
  1
      0.7604  0.3435     3
 72
     5
 11
86.283048
 21
543.9992
 31
0.0
210
0.0
220
0.0
230
1.0
100
AcDbText
  0
TEXT
  5
36B
100
AcDbEntity
  8
0
 62
     7
 48
0.0
100
AcDbText
 10
26.61638
 20
540.9992
 30
0.0
 40
2.0
  1
      0.6886  0.2738     3
 72
     5
 11
86.283048
 21
540.9992
 31
0.0
210
0.0
220
0.0
230
1.0
100
AcDbText
  0
TEXT
  5
36C
100
AcDbEntity
  8
0
 62
     7
 48
0.0
100
AcDbText
 10
26.61638
 20
537.9992
 30
0.0
 40
2.0
  1
      0.6179  0.2031     3
 72
     5
 11
86.283048
 21
537.9992
 31
0.0
210
0.0
220
0.0
230
1.0
100
AcDbText
  0
TEXT
  5
36D
100
AcDbEntity
  8
0
 62
     7
 48
0.0
100
AcDbText
 10
26.61638
 20
534.9992
 30
0.0
 40
2.0
  1
      0.5484  0.1312     3
 72
     5
 11
86.283048
 21
534.9992
 31
0.0
210
0.0
220
0.0
230
1.0
100
AcDbText
  0
TEXT
  5
36E
100
AcDbEntity
  8
0
 62
     7
 48
0.0
100
AcDbText
 10
26.61638
 20
531.9992
 30
0.0
 40
2.0
  1
      0.4800  0.0583     3
 72
     5
 11
86.283048
 21
531.9992
 31
0.0
210
0.0
220
0.0
230
1.0
100
AcDbText
  0
TEXT
  5
36F
100
AcDbEntity
  8
0
 62
     7
 48
0.0
100
AcDbText
 10
26.61638
 20
528.9992
 30
0.0
 40
2.0
  1
      0.4129 -0.0159     3
 72
     5
 11
86.283048
 21
528.9992
 31
0.0
210
0.0
220
0.0
230
1.0
100
AcDbText
  0
TEXT
  5
370
100
AcDbEntity
  8
0
 62
     7
 48
0.0
100
AcDbText
 10
26.61638
 20
525.9992
 30
0.0
 40
2.0
  1
      0.3470 -0.0911     3
 72
     5
 11
86.283048
 21
525.9992
 31
0.0
210
0.0
220
0.0
230
1.0
100
AcDbText
  0
TEXT
  5
371
100
AcDbEntity
  8
0
 62
     7
 48
0.0
100
AcDbText
 10
26.61638
 20
522.9992
 30
0.0
 40
2.0
  1
      0.2825 -0.1675     3
 72
     5
 11
86.283048
 21
522.9992
 31
0.0
210
0.0
220
0.0
230
1.0
100
AcDbText
  0
TEXT
  5
372
100
AcDbEntity
  8
0
 62
     7
 48
0.0
100
AcDbText
 10
26.61638
 20
519.9992
 30
0.0
 40
2.0
  1
      0.2193 -0.2450     3
 72
     5
 11
86.283048
 21
519.9992
 31
0.0
210
0.0
220
0.0
230
1.0
100
AcDbText
  0
TEXT
  5
373
100
AcDbEntity
  8
0
 62
     7
 48
0.0
100
AcDbText
 10
26.61638
 20
516.9992
 30
0.0
 40
2.0
  1
      0.1576 -0.3237     3
 72
     5
 11
86.283048
 21
516.9992
 31
0.0
210
0.0
220
0.0
230
1.0
100
AcDbText
  0
TEXT
  5
374
100
AcDbEntity
  8
0
 62
     7
 48
0.0
100
AcDbText
 10
26.61638
 20
513.9992
 30
0.0
 40
2.0
  1
      0.0974 -0.4036     3
 72
     5
 11
86.283048
 21
513.9992
 31
0.0
210
0.0
220
0.0
230
1.0
100
AcDbText
  0
TEXT
  5
375
100
AcDbEntity
  8
0
 62
     7
 48
0.0
100
AcDbText
 10
26.61638
 20
510.9992
 30
0.0
 40
2.0
  1
      0.0388 -0.4845     3
 72
     5
 11
86.283048
 21
510.9992
 31
0.0
210
0.0
220
0.0
230
1.0
100
AcDbText
  0
TEXT
  5
376
100
AcDbEntity
  8
0
 62
     7
 48
0.0
100
AcDbText
 10
26.61638
 20
507.9992
 30
0.0
 40
2.0
  1
      0.0000 -0.5400     3
 72
     5
 11
86.283048
 21
507.9992
 31
0.0
210
0.0
220
0.0
230
1.0
100
AcDbText
  0
TEXT
  5
377
100
AcDbEntity
  8
0
 62
     7
 48
0.0
100
AcDbText
 10
26.61638
 20
504.9992
 30
0.0
 40
2.0
  1
    SECTION NUMBER 3 AT    1.800 M
 72
     5
 11
104.949716
 21
504.9992
 31
0.0
210
0.0
220
0.0
230
1.0
100
AcDbText
  0
TEXT
  5
378
100
AcDbEntity
  8
0
 62
     7
 48
0.0
100
AcDbText
 10
26.61638
 20
501.9992
 30
0.0
 40
2.0
  1
      2.3732  2.1850     1
 72
     5
 11
86.283048
 21
501.9992
 31
0.0
210
0.0
220
0.0
230
1.0
100
AcDbText
  0
TEXT
  5
379
100
AcDbEntity
  8
0
 62
     7
 48
0.0
100
AcDbText
 10
26.61638
 20
498.9992
 30
0.0
 40
2.0
  1
      2.3241  1.9100     1
 72
     5
 11
86.283048
 21
498.9992
 31
0.0
210
0.0
220
0.0
230
1.0
100
AcDbText
  0
TEXT
  5
37A
100
AcDbEntity
  8
0
 62
     7
 48
0.0
100
AcDbText
 10
26.61638
 20
495.9992
 30
0.0
 40
2.0
  1
      1.3363  0.4440     2
 72
     5
 11
86.283048
 21
495.9992
 31
0.0
210
0.0
220
0.0
230
1.0
100
AcDbText
  0
TEXT
  5
37B
100
AcDbEntity
  8
0
 62
     7
 48
0.0
100
AcDbText
 10
26.61638
 20
492.9992
 30
0.0
 40
2.0
  1
      1.2611  0.3780     3
 72
     5
 11
86.283048
 21
492.9992
 31
0.0
210
0.0
220
0.0
230
1.0
100
AcDbText
  0
TEXT
  5
37C
100
AcDbEntity
  8
0
 62
     7
 48
0.0
100
AcDbText
 10
26.61638
 20
489.9992
 30
0.0
 40
2.0
  1
      1.1866  0.3113     3
 72
     5
 11
86.283048
 21
489.9992
 31
0.0
210
0.0
220
0.0
230
1.0
100
AcDbText
  0
TEXT
  5
37D
100
AcDbEntity
  8
0
 62
     7
 48
0.0
100
AcDbText
 10
26.61638
 20
486.9992
 30
0.0
 40
2.0
  1
      1.1129  0.2437     3
 72
     5
 11
86.283048
 21
486.9992
 31
0.0
210
0.0
220
0.0
230
1.0
100
AcDbText
  0
TEXT
  5
37E
100
AcDbEntity
  8
0
 62
     7
 48
0.0
100
AcDbText
 10
26.61638
 20
483.9992
 30
0.0
 40
2.0
  1
      1.0399  0.1753     3
 72
     5
 11
86.283048
 21
483.9992
 31
0.0
210
0.0
220
0.0
230
1.0
100
AcDbText
  0
TEXT
  5
37F
100
AcDbEntity
  8
0
 62
     7
 48
0.0
100
AcDbText
 10
26.61638
 20
480.9992
 30
0.0
 40
2.0
  1
      0.9676  0.1063     3
 72
     5
 11
86.283048
 21
480.9992
 31
0.0
210
0.0
220
0.0
230
1.0
100
AcDbText
  0
TEXT
  5
380
100
AcDbEntity
  8
0
 62
     7
 48
0.0
100
AcDbText
 10
26.61638
 20
477.9992
 30
0.0
 40
2.0
  1
      0.8959  0.0366     3
 72
     5
 11
86.283048
 21
477.9992
 31
0.0
210
0.0
220
0.0
230
1.0
100
AcDbText
  0
TEXT
  5
381
100
AcDbEntity
  8
0
 62
     7
 48
0.0
100
AcDbText
 10
26.61638
 20
474.9992
 30
0.0
 40
2.0
  1
      0.8247 -0.0337     3
 72
     5
 11
86.283048
 21
474.9992
 31
0.0
210
0.0
220
0.0
230
1.0
100
AcDbText
  0
TEXT
  5
382
100
AcDbEntity
  8
0
 62
     7
 48
0.0
100
AcDbText
 10
26.61638
 20
471.9992
 30
0.0
 40
2.0
  1
      0.7541 -0.1045     3
 72
     5
 11
86.283048
 21
471.9992
 31
0.0
210
0.0
220
0.0
230
1.0
100
AcDbText
  0
TEXT
  5
383
100
AcDbEntity
  8
0
 62
     7
 48
0.0
100
AcDbText
 10
26.61638
 20
468.9992
 30
0.0
 40
2.0
  1
      0.6841 -0.1759     3
 72
     5
 11
86.283048
 21
468.9992
 31
0.0
210
0.0
220
0.0
230
1.0
100
AcDbText
  0
TEXT
  5
384
100
AcDbEntity
  8
0
 62
     7
 48
0.0
100
AcDbText
 10
26.61638
 20
465.9992
 30
0.0
 40
2.0
  1
      0.6146 -0.2478     3
 72
     5
 11
86.283048
 21
465.9992
 31
0.0
210
0.0
220
0.0
230
1.0
100
AcDbText
  0
TEXT
  5
385
100
AcDbEntity
  8
0
 62
     7
 48
0.0
100
AcDbText
 10
26.61638
 20
462.9992
 30
0.0
 40
2.0
  1
      0.5455 -0.3201     3
 72
     5
 11
86.283048
 21
462.9992
 31
0.0
210
0.0
220
0.0
230
1.0
100
AcDbText
  0
TEXT
  5
386
100
AcDbEntity
  8
0
 62
     7
 48
0.0
100
AcDbText
 10
26.61638
 20
459.9992
 30
0.0
 40
2.0
  1
      0.4770 -0.3929     3
 72
     5
 11
86.283048
 21
459.9992
 31
0.0
210
0.0
220
0.0
230
1.0
100
AcDbText
  0
TEXT
  5
387
100
AcDbEntity
  8
0
 62
     7
 48
0.0
100
AcDbText
 10
26.61638
 20
456.9992
 30
0.0
 40
2.0
  1
      0.4088 -0.4661     3
 72
     5
 11
86.283048
 21
456.9992
 31
0.0
210
0.0
220
0.0
230
1.0
100
AcDbText
  0
TEXT
  5
388
100
AcDbEntity
  8
0
 62
     7
 48
0.0
100
AcDbText
 10
26.61638
 20
453.9992
 30
0.0
 40
2.0
  1
      0.3411 -0.5397     3
 72
     5
 11
86.283048
 21
453.9992
 31
0.0
210
0.0
220
0.0
230
1.0
100
AcDbText
  0
TEXT
  5
389
100
AcDbEntity
  8
0
 62
     7
 48
0.0
100
AcDbText
 10
26.61638
 20
450.9992
 30
0.0
 40
2.0
  1
      0.2739 -0.6137     3
 72
     5
 11
86.283048
 21
450.9992
 31
0.0
210
0.0
220
0.0
230
1.0
100
AcDbText
  0
TEXT
  5
38A
100
AcDbEntity
  8
0
 62
     7
 48
0.0
100
AcDbText
 10
26.61638
 20
447.9992
 30
0.0
 40
2.0
  1
      0.2070 -0.6880     3
 72
     5
 11
86.283048
 21
447.9992
 31
0.0
210
0.0
220
0.0
230
1.0
100
AcDbText
  0
TEXT
  5
38B
100
AcDbEntity
  8
0
 62
     7
 48
0.0
100
AcDbText
 10
26.61638
 20
444.9992
 30
0.0
 40
2.0
  1
      0.1405 -0.7627     3
 72
     5
 11
86.283048
 21
444.9992
 31
0.0
210
0.0
220
0.0
230
1.0
100
AcDbText
  0
TEXT
  5
38C
100
AcDbEntity
  8
0
 62
     7
 48
0.0
100
AcDbText
 10
26.61638
 20
441.9992
 30
0.0
 40
2.0
  1
      0.0743 -0.8377     3
 72
     5
 11
86.283048
 21
441.9992
 31
0.0
210
0.0
220
0.0
230
1.0
100
AcDbText
  0
TEXT
  5
38D
100
AcDbEntity
  8
0
 62
     7
 48
0.0
100
AcDbText
 10
26.61638
 20
438.9992
 30
0.0
 40
2.0
  1
      0.0085 -0.9130     3
 72
     5
 11
86.283048
 21
438.9992
 31
0.0
210
0.0
220
0.0
230
1.0
100
AcDbText
  0
TEXT
  5
38E
100
AcDbEntity
  8
0
 62
     7
 48
0.0
100
AcDbText
 10
26.61638
 20
435.9992
 30
0.0
 40
2.0
  1
      0.0000 -0.9228     3
 72
     5
 11
86.283048
 21
435.9992
 31
0.0
210
0.0
220
0.0
230
1.0
100
AcDbText
  0
TEXT
  5
38F
100
AcDbEntity
  8
0
 62
     7
 48
0.0
100
AcDbText
 10
26.61638
 20
432.9992
 30
0.0
 40
2.0
  1
    SECTION NUMBER 4 AT    3.600 M
 72
     5
 11
104.949716
 21
432.9992
 31
0.0
210
0.0
220
0.0
230
1.0
100
AcDbText
  0
TEXT
  5
390
100
AcDbEntity
  8
0
 62
     7
 48
0.0
100
AcDbText
 10
26.61638
 20
429.9992
 30
0.0
 40
2.0
  1
      2.6438  2.1550     1
 72
     5
 11
86.283048
 21
429.9992
 31
0.0
210
0.0
220
0.0
230
1.0
100
AcDbText
  0
TEXT
  5
391
100
AcDbEntity
  8
0
 62
     7
 48
0.0
100
AcDbText
 10
26.61638
 20
426.9992
 30
0.0
 40
2.0
  1
      2.6246  1.8800     1
 72
     5
 11
86.283048
 21
426.9992
 31
0.0
210
0.0
220
0.0
230
1.0
100
AcDbText
  0
TEXT
  5
392
100
AcDbEntity
  8
0
 62
     7
 48
0.0
100
AcDbText
 10
26.61638
 20
423.9992
 30
0.0
 40
2.0
  1
      1.8893  0.2340     2
 72
     5
 11
86.283048
 21
423.9992
 31
0.0
210
0.0
220
0.0
230
1.0
100
AcDbText
  0
TEXT
  5
393
100
AcDbEntity
  8
0
 62
     7
 48
0.0
100
AcDbText
 10
26.61638
 20
420.9992
 30
0.0
 40
2.0
  1
      1.8075  0.1764     3
 72
     5
 11
86.283048
 21
420.9992
 31
0.0
210
0.0
220
0.0
230
1.0
100
AcDbText
  0
TEXT
  5
394
100
AcDbEntity
  8
0
 62
     7
 48
0.0
100
AcDbText
 10
26.61638
 20
417.9992
 30
0.0
 40
2.0
  1
      1.7256  0.1190     3
 72
     5
 11
86.283048
 21
417.9992
 31
0.0
210
0.0
220
0.0
230
1.0
100
AcDbText
  0
TEXT
  5
395
100
AcDbEntity
  8
0
 62
     7
 48
0.0
100
AcDbText
 10
26.61638
 20
414.9992
 30
0.0
 40
2.0
  1
      1.6437  0.0616     3
 72
     5
 11
86.283048
 21
414.9992
 31
0.0
210
0.0
220
0.0
230
1.0
100
AcDbText
  0
TEXT
  5
396
100
AcDbEntity
  8
0
 62
     7
 48
0.0
100
AcDbText
 10
26.61638
 20
411.9992
 30
0.0
 40
2.0
  1
      1.5618  0.0044     3
 72
     5
 11
86.283048
 21
411.9992
 31
0.0
210
0.0
220
0.0
230
1.0
100
AcDbText
  0
TEXT
  5
397
100
AcDbEntity
  8
0
 62
     7
 48
0.0
100
AcDbText
 10
26.61638
 20
408.9992
 30
0.0
 40
2.0
  1
      1.4797 -0.0529     3
 72
     5
 11
86.283048
 21
408.9992
 31
0.0
210
0.0
220
0.0
230
1.0
100
AcDbText
  0
TEXT
  5
398
100
AcDbEntity
  8
0
 62
     7
 48
0.0
100
AcDbText
 10
26.61638
 20
405.9992
 30
0.0
 40
2.0
  1
      1.3977 -0.1101     3
 72
     5
 11
86.283048
 21
405.9992
 31
0.0
210
0.0
220
0.0
230
1.0
100
AcDbText
  0
TEXT
  5
399
100
AcDbEntity
  8
0
 62
     7
 48
0.0
100
AcDbText
 10
26.61638
 20
402.9992
 30
0.0
 40
2.0
  1
      1.3157 -0.1672     3
 72
     5
 11
86.283048
 21
402.9992
 31
0.0
210
0.0
220
0.0
230
1.0
100
AcDbText
  0
TEXT
  5
39A
100
AcDbEntity
  8
0
 62
     7
 48
0.0
100
AcDbText
 10
26.61638
 20
399.9992
 30
0.0
 40
2.0
  1
      1.2336 -0.2243     3
 72
     5
 11
86.283048
 21
399.9992
 31
0.0
210
0.0
220
0.0
230
1.0
100
AcDbText
  0
TEXT
  5
39B
100
AcDbEntity
  8
0
 62
     7
 48
0.0
100
AcDbText
 10
26.61638
 20
396.9992
 30
0.0
 40
2.0
  1
      1.1515 -0.2814     3
 72
     5
 11
86.283048
 21
396.9992
 31
0.0
210
0.0
220
0.0
230
1.0
100
AcDbText
  0
TEXT
  5
39C
100
AcDbEntity
  8
0
 62
     7
 48
0.0
100
AcDbText
 10
26.61638
 20
393.9992
 30
0.0
 40
2.0
  1
      1.0694 -0.3385     3
 72
     5
 11
86.283048
 21
393.9992
 31
0.0
210
0.0
220
0.0
230
1.0
100
AcDbText
  0
TEXT
  5
39D
100
AcDbEntity
  8
0
 62
     7
 48
0.0
100
AcDbText
 10
26.61638
 20
390.9992
 30
0.0
 40
2.0
  1
      0.9872 -0.3956     3
 72
     5
 11
86.283048
 21
390.9992
 31
0.0
210
0.0
220
0.0
230
1.0
100
AcDbText
  0
TEXT
  5
39E
100
AcDbEntity
  8
0
 62
     7
 48
0.0
100
AcDbText
 10
26.61638
 20
387.9992
 30
0.0
 40
2.0
  1
      0.9051 -0.4526     3
 72
     5
 11
86.283048
 21
387.9992
 31
0.0
210
0.0
220
0.0
230
1.0
100
AcDbText
  0
TEXT
  5
39F
100
AcDbEntity
  8
0
 62
     7
 48
0.0
100
AcDbText
 10
26.61638
 20
384.9992
 30
0.0
 40
2.0
  1
      0.8230 -0.5096     3
 72
     5
 11
86.283048
 21
384.9992
 31
0.0
210
0.0
220
0.0
230
1.0
100
AcDbText
  0
TEXT
  5
3A0
100
AcDbEntity
  8
0
 62
     7
 48
0.0
100
AcDbText
 10
26.61638
 20
381.9992
 30
0.0
 40
2.0
  1
      0.7408 -0.5667     3
 72
     5
 11
86.283048
 21
381.9992
 31
0.0
210
0.0
220
0.0
230
1.0
100
AcDbText
  0
TEXT
  5
3A1
100
AcDbEntity
  8
0
 62
     7
 48
0.0
100
AcDbText
 10
26.61638
 20
378.9992
 30
0.0
 40
2.0
  1
      0.6586 -0.6237     3
 72
     5
 11
86.283048
 21
378.9992
 31
0.0
210
0.0
220
0.0
230
1.0
100
AcDbText
  0
TEXT
  5
3A2
100
AcDbEntity
  8
0
 62
     7
 48
0.0
100
AcDbText
 10
26.61638
 20
375.9992
 30
0.0
 40
2.0
  1
      0.5765 -0.6806     3
 72
     5
 11
86.283048
 21
375.9992
 31
0.0
210
0.0
220
0.0
230
1.0
100
AcDbText
  0
TEXT
  5
3A3
100
AcDbEntity
  8
0
 62
     7
 48
0.0
100
AcDbText
 10
26.61638
 20
372.9992
 30
0.0
 40
2.0
  1
      0.4943 -0.7376     3
 72
     5
 11
86.283048
 21
372.9992
 31
0.0
210
0.0
220
0.0
230
1.0
100
AcDbText
  0
TEXT
  5
3A4
100
AcDbEntity
  8
0
 62
     7
 48
0.0
100
AcDbText
 10
26.61638
 20
369.9992
 30
0.0
 40
2.0
  1
      0.4121 -0.7946     3
 72
     5
 11
86.283048
 21
369.9992
 31
0.0
210
0.0
220
0.0
230
1.0
100
AcDbText
  0
TEXT
  5
3A5
100
AcDbEntity
  8
0
 62
     7
 48
0.0
100
AcDbText
 10
26.61638
 20
366.9992
 30
0.0
 40
2.0
  1
      0.3299 -0.8515     3
 72
     5
 11
86.283048
 21
366.9992
 31
0.0
210
0.0
220
0.0
230
1.0
100
AcDbText
  0
TEXT
  5
3A6
100
AcDbEntity
  8
0
 62
     7
 48
0.0
100
AcDbText
 10
26.61638
 20
363.9992
 30
0.0
 40
2.0
  1
      0.2477 -0.9085     3
 72
     5
 11
86.283048
 21
363.9992
 31
0.0
210
0.0
220
0.0
230
1.0
100
AcDbText
  0
TEXT
  5
3A7
100
AcDbEntity
  8
0
 62
     7
 48
0.0
100
AcDbText
 10
26.61638
 20
360.9992
 30
0.0
 40
2.0
  1
      0.1655 -0.9654     3
 72
     5
 11
86.283048
 21
360.9992
 31
0.0
210
0.0
220
0.0
230
1.0
100
AcDbText
  0
TEXT
  5
3A8
100
AcDbEntity
  8
0
 62
     7
 48
0.0
100
AcDbText
 10
26.61638
 20
357.9992
 30
0.0
 40
2.0
  1
      0.0833 -1.0223     3
 72
     5
 11
86.283048
 21
357.9992
 31
0.0
210
0.0
220
0.0
230
1.0
100
AcDbText
  0
TEXT
  5
3A9
100
AcDbEntity
  8
0
 62
     7
 48
0.0
100
AcDbText
 10
26.61638
 20
354.9992
 30
0.0
 40
2.0
  1
      0.0011 -1.0793     3
 72
     5
 11
86.283048
 21
354.9992
 31
0.0
210
0.0
220
0.0
230
1.0
100
AcDbText
  0
TEXT
  5
3AA
100
AcDbEntity
  8
0
 62
     7
 48
0.0
100
AcDbText
 10
26.61638
 20
351.9992
 30
0.0
 40
2.0
  1
      0.0000 -1.0800     3
 72
     5
 11
86.283048
 21
351.9992
 31
0.0
210
0.0
220
0.0
230
1.0
100
AcDbText
  0
TEXT
  5
3AB
100
AcDbEntity
  8
0
 62
     7
 48
0.0
100
AcDbText
 10
26.61638
 20
348.9992
 30
0.0
 40
2.0
  1
    SECTION NUMBER 5 AT    5.400 M
 72
     5
 11
104.949716
 21
348.9992
 31
0.0
210
0.0
220
0.0
230
1.0
100
AcDbText
  0
TEXT
  5
3AC
100
AcDbEntity
  8
0
 62
     7
 48
0.0
100
AcDbText
 10
26.61638
 20
345.9992
 30
0.0
 40
2.0
  1
      2.7490  2.1350     1
 72
     5
 11
86.283048
 21
345.9992
 31
0.0
210
0.0
220
0.0
230
1.0
100
AcDbText
  0
TEXT
  5
3AD
100
AcDbEntity
  8
0
 62
     7
 48
0.0
100
AcDbText
 10
26.61638
 20
342.9992
 30
0.0
 40
2.0
  1
      2.7649  1.8600     1
 72
     5
 11
86.283048
 21
342.9992
 31
0.0
210
0.0
220
0.0
230
1.0
100
AcDbText
  0
TEXT
  5
3AE
100
AcDbEntity
  8
0
 62
     7
 48
0.0
100
AcDbText
 10
26.61638
 20
339.9992
 30
0.0
 40
2.0
  1
      2.1738  0.0600     2
 72
     5
 11
86.283048
 21
339.9992
 31
0.0
210
0.0
220
0.0
230
1.0
100
AcDbText
  0
TEXT
  5
3AF
100
AcDbEntity
  8
0
 62
     7
 48
0.0
100
AcDbText
 10
26.61638
 20
336.9992
 30
0.0
 40
2.0
  1
      2.0972 -0.0039     3
 72
     5
 11
86.283048
 21
336.9992
 31
0.0
210
0.0
220
0.0
230
1.0
100
AcDbText
  0
TEXT
  5
3B0
100
AcDbEntity
  8
0
 62
     7
 48
0.0
100
AcDbText
 10
26.61638
 20
333.9992
 30
0.0
 40
2.0
  1
      2.0129 -0.0577     3
 72
     5
 11
86.283048
 21
333.9992
 31
0.0
210
0.0
220
0.0
230
1.0
100
AcDbText
  0
TEXT
  5
3B1
100
AcDbEntity
  8
0
 62
     7
 48
0.0
100
AcDbText
 10
26.61638
 20
330.9992
 30
0.0
 40
2.0
  1
      1.9264 -0.1079     3
 72
     5
 11
86.283048
 21
330.9992
 31
0.0
210
0.0
220
0.0
230
1.0
100
AcDbText
  0
TEXT
  5
3B2
100
AcDbEntity
  8
0
 62
     7
 48
0.0
100
AcDbText
 10
26.61638
 20
327.9992
 30
0.0
 40
2.0
  1
      1.8388 -0.1561     3
 72
     5
 11
86.283048
 21
327.9992
 31
0.0
210
0.0
220
0.0
230
1.0
100
AcDbText
  0
TEXT
  5
3B3
100
AcDbEntity
  8
0
 62
     7
 48
0.0
100
AcDbText
 10
26.61638
 20
324.9992
 30
0.0
 40
2.0
  1
      1.7504 -0.2029     3
 72
     5
 11
86.283048
 21
324.9992
 31
0.0
210
0.0
220
0.0
230
1.0
100
AcDbText
  0
TEXT
  5
3B4
100
AcDbEntity
  8
0
 62
     7
 48
0.0
100
AcDbText
 10
26.61638
 20
321.9992
 30
0.0
 40
2.0
  1
      1.6616 -0.2488     3
 72
     5
 11
86.283048
 21
321.9992
 31
0.0
210
0.0
220
0.0
230
1.0
100
AcDbText
  0
TEXT
  5
3B5
100
AcDbEntity
  8
0
 62
     7
 48
0.0
100
AcDbText
 10
26.61638
 20
318.9992
 30
0.0
 40
2.0
  1
      1.5724 -0.2939     3
 72
     5
 11
86.283048
 21
318.9992
 31
0.0
210
0.0
220
0.0
230
1.0
100
AcDbText
  0
TEXT
  5
3B6
100
AcDbEntity
  8
0
 62
     7
 48
0.0
100
AcDbText
 10
26.61638
 20
315.9992
 30
0.0
 40
2.0
  1
      1.4828 -0.3385     3
 72
     5
 11
86.283048
 21
315.9992
 31
0.0
210
0.0
220
0.0
230
1.0
100
AcDbText
  0
TEXT
  5
3B7
100
AcDbEntity
  8
0
 62
     7
 48
0.0
100
AcDbText
 10
26.61638
 20
312.9992
 30
0.0
 40
2.0
  1
      1.3931 -0.3826     3
 72
     5
 11
86.283048
 21
312.9992
 31
0.0
210
0.0
220
0.0
230
1.0
100
AcDbText
  0
TEXT
  5
3B8
100
AcDbEntity
  8
0
 62
     7
 48
0.0
100
AcDbText
 10
26.61638
 20
309.9992
 30
0.0
 40
2.0
  1
      1.3031 -0.4262     3
 72
     5
 11
86.283048
 21
309.9992
 31
0.0
210
0.0
220
0.0
230
1.0
100
AcDbText
  0
TEXT
  5
3B9
100
AcDbEntity
  8
0
 62
     7
 48
0.0
100
AcDbText
 10
26.61638
 20
306.9992
 30
0.0
 40
2.0
  1
      1.2130 -0.4696     3
 72
     5
 11
86.283048
 21
306.9992
 31
0.0
210
0.0
220
0.0
230
1.0
100
AcDbText
  0
TEXT
  5
3BA
100
AcDbEntity
  8
0
 62
     7
 48
0.0
100
AcDbText
 10
26.61638
 20
303.9992
 30
0.0
 40
2.0
  1
      1.1227 -0.5126     3
 72
     5
 11
86.283048
 21
303.9992
 31
0.0
210
0.0
220
0.0
230
1.0
100
AcDbText
  0
TEXT
  5
3BB
100
AcDbEntity
  8
0
 62
     7
 48
0.0
100
AcDbText
 10
26.61638
 20
300.9992
 30
0.0
 40
2.0
  1
      1.0323 -0.5553     3
 72
     5
 11
86.283048
 21
300.9992
 31
0.0
210
0.0
220
0.0
230
1.0
100
AcDbText
  0
TEXT
  5
3BC
100
AcDbEntity
  8
0
 62
     7
 48
0.0
100
AcDbText
 10
26.61638
 20
297.9992
 30
0.0
 40
2.0
  1
      0.9418 -0.5978     3
 72
     5
 11
86.283048
 21
297.9992
 31
0.0
210
0.0
220
0.0
230
1.0
100
AcDbText
  0
TEXT
  5
3BD
100
AcDbEntity
  8
0
 62
     7
 48
0.0
100
AcDbText
 10
26.61638
 20
294.9992
 30
0.0
 40
2.0
  1
      0.8512 -0.6401     3
 72
     5
 11
86.283048
 21
294.9992
 31
0.0
210
0.0
220
0.0
230
1.0
100
AcDbText
  0
TEXT
  5
3BE
100
AcDbEntity
  8
0
 62
     7
 48
0.0
100
AcDbText
 10
26.61638
 20
291.9992
 30
0.0
 40
2.0
  1
      0.7605 -0.6822     3
 72
     5
 11
86.283048
 21
291.9992
 31
0.0
210
0.0
220
0.0
230
1.0
100
AcDbText
  0
TEXT
  5
3BF
100
AcDbEntity
  8
0
 62
     7
 48
0.0
100
AcDbText
 10
26.61638
 20
288.9992
 30
0.0
 40
2.0
  1
      0.6697 -0.7241     3
 72
     5
 11
86.283048
 21
288.9992
 31
0.0
210
0.0
220
0.0
230
1.0
100
AcDbText
  0
TEXT
  5
3C0
100
AcDbEntity
  8
0
 62
     7
 48
0.0
100
AcDbText
 10
26.61638
 20
285.9992
 30
0.0
 40
2.0
  1
      0.5788 -0.7659     3
 72
     5
 11
86.283048
 21
285.9992
 31
0.0
210
0.0
220
0.0
230
1.0
100
AcDbText
  0
TEXT
  5
3C1
100
AcDbEntity
  8
0
 62
     7
 48
0.0
100
AcDbText
 10
26.61638
 20
282.9992
 30
0.0
 40
2.0
  1
      0.4879 -0.8075     3
 72
     5
 11
86.283048
 21
282.9992
 31
0.0
210
0.0
220
0.0
230
1.0
100
AcDbText
  0
TEXT
  5
3C2
100
AcDbEntity
  8
0
 62
     7
 48
0.0
100
AcDbText
 10
26.61638
 20
279.9992
 30
0.0
 40
2.0
  1
      0.3969 -0.8490     3
 72
     5
 11
86.283048
 21
279.9992
 31
0.0
210
0.0
220
0.0
230
1.0
100
AcDbText
  0
TEXT
  5
3C3
100
AcDbEntity
  8
0
 62
     7
 48
0.0
100
AcDbText
 10
26.61638
 20
276.9992
 30
0.0
 40
2.0
  1
      0.3058 -0.8903     3
 72
     5
 11
86.283048
 21
276.9992
 31
0.0
210
0.0
220
0.0
230
1.0
100
AcDbText
  0
TEXT
  5
3C4
100
AcDbEntity
  8
0
 62
     7
 48
0.0
100
AcDbText
 10
26.61638
 20
273.9992
 30
0.0
 40
2.0
  1
      0.2147 -0.9315     3
 72
     5
 11
86.283048
 21
273.9992
 31
0.0
210
0.0
220
0.0
230
1.0
100
AcDbText
  0
TEXT
  5
3C5
100
AcDbEntity
  8
0
 62
     7
 48
0.0
100
AcDbText
 10
26.61638
 20
270.9992
 30
0.0
 40
2.0
  1
      0.1236 -0.9727     3
 72
     5
 11
86.283048
 21
270.9992
 31
0.0
210
0.0
220
0.0
230
1.0
100
AcDbText
  0
TEXT
  5
3C6
100
AcDbEntity
  8
0
 62
     7
 48
0.0
100
AcDbText
 10
26.61638
 20
267.9992
 30
0.0
 40
2.0
  1
      0.0324 -1.0137     3
 72
     5
 11
86.283048
 21
267.9992
 31
0.0
210
0.0
220
0.0
230
1.0
100
AcDbText
  0
TEXT
  5
3C7
100
AcDbEntity
  8
0
 62
     7
 48
0.0
100
AcDbText
 10
26.61638
 20
264.9992
 30
0.0
 40
2.0
  1
      0.0000 -1.0282     3
 72
     5
 11
86.283048
 21
264.9992
 31
0.0
210
0.0
220
0.0
230
1.0
100
AcDbText
  0
TEXT
  5
3C8
100
AcDbEntity
  8
0
 62
     7
 48
0.0
100
AcDbText
 10
26.61638
 20
261.9992
 30
0.0
 40
2.0
  1
    SECTION NUMBER 6 AT    7.200 M
 72
     5
 11
104.949716
 21
261.9992
 31
0.0
210
0.0
220
0.0
230
1.0
100
AcDbText
  0
TEXT
  5
3C9
100
AcDbEntity
  8
0
 62
     7
 48
0.0
100
AcDbText
 10
26.61638
 20
258.9992
 30
0.0
 40
2.0
  1
      2.8250  2.1100     1
 72
     5
 11
86.283048
 21
258.9992
 31
0.0
210
0.0
220
0.0
230
1.0
100
AcDbText
  0
TEXT
  5
3CA
100
AcDbEntity
  8
0
 62
     7
 48
0.0
100
AcDbText
 10
26.61638
 20
255.9992
 30
0.0
 40
2.0
  1
      2.8250  1.8350     1
 72
     5
 11
86.283048
 21
255.9992
 31
0.0
210
0.0
220
0.0
230
1.0
100
AcDbText
  0
TEXT
  5
3CB
100
AcDbEntity
  8
0
 62
     7
 48
0.0
100
AcDbText
 10
26.61638
 20
252.9992
 30
0.0
 40
2.0
  1
      2.3181 -0.0520     2
 72
     5
 11
86.283048
 21
252.9992
 31
0.0
210
0.0
220
0.0
230
1.0
100
AcDbText
  0
TEXT
  5
3CC
100
AcDbEntity
  8
0
 62
     7
 48
0.0
100
AcDbText
 10
26.61638
 20
249.9992
 30
0.0
 40
2.0
  1
      2.2348 -0.1057     3
 72
     5
 11
86.283048
 21
249.9992
 31
0.0
210
0.0
220
0.0
230
1.0
100
AcDbText
  0
TEXT
  5
3CD
100
AcDbEntity
  8
0
 62
     7
 48
0.0
100
AcDbText
 10
26.61638
 20
246.9992
 30
0.0
 40
2.0
  1
      2.1444 -0.1485     3
 72
     5
 11
86.283048
 21
246.9992
 31
0.0
210
0.0
220
0.0
230
1.0
100
AcDbText
  0
TEXT
  5
3CE
100
AcDbEntity
  8
0
 62
     7
 48
0.0
100
AcDbText
 10
26.61638
 20
243.9992
 30
0.0
 40
2.0
  1
      2.0530 -0.1890     3
 72
     5
 11
86.283048
 21
243.9992
 31
0.0
210
0.0
220
0.0
230
1.0
100
AcDbText
  0
TEXT
  5
3CF
100
AcDbEntity
  8
0
 62
     7
 48
0.0
100
AcDbText
 10
26.61638
 20
240.9992
 30
0.0
 40
2.0
  1
      1.9610 -0.2282     3
 72
     5
 11
86.283048
 21
240.9992
 31
0.0
210
0.0
220
0.0
230
1.0
100
AcDbText
  0
TEXT
  5
3D0
100
AcDbEntity
  8
0
 62
     7
 48
0.0
100
AcDbText
 10
26.61638
 20
237.9992
 30
0.0
 40
2.0
  1
      1.8687 -0.2667     3
 72
     5
 11
86.283048
 21
237.9992
 31
0.0
210
0.0
220
0.0
230
1.0
100
AcDbText
  0
TEXT
  5
3D1
100
AcDbEntity
  8
0
 62
     7
 48
0.0
100
AcDbText
 10
26.61638
 20
234.9992
 30
0.0
 40
2.0
  1
      1.7762 -0.3046     3
 72
     5
 11
86.283048
 21
234.9992
 31
0.0
210
0.0
220
0.0
230
1.0
100
AcDbText
  0
TEXT
  5
3D2
100
AcDbEntity
  8
0
 62
     7
 48
0.0
100
AcDbText
 10
26.61638
 20
231.9992
 30
0.0
 40
2.0
  1
      1.6835 -0.3421     3
 72
     5
 11
86.283048
 21
231.9992
 31
0.0
210
0.0
220
0.0
230
1.0
100
AcDbText
  0
TEXT
  5
3D3
100
AcDbEntity
  8
0
 62
     7
 48
0.0
100
AcDbText
 10
26.61638
 20
228.9992
 30
0.0
 40
2.0
  1
      1.5906 -0.3793     3
 72
     5
 11
86.283048
 21
228.9992
 31
0.0
210
0.0
220
0.0
230
1.0
100
AcDbText
  0
TEXT
  5
3D4
100
AcDbEntity
  8
0
 62
     7
 48
0.0
100
AcDbText
 10
26.61638
 20
225.9992
 30
0.0
 40
2.0
  1
      1.4977 -0.4162     3
 72
     5
 11
86.283048
 21
225.9992
 31
0.0
210
0.0
220
0.0
230
1.0
100
AcDbText
  0
TEXT
  5
3D5
100
AcDbEntity
  8
0
 62
     7
 48
0.0
100
AcDbText
 10
26.61638
 20
222.9992
 30
0.0
 40
2.0
  1
      1.4047 -0.4528     3
 72
     5
 11
86.283048
 21
222.9992
 31
0.0
210
0.0
220
0.0
230
1.0
100
AcDbText
  0
TEXT
  5
3D6
100
AcDbEntity
  8
0
 62
     7
 48
0.0
100
AcDbText
 10
26.61638
 20
219.9992
 30
0.0
 40
2.0
  1
      1.3116 -0.4893     3
 72
     5
 11
86.283048
 21
219.9992
 31
0.0
210
0.0
220
0.0
230
1.0
100
AcDbText
  0
TEXT
  5
3D7
100
AcDbEntity
  8
0
 62
     7
 48
0.0
100
AcDbText
 10
26.61638
 20
216.9992
 30
0.0
 40
2.0
  1
      1.2184 -0.5256     3
 72
     5
 11
86.283048
 21
216.9992
 31
0.0
210
0.0
220
0.0
230
1.0
100
AcDbText
  0
TEXT
  5
3D8
100
AcDbEntity
  8
0
 62
     7
 48
0.0
100
AcDbText
 10
26.61638
 20
213.9992
 30
0.0
 40
2.0
  1
      1.1251 -0.5618     3
 72
     5
 11
86.283048
 21
213.9992
 31
0.0
210
0.0
220
0.0
230
1.0
100
AcDbText
  0
TEXT
  5
3D9
100
AcDbEntity
  8
0
 62
     7
 48
0.0
100
AcDbText
 10
26.61638
 20
210.9992
 30
0.0
 40
2.0
  1
      1.0319 -0.5978     3
 72
     5
 11
86.283048
 21
210.9992
 31
0.0
210
0.0
220
0.0
230
1.0
100
AcDbText
  0
TEXT
  5
3DA
100
AcDbEntity
  8
0
 62
     7
 48
0.0
100
AcDbText
 10
26.61638
 20
207.9992
 30
0.0
 40
2.0
  1
      0.9385 -0.6337     3
 72
     5
 11
86.283048
 21
207.9992
 31
0.0
210
0.0
220
0.0
230
1.0
100
AcDbText
  0
TEXT
  5
3DB
100
AcDbEntity
  8
0
 62
     7
 48
0.0
100
AcDbText
 10
26.61638
 20
204.9992
 30
0.0
 40
2.0
  1
      0.8451 -0.6695     3
 72
     5
 11
86.283048
 21
204.9992
 31
0.0
210
0.0
220
0.0
230
1.0
100
AcDbText
  0
TEXT
  5
3DC
100
AcDbEntity
  8
0
 62
     7
 48
0.0
100
AcDbText
 10
26.61638
 20
201.9992
 30
0.0
 40
2.0
  1
      0.7517 -0.7052     3
 72
     5
 11
86.283048
 21
201.9992
 31
0.0
210
0.0
220
0.0
230
1.0
100
AcDbText
  0
TEXT
  5
3DD
100
AcDbEntity
  8
0
 62
     7
 48
0.0
100
AcDbText
 10
26.61638
 20
198.9992
 30
0.0
 40
2.0
  1
      0.6583 -0.7408     3
 72
     5
 11
86.283048
 21
198.9992
 31
0.0
210
0.0
220
0.0
230
1.0
100
AcDbText
  0
TEXT
  5
3DE
100
AcDbEntity
  8
0
 62
     7
 48
0.0
100
AcDbText
 10
26.61638
 20
195.9992
 30
0.0
 40
2.0
  1
      0.5648 -0.7763     3
 72
     5
 11
86.283048
 21
195.9992
 31
0.0
210
0.0
220
0.0
230
1.0
100
AcDbText
  0
TEXT
  5
3DF
100
AcDbEntity
  8
0
 62
     7
 48
0.0
100
AcDbText
 10
26.61638
 20
192.9992
 30
0.0
 40
2.0
  1
      0.4713 -0.8118     3
 72
     5
 11
86.283048
 21
192.9992
 31
0.0
210
0.0
220
0.0
230
1.0
100
AcDbText
  0
TEXT
  5
3E0
100
AcDbEntity
  8
0
 62
     7
 48
0.0
100
AcDbText
 10
26.61638
 20
189.9992
 30
0.0
 40
2.0
  1
      0.3778 -0.8472     3
 72
     5
 11
86.283048
 21
189.9992
 31
0.0
210
0.0
220
0.0
230
1.0
100
AcDbText
  0
TEXT
  5
3E1
100
AcDbEntity
  8
0
 62
     7
 48
0.0
100
AcDbText
 10
26.61638
 20
186.9992
 30
0.0
 40
2.0
  1
      0.2842 -0.8825     3
 72
     5
 11
86.283048
 21
186.9992
 31
0.0
210
0.0
220
0.0
230
1.0
100
AcDbText
  0
TEXT
  5
3E2
100
AcDbEntity
  8
0
 62
     7
 48
0.0
100
AcDbText
 10
26.61638
 20
183.9992
 30
0.0
 40
2.0
  1
      0.1907 -0.9177     3
 72
     5
 11
86.283048
 21
183.9992
 31
0.0
210
0.0
220
0.0
230
1.0
100
AcDbText
  0
TEXT
  5
3E3
100
AcDbEntity
  8
0
 62
     7
 48
0.0
100
AcDbText
 10
26.61638
 20
180.9992
 30
0.0
 40
2.0
  1
      0.0971 -0.9530     3
 72
     5
 11
86.283048
 21
180.9992
 31
0.0
210
0.0
220
0.0
230
1.0
100
AcDbText
  0
TEXT
  5
3E4
100
AcDbEntity
  8
0
 62
     7
 48
0.0
100
AcDbText
 10
26.61638
 20
177.9992
 30
0.0
 40
2.0
  1
      0.0034 -0.9881     3
 72
     5
 11
86.283048
 21
177.9992
 31
0.0
210
0.0
220
0.0
230
1.0
100
AcDbText
  0
TEXT
  5
3E5
100
AcDbEntity
  8
0
 62
     7
 48
0.0
100
AcDbText
 10
26.61638
 20
174.9992
 30
0.0
 40
2.0
  1
      0.0000 -0.9894     3
 72
     5
 11
86.283048
 21
174.9992
 31
0.0
210
0.0
220
0.0
230
1.0
100
AcDbText
  0
TEXT
  5
3E6
100
AcDbEntity
  8
0
 62
     7
 48
0.0
100
AcDbText
 10
26.61638
 20
171.9992
 30
0.0
 40
2.0
  1
    SECTION NUMBER 7 AT    9.000 M
 72
     5
 11
104.949716
 21
171.9992
 31
0.0
210
0.0
220
0.0
230
1.0
100
AcDbText
  0
TEXT
  5
3E7
100
AcDbEntity
  8
0
 62
     7
 48
0.0
100
AcDbText
 10
26.61638
 20
168.9992
 30
0.0
 40
2.0
  1
      2.8450  2.0950     1
 72
     5
 11
86.283048
 21
168.9992
 31
0.0
210
0.0
220
0.0
230
1.0
100
AcDbText
  0
TEXT
  5
3E8
100
AcDbEntity
  8
0
 62
     7
 48
0.0
100
AcDbText
 10
26.61638
 20
165.9992
 30
0.0
 40
2.0
  1
      2.8450  1.8200     1
 72
     5
 11
86.283048
 21
165.9992
 31
0.0
210
0.0
220
0.0
230
1.0
100
AcDbText
  0
TEXT
  5
3E9
100
AcDbEntity
  8
0
 62
     7
 48
0.0
100
AcDbText
 10
26.61638
 20
162.9992
 30
0.0
 40
2.0
  1
      2.3842 -0.1250     2
 72
     5
 11
86.283048
 21
162.9992
 31
0.0
210
0.0
220
0.0
230
1.0
100
AcDbText
  0
TEXT
  5
3EA
100
AcDbEntity
  8
0
 62
     7
 48
0.0
100
AcDbText
 10
26.61638
 20
159.9992
 30
0.0
 40
2.0
  1
      2.2918 -0.1628     3
 72
     5
 11
86.283048
 21
159.9992
 31
0.0
210
0.0
220
0.0
230
1.0
100
AcDbText
  0
TEXT
  5
3EB
100
AcDbEntity
  8
0
 62
     7
 48
0.0
100
AcDbText
 10
26.61638
 20
156.9992
 30
0.0
 40
2.0
  1
      2.1978 -0.1969     3
 72
     5
 11
86.283048
 21
156.9992
 31
0.0
210
0.0
220
0.0
230
1.0
100
AcDbText
  0
TEXT
  5
3EC
100
AcDbEntity
  8
0
 62
     7
 48
0.0
100
AcDbText
 10
26.61638
 20
153.9992
 30
0.0
 40
2.0
  1
      2.1036 -0.2304     3
 72
     5
 11
86.283048
 21
153.9992
 31
0.0
210
0.0
220
0.0
230
1.0
100
AcDbText
  0
TEXT
  5
3ED
100
AcDbEntity
  8
0
 62
     7
 48
0.0
100
AcDbText
 10
26.61638
 20
150.9992
 30
0.0
 40
2.0
  1
      2.0092 -0.2636     3
 72
     5
 11
86.283048
 21
150.9992
 31
0.0
210
0.0
220
0.0
230
1.0
100
AcDbText
  0
TEXT
  5
3EE
100
AcDbEntity
  8
0
 62
     7
 48
0.0
100
AcDbText
 10
26.61638
 20
147.9992
 30
0.0
 40
2.0
  1
      1.9148 -0.2965     3
 72
     5
 11
86.283048
 21
147.9992
 31
0.0
210
0.0
220
0.0
230
1.0
100
AcDbText
  0
TEXT
  5
3EF
100
AcDbEntity
  8
0
 62
     7
 48
0.0
100
AcDbText
 10
26.61638
 20
144.9992
 30
0.0
 40
2.0
  1
      1.8204 -0.3293     3
 72
     5
 11
86.283048
 21
144.9992
 31
0.0
210
0.0
220
0.0
230
1.0
100
AcDbText
  0
TEXT
  5
3F0
100
AcDbEntity
  8
0
 62
     7
 48
0.0
100
AcDbText
 10
26.61638
 20
141.9992
 30
0.0
 40
2.0
  1
      1.7258 -0.3620     3
 72
     5
 11
86.283048
 21
141.9992
 31
0.0
210
0.0
220
0.0
230
1.0
100
AcDbText
  0
TEXT
  5
3F1
100
AcDbEntity
  8
0
 62
     7
 48
0.0
100
AcDbText
 10
26.61638
 20
138.9992
 30
0.0
 40
2.0
  1
      1.6313 -0.3946     3
 72
     5
 11
86.283048
 21
138.9992
 31
0.0
210
0.0
220
0.0
230
1.0
100
AcDbText
  0
TEXT
  5
3F2
100
AcDbEntity
  8
0
 62
     7
 48
0.0
100
AcDbText
 10
26.61638
 20
135.9992
 30
0.0
 40
2.0
  1
      1.5368 -0.4272     3
 72
     5
 11
86.283048
 21
135.9992
 31
0.0
210
0.0
220
0.0
230
1.0
100
AcDbText
  0
TEXT
  5
3F3
100
AcDbEntity
  8
0
 62
     7
 48
0.0
100
AcDbText
 10
26.61638
 20
132.9992
 30
0.0
 40
2.0
  1
      1.4422 -0.4596     3
 72
     5
 11
86.283048
 21
132.9992
 31
0.0
210
0.0
220
0.0
230
1.0
100
AcDbText
  0
TEXT
  5
3F4
100
AcDbEntity
  8
0
 62
     7
 48
0.0
100
AcDbText
 10
26.61638
 20
129.9992
 30
0.0
 40
2.0
  1
      1.3476 -0.4921     3
 72
     5
 11
86.283048
 21
129.9992
 31
0.0
210
0.0
220
0.0
230
1.0
100
AcDbText
  0
TEXT
  5
3F5
100
AcDbEntity
  8
0
 62
     7
 48
0.0
100
AcDbText
 10
26.61638
 20
126.9992
 30
0.0
 40
2.0
  1
      1.2530 -0.5244     3
 72
     5
 11
86.283048
 21
126.9992
 31
0.0
210
0.0
220
0.0
230
1.0
100
AcDbText
  0
TEXT
  5
3F6
100
AcDbEntity
  8
0
 62
     7
 48
0.0
100
AcDbText
 10
26.61638
 20
123.9992
 30
0.0
 40
2.0
  1
      1.1583 -0.5568     3
 72
     5
 11
86.283048
 21
123.9992
 31
0.0
210
0.0
220
0.0
230
1.0
100
AcDbText
  0
TEXT
  5
3F7
100
AcDbEntity
  8
0
 62
     7
 48
0.0
100
AcDbText
 10
26.61638
 20
120.9992
 30
0.0
 40
2.0
  1
      1.0637 -0.5891     3
 72
     5
 11
86.283048
 21
120.9992
 31
0.0
210
0.0
220
0.0
230
1.0
100
AcDbText
  0
TEXT
  5
3F8
100
AcDbEntity
  8
0
 62
     7
 48
0.0
100
AcDbText
 10
26.61638
 20
117.9992
 30
0.0
 40
2.0
  1
      0.9690 -0.6213     3
 72
     5
 11
86.283048
 21
117.9992
 31
0.0
210
0.0
220
0.0
230
1.0
100
AcDbText
  0
TEXT
  5
3F9
100
AcDbEntity
  8
0
 62
     7
 48
0.0
100
AcDbText
 10
26.61638
 20
114.9992
 30
0.0
 40
2.0
  1
      0.8744 -0.6536     3
 72
     5
 11
86.283048
 21
114.9992
 31
0.0
210
0.0
220
0.0
230
1.0
100
AcDbText
  0
TEXT
  5
3FA
100
AcDbEntity
  8
0
 62
     7
 48
0.0
100
AcDbText
 10
26.61638
 20
111.9992
 30
0.0
 40
2.0
  1
      0.7797 -0.6858     3
 72
     5
 11
86.283048
 21
111.9992
 31
0.0
210
0.0
220
0.0
230
1.0
100
AcDbText
  0
TEXT
  5
3FB
100
AcDbEntity
  8
0
 62
     7
 48
0.0
100
AcDbText
 10
26.61638
 20
108.9992
 30
0.0
 40
2.0
  1
      0.6850 -0.7180     3
 72
     5
 11
86.283048
 21
108.9992
 31
0.0
210
0.0
220
0.0
230
1.0
100
AcDbText
  0
TEXT
  5
3FC
100
AcDbEntity
  8
0
 62
     7
 48
0.0
100
AcDbText
 10
26.61638
 20
105.9992
 30
0.0
 40
2.0
  1
      0.5903 -0.7501     3
 72
     5
 11
86.283048
 21
105.9992
 31
0.0
210
0.0
220
0.0
230
1.0
100
AcDbText
  0
TEXT
  5
3FD
100
AcDbEntity
  8
0
 62
     7
 48
0.0
100
AcDbText
 10
26.61638
 20
102.9992
 30
0.0
 40
2.0
  1
      0.4956 -0.7823     3
 72
     5
 11
86.283048
 21
102.9992
 31
0.0
210
0.0
220
0.0
230
1.0
100
AcDbText
  0
TEXT
  5
3FE
100
AcDbEntity
  8
0
 62
     7
 48
0.0
100
AcDbText
 10
26.61638
 20
99.9992
 30
0.0
 40
2.0
  1
      0.4009 -0.8144     3
 72
     5
 11
86.283048
 21
99.9992
 31
0.0
210
0.0
220
0.0
230
1.0
100
AcDbText
  0
TEXT
  5
3FF
100
AcDbEntity
  8
0
 62
     7
 48
0.0
100
AcDbText
 10
26.61638
 20
96.9992
 30
0.0
 40
2.0
  1
      0.3062 -0.8465     3
 72
     5
 11
86.283048
 21
96.9992
 31
0.0
210
0.0
220
0.0
230
1.0
100
AcDbText
  0
TEXT
  5
400
100
AcDbEntity
  8
0
 62
     7
 48
0.0
100
AcDbText
 10
26.61638
 20
93.9992
 30
0.0
 40
2.0
  1
      0.2115 -0.8786     3
 72
     5
 11
86.283048
 21
93.9992
 31
0.0
210
0.0
220
0.0
230
1.0
100
AcDbText
  0
TEXT
  5
401
100
AcDbEntity
  8
0
 62
     7
 48
0.0
100
AcDbText
 10
26.61638
 20
90.9992
 30
0.0
 40
2.0
  1
      0.1168 -0.9107     3
 72
     5
 11
86.283048
 21
90.9992
 31
0.0
210
0.0
220
0.0
230
1.0
100
AcDbText
  0
TEXT
  5
402
100
AcDbEntity
  8
0
 62
     7
 48
0.0
100
AcDbText
 10
26.61638
 20
87.9992
 30
0.0
 40
2.0
  1
      0.0221 -0.9427     3
 72
     5
 11
86.283048
 21
87.9992
 31
0.0
210
0.0
220
0.0
230
1.0
100
AcDbText
  0
TEXT
  5
403
100
AcDbEntity
  8
0
 62
     7
 48
0.0
100
AcDbText
 10
26.61638
 20
84.9992
 30
0.0
 40
2.0
  1
      0.0000 -0.9502     3
 72
     5
 11
86.283048
 21
84.9992
 31
0.0
210
0.0
220
0.0
230
1.0
100
AcDbText
  0
TEXT
  5
404
100
AcDbEntity
  8
0
 62
     7
 48
0.0
100
AcDbText
 10
26.61638
 20
81.9992
 30
0.0
 40
2.0
  1
    SECTION NUMBER 8 AT   10.800 M
 72
     5
 11
104.949716
 21
81.9992
 31
0.0
210
0.0
220
0.0
230
1.0
100
AcDbText
  0
TEXT
  5
405
100
AcDbEntity
  8
0
 62
     7
 48
0.0
100
AcDbText
 10
26.61638
 20
78.9992
 30
0.0
 40
2.0
  1
      2.8250  2.0650     1
 72
     5
 11
86.283048
 21
78.9992
 31
0.0
210
0.0
220
0.0
230
1.0
100
AcDbText
  0
TEXT
  5
406
100
AcDbEntity
  8
0
 62
     7
 48
0.0
100
AcDbText
 10
26.61638
 20
75.9992
 30
0.0
 40
2.0
  1
      2.8250  1.7900     1
 72
     5
 11
86.283048
 21
75.9992
 31
0.0
210
0.0
220
0.0
230
1.0
100
AcDbText
  0
TEXT
  5
407
100
AcDbEntity
  8
0
 62
     7
 48
0.0
100
AcDbText
 10
26.61638
 20
72.9992
 30
0.0
 40
2.0
  1
      2.3642 -0.1720     2
 72
     5
 11
86.283048
 21
72.9992
 31
0.0
210
0.0
220
0.0
230
1.0
100
AcDbText
  0
TEXT
  5
408
100
AcDbEntity
  8
0
 62
     7
 48
0.0
100
AcDbText
 10
26.61638
 20
69.9992
 30
0.0
 40
2.0
  1
      0.0000 -0.9152     3
 72
     5
 11
86.283048
 21
69.9992
 31
0.0
210
0.0
220
0.0
230
1.0
100
AcDbText
  0
TEXT
  5
409
100
AcDbEntity
  8
0
 62
     7
 48
0.0
100
AcDbText
 10
26.61638
 20
66.9992
 30
0.0
 40
2.0
  1
    SECTION NUMBER 9 AT   12.600 M
 72
     5
 11
104.949716
 21
66.9992
 31
0.0
210
0.0
220
0.0
230
1.0
100
AcDbText
  0
TEXT
  5
40A
100
AcDbEntity
  8
0
 62
     7
 48
0.0
100
AcDbText
 10
26.61638
 20
63.9992
 30
0.0
 40
2.0
  1
      2.7949  2.0550     1
 72
     5
 11
86.283048
 21
63.9992
 31
0.0
210
0.0
220
0.0
230
1.0
100
AcDbText
  0
TEXT
  5
40B
100
AcDbEntity
  8
0
 62
     7
 48
0.0
100
AcDbText
 10
26.61638
 20
60.9992
 30
0.0
 40
2.0
  1
      2.7949  1.7800     1
 72
     5
 11
86.283048
 21
60.9992
 31
0.0
210
0.0
220
0.0
230
1.0
100
AcDbText
  0
TEXT
  5
40C
100
AcDbEntity
  8
0
 62
     7
 48
0.0
100
AcDbText
 10
26.61638
 20
57.9992
 30
0.0
 40
2.0
  1
      2.3341 -0.2020     2
 72
     5
 11
86.283048
 21
57.9992
 31
0.0
210
0.0
220
0.0
230
1.0
100
AcDbText
  0
TEXT
  5
40D
100
AcDbEntity
  8
0
 62
     7
 48
0.0
100
AcDbText
 10
26.61638
 20
54.9992
 30
0.0
 40
2.0
  1
      0.0000 -0.8888     3
 72
     5
 11
86.283048
 21
54.9992
 31
0.0
210
0.0
220
0.0
230
1.0
100
AcDbText
  0
TEXT
  5
40E
100
AcDbEntity
  8
0
 62
     7
 48
0.0
100
AcDbText
 10
26.61638
 20
51.9992
 30
0.0
 40
2.0
  1
    SECTION NUMBER 10 AT   14.400 M
 72
     5
 11
107.283051
 21
51.9992
 31
0.0
210
0.0
220
0.0
230
1.0
100
AcDbText
  0
TEXT
  5
40F
100
AcDbEntity
  8
0
 62
     7
 48
0.0
100
AcDbText
 10
26.61638
 20
48.9992
 30
0.0
 40
2.0
  1
      2.7729  2.0350     1
 72
     5
 11
86.283048
 21
48.9992
 31
0.0
210
0.0
220
0.0
230
1.0
100
AcDbText
  0
TEXT
  5
410
100
AcDbEntity
  8
0
 62
     7
 48
0.0
100
AcDbText
 10
26.61638
 20
45.9992
 30
0.0
 40
2.0
  1
      2.7729  1.7600     1
 72
     5
 11
86.283048
 21
45.9992
 31
0.0
210
0.0
220
0.0
230
1.0
100
AcDbText
  0
TEXT
  5
411
100
AcDbEntity
  8
0
 62
     7
 48
0.0
100
AcDbText
 10
26.61638
 20
42.9992
 30
0.0
 40
2.0
  1
      2.3141 -0.2300     2
 72
     5
 11
86.283048
 21
42.9992
 31
0.0
210
0.0
220
0.0
230
1.0
100
AcDbText
  0
TEXT
  5
412
100
AcDbEntity
  8
0
 62
     7
 48
0.0
100
AcDbText
 10
26.61638
 20
39.9992
 30
0.0
 40
2.0
  1
      0.0000 -0.8530     3
 72
     5
 11
86.283048
 21
39.9992
 31
0.0
210
0.0
220
0.0
230
1.0
100
AcDbText
  0
TEXT
  5
413
100
AcDbEntity
  8
0
 62
     7
 48
0.0
100
AcDbText
 10
26.61638
 20
36.9992
 30
0.0
 40
2.0
  1
    SECTION NUMBER 11 AT   16.200 M
 72
     5
 11
107.283051
 21
36.9992
 31
0.0
210
0.0
220
0.0
230
1.0
100
AcDbText
  0
TEXT
  5
414
100
AcDbEntity
  8
0
 62
     7
 48
0.0
100
AcDbText
 10
26.61638
 20
33.9992
 30
0.0
 40
2.0
  1
      2.7308  2.0250     1
 72
     5
 11
86.283048
 21
33.9992
 31
0.0
210
0.0
220
0.0
230
1.0
100
AcDbText
  0
TEXT
  5
415
100
AcDbEntity
  8
0
 62
     7
 48
0.0
100
AcDbText
 10
26.61638
 20
30.9992
 30
0.0
 40
2.0
  1
      2.7308  1.7500     1
 72
     5
 11
86.283048
 21
30.9992
 31
0.0
210
0.0
220
0.0
230
1.0
100
AcDbText
  0
TEXT
  5
416
100
AcDbEntity
  8
0
 62
     7
 48
0.0
100
AcDbText
 10
26.61638
 20
27.9992
 30
0.0
 40
2.0
  1
      2.2740 -0.2570     2
 72
     5
 11
86.283048
 21
27.9992
 31
0.0
210
0.0
220
0.0
230
1.0
100
AcDbText
  0
TEXT
  5
417
100
AcDbEntity
  8
0
 62
     7
 48
0.0
100
AcDbText
 10
26.61638
 20
24.9992
 30
0.0
 40
2.0
  1
      0.0000 -0.8174     3
 72
     5
 11
86.283048
 21
24.9992
 31
0.0
210
0.0
220
0.0
230
1.0
100
AcDbText
  0
TEXT
  5
418
100
AcDbEntity
  8
0
 62
     7
 48
0.0
100
AcDbText
 10
26.61638
 20
21.9992
 30
0.0
 40
2.0
  1
    SECTION NUMBER 12 AT   17.100 M
 72
     5
 11
107.283051
 21
21.9992
 31
0.0
210
0.0
220
0.0
230
1.0
100
AcDbText
  0
TEXT
  5
419
100
AcDbEntity
  8
0
 62
     7
 48
0.0
100
AcDbText
 10
26.61638
 20
18.9992
 30
0.0
 40
2.0
  1
      2.7148  2.0150     1
 72
     5
 11
86.283048
 21
18.9992
 31
0.0
210
0.0
220
0.0
230
1.0
100
AcDbText
  0
TEXT
  5
41A
100
AcDbEntity
  8
0
 62
     7
 48
0.0
100
AcDbText
 10
26.61638
 20
15.9992
 30
0.0
 40
2.0
  1
      2.7148  1.7400     1
 72
     5
 11
86.283048
 21
15.9992
 31
0.0
210
0.0
220
0.0
230
1.0
100
AcDbText
  0
TEXT
  5
41B
100
AcDbEntity
  8
0
 62
     7
 48
0.0
100
AcDbText
 10
26.61638
 20
12.9992
 30
0.0
 40
2.0
  1
      2.2560 -0.2720     2
 72
     5
 11
86.283048
 21
12.9992
 31
0.0
210
0.0
220
0.0
230
1.0
100
AcDbText
  0
TEXT
  5
41C
100
AcDbEntity
  8
0
 62
     7
 48
0.0
100
AcDbText
 10
26.61638
 20
9.9992
 30
0.0
 40
2.0
  1
      0.0000 -0.7912     3
 72
     5
 11
86.283048
 21
9.9992
 31
0.0
210
0.0
220
0.0
230
1.0
100
AcDbText
  0
TEXT
  5
41D
100
AcDbEntity
  8
0
 62
     7
 48
0.0
100
AcDbText
 10
26.61638
 20
6.9992
 30
0.0
 40
2.0
  1
    SECTION NUMBER 13 AT   18.000 M
 72
     5
 11
107.283051
 21
6.9992
 31
0.0
210
0.0
220
0.0
230
1.0
100
AcDbText
  0
TEXT
  5
41E
100
AcDbEntity
  8
0
 62
     7
 48
0.0
100
AcDbText
 10
26.61638
 20
3.9992
 30
0.0
 40
2.0
  1
      2.6847  2.0050     1
 72
     5
 11
86.283048
 21
3.9992
 31
0.0
210
0.0
220
0.0
230
1.0
100
AcDbText
  0
TEXT
  5
41F
100
AcDbEntity
  8
0
 62
     7
 48
0.0
100
AcDbText
 10
26.61638
 20
0.9992
 30
0.0
 40
2.0
  1
      2.6847  1.7300     1
 72
     5
 11
86.283048
 21
0.9992
 31
0.0
210
0.0
220
0.0
230
1.0
100
AcDbText
  0
TEXT
  5
420
100
AcDbEntity
  8
0
 62
     7
 48
0.0
100
AcDbText
 10
26.61638
 20
-2.0008
 30
0.0
 40
2.0
  1
      2.2399 -0.2820     2
 72
     5
 11
86.283048
 21
-2.0008
 31
0.0
210
0.0
220
0.0
230
1.0
100
AcDbText
  0
TEXT
  5
421
100
AcDbEntity
  8
0
 62
     7
 48
0.0
100
AcDbText
 10
26.61638
 20
-5.0008
 30
0.0
 40
2.0
  1
      0.0000 -0.7784     3
 72
     5
 11
86.283048
 21
-5.0008
 31
0.0
210
0.0
220
0.0
230
1.0
100
AcDbText
  0
TEXT
  5
422
100
AcDbEntity
  8
0
 62
     7
 48
0.0
100
AcDbText
 10
26.61638
 20
-8.0008
 30
0.0
 40
2.0
  1
    
 72
     5
 11
34.949714
 21
-8.0008
 31
0.0
210
0.0
220
0.0
230
1.0
100
AcDbText
  0
TEXT
  5
423
100
AcDbEntity
  8
0
 62
     7
 48
0.0
100
AcDbText
 10
-2895.045947
 20
-142.571694
 30
0.0
 40
4.0
  1
WATERL       0.000 m
 72
     5
 11
-2803.712611
 21
-142.571694
 31
0.0
210
0.0
220
0.0
230
1.0
100
AcDbText
  0
TEXT
  5
424
100
AcDbEntity
  8
0
 62
     7
 48
0.0
100
AcDbText
 10
-2895.045947
 20
-148.571694
 30
0.0
 40
4.0
  1
HEEL         0.000 deg
 72
     5
 11
-2794.379275
 21
-148.571694
 31
0.0
210
0.0
220
0.0
230
1.0
100
AcDbText
  0
TEXT
  5
425
100
AcDbEntity
  8
0
 62
     7
 48
0.0
100
AcDbText
 10
-2895.045947
 20
-154.571694
 30
0.0
 40
4.0
  1
DISPLA      38.642 tonne
 72
     5
 11
-2785.045947
 21
-154.571694
 31
0.0
210
0.0
220
0.0
230
1.0
100
AcDbText
  0
TEXT
  5
426
100
AcDbEntity
  8
0
 62
     7
 48
0.0
100
AcDbText
 10
-2895.045947
 20
-160.571694
 30
0.0
 40
4.0
  1
PITCH        0.000 deg
 72
     5
 11
-2794.379275
 21
-160.571694
 31
0.0
210
0.0
220
0.0
230
1.0
100
AcDbText
  0
TEXT
  5
427
100
AcDbEntity
  8
0
 62
     7
 48
0.0
100
AcDbText
 10
-2895.045947
 20
-166.571694
 30
0.0
 40
4.0
  1
XCOFM       10.403 m
 72
     5
 11
-2803.712611
 21
-166.571694
 31
0.0
210
0.0
220
0.0
230
1.0
100
AcDbText
  0
TEXT
  5
428
100
AcDbEntity
  8
0
 62
     7
 48
0.0
100
AcDbText
 10
-2895.045947
 20
-172.571694
 30
0.0
 40
4.0
  1
VOLUME      37.699 m
 72
     5
 11
-2803.712611
 21
-172.571694
 31
0.0
210
0.0
220
0.0
230
1.0
100
AcDbText
  0
TEXT
  5
429
100
AcDbEntity
  8
0
 62
     7
 48
0.0
100
AcDbText
 10
-2895.045947
 20
-178.571694
 30
0.0
 40
4.0
  1
LCB         57.790 %
 72
     5
 11
-2803.712611
 21
-178.571694
 31
0.0
210
0.0
220
0.0
230
1.0
100
AcDbText
  0
TEXT
  5
42A
100
AcDbEntity
  8
0
 62
     7
 48
0.0
100
AcDbText
 10
-2895.045947
 20
-184.571694
 30
0.0
 40
4.0
  1
LCF         57.202 %
 72
     5
 11
-2803.712611
 21
-184.571694
 31
0.0
210
0.0
220
0.0
230
1.0
100
AcDbText
  0
TEXT
  5
42B
100
AcDbEntity
  8
0
 62
     7
 48
0.0
100
AcDbText
 10
-2895.045947
 20
-190.571694
 30
0.0
 40
4.0
  1
GZ           0.000 m
 72
     5
 11
-2803.712611
 21
-190.571694
 31
0.0
210
0.0
220
0.0
230
1.0
100
AcDbText
  0
TEXT
  5
42C
100
AcDbEntity
  8
0
 62
     7
 48
0.0
100
AcDbText
 10
-2895.045947
 20
-196.571694
 30
0.0
 40
4.0
  1
GM           2.857 m
 72
     5
 11
-2803.712611
 21
-196.571694
 31
0.0
210
0.0
220
0.0
230
1.0
100
AcDbText
  0
TEXT
  5
42D
100
AcDbEntity
  8
0
 62
     7
 48
0.0
100
AcDbText
 10
-2895.045947
 20
-202.571694
 30
0.0
 40
4.0
  1
M            2.857 m
 72
     5
 11
-2803.712611
 21
-202.571694
 31
0.0
210
0.0
220
0.0
230
1.0
100
AcDbText
  0
TEXT
  5
42E
100
AcDbEntity
  8
0
 62
     7
 48
0.0
100
AcDbText
 10
-2895.045947
 20
-208.571694
 30
0.0
 40
4.0
  1
MCT          0.724 tonne m per cm
 72
     5
 11
-2743.045947
 21
-208.571694
 31
0.0
210
0.0
220
0.0
230
1.0
100
AcDbText
  0
TEXT
  5
42F
100
AcDbEntity
  8
0
 62
     7
 48
0.0
100
AcDbText
 10
-2895.045947
 20
-214.571694
 30
0.0
 40
4.0
  1
MPI         73.420 tonne per m
 72
     5
 11
-2757.045947
 21
-214.571694
 31
0.0
210
0.0
220
0.0
230
1.0
100
AcDbText
  0
TEXT
  5
430
100
AcDbEntity
  8
0
 62
     7
 48
0.0
100
AcDbText
 10
-2895.045947
 20
-220.571694
 30
0.0
 40
4.0
  1
WPLANE      71.629 sq m
 72
     5
 11
-2789.712611
 21
-220.571694
 31
0.0
210
0.0
220
0.0
230
1.0
100
AcDbText
  0
TEXT
  5
431
100
AcDbEntity
  8
0
 62
     7
 48
0.0
100
AcDbText
 10
-2895.045947
 20
-226.571694
 30
0.0
 40
4.0
  1
WETSUR      81.262 sq m
 72
     5
 11
-2789.712611
 21
-226.571694
 31
0.0
210
0.0
220
0.0
230
1.0
100
AcDbText
  0
TEXT
  5
432
100
AcDbEntity
  8
0
 62
     7
 48
0.0
100
AcDbText
 10
-2895.045947
 20
-232.571694
 30
0.0
 40
4.0
  1
LOA         20.805 m
 72
     5
 11
-2803.712611
 21
-232.571694
 31
0.0
210
0.0
220
0.0
230
1.0
100
AcDbText
  0
TEXT
  5
433
100
AcDbEntity
  8
0
 62
     7
 48
0.0
100
AcDbText
 10
-2895.045947
 20
-238.571694
 30
0.0
 40
4.0
  1
LWL         18.000 m
 72
     5
 11
-2803.712611
 21
-238.571694
 31
0.0
210
0.0
220
0.0
230
1.0
100
AcDbText
  0
TEXT
  5
434
100
AcDbEntity
  8
0
 62
     7
 48
0.0
100
AcDbText
 10
-2895.045947
 20
-244.571694
 30
0.0
 40
4.0
  1
BMAX         5.690 m
 72
     5
 11
-2803.712611
 21
-244.571694
 31
0.0
210
0.0
220
0.0
230
1.0
100
AcDbText
  0
TEXT
  5
435
100
AcDbEntity
  8
0
 62
     7
 48
0.0
100
AcDbText
 10
-2895.045947
 20
-250.571694
 30
0.0
 40
4.0
  1
BWL          4.827 m
 72
     5
 11
-2803.712611
 21
-250.571694
 31
0.0
210
0.0
220
0.0
230
1.0
100
AcDbText
  0
TEXT
  5
436
100
AcDbEntity
  8
0
 62
     7
 48
0.0
100
AcDbText
 10
-2895.045947
 20
-256.571694
 30
0.0
 40
4.0
  1
DRAFT        1.080 m
 72
     5
 11
-2803.712611
 21
-256.571694
 31
0.0
210
0.0
220
0.0
230
1.0
100
AcDbText
  0
TEXT
  5
437
100
AcDbEntity
  8
0
 62
     7
 48
0.0
100
AcDbText
 10
-2895.045947
 20
-262.571694
 30
0.0
 40
4.0
  1
FREEBD       2.095 m
 72
     5
 11
-2803.712611
 21
-262.571694
 31
0.0
210
0.0
220
0.0
230
1.0
100
AcDbText
  0
TEXT
  5
438
100
AcDbEntity
  8
0
 62
     7
 48
0.0
100
AcDbText
 10
-2895.045947
 20
-268.571694
 30
0.0
 40
4.0
  1
CM           0.498 
 72
     5
 11
-2808.379275
 21
-268.571694
 31
0.0
210
0.0
220
0.0
230
1.0
100
AcDbText
  0
TEXT
  5
439
100
AcDbEntity
  8
0
 62
     7
 48
0.0
100
AcDbText
 10
-2895.045947
 20
-274.571694
 30
0.0
 40
4.0
  1
CP           0.807 
 72
     5
 11
-2808.379275
 21
-274.571694
 31
0.0
210
0.0
220
0.0
230
1.0
100
AcDbText
  0
TEXT
  5
43A
100
AcDbEntity
  8
0
 62
     7
 48
0.0
100
AcDbText
 10
-2895.045947
 20
-280.571694
 30
0.0
 40
4.0
  1
CB           0.402 
 72
     5
 11
-2808.379275
 21
-280.571694
 31
0.0
210
0.0
220
0.0
230
1.0
100
AcDbText
  0
ENDSEC
  0
SECTION
  2
OBJECTS
  0
DICTIONARY
  5
19
100
AcDbDictionary
  3
ACAD_GROUP
350
1A
  3
ACAD_MLINESTYLE
350
1B
  0
DICTIONARY
  5
1A
102
{ACAD_REACTORS
330
19
102
}
100
AcDbDictionary
  0
DICTIONARY
  5
1B
102
{ACAD_REACTORS
330
19
102
}
100
AcDbDictionary
  3
STANDARD
350
1C
  0
MLINESTYLE
  5
1C
102
{ACAD_REACTORS
330
1B
102
}
100
AcDbMlineStyle
  2
STANDARD
 70
     0
  3

 62
     0
 51
90.0
 52
90.0
 71
     2
 49
0.5
 62
   256
  6
BYLAYER
 49
-0.5
 62
   256
  6
BYLAYER
  0
ENDSEC
  0
EOF
